Menu:

 

Search:

 

dream theater - stream of consciousness:

 



Title: Stream Of Consciousness
Artist: 
Album: Train Of Thought
Author: Dream theater


Track 1: Bass

C|--------|--------|--------|--------|--------|--------|--------|--------|--------|
G|--------|--------|--------|--------|--------|--------|--------|--------|--------|
D|--------|--------|--------|--------|--------|--------|--------|--------|--------|
A|--------|--------|--------|--------|--------|--------|--------|--------|--------|
E|--------|--------|--------|--------|--------|--------|--------|--------|--------|
B|--------|--------|--------|--------|--------|--------|--------|--------|--------|


C|--------|--------|-------------|-----------------|-----------------|----------------|
G|--------|--------|-------------|-----------------|-----------------|----------------|
D|--------|--------|-------------|-----------------|-----------------|----------------|
A|--------|--------|-------------|-----------------|-----------------|----------------|
E|--------|--------|-------------|-----------------|-----------------|--------7---7---|
B|--------|-2------|-2----0------|------0----2-----|-------2----0----|----------------|


C|--------|-------------|--------------------|--------------------|--------------------|
G|--------|-------------|--------------------|--------------------|--------------------|
D|--------|-------------|--------------------|--------------------|--------------------|
A|--------|-------------|--------------------|--------------------|--------------------|
E|-5------|-5----4------|------4---4---2-----|-2---0---0----------|----------4---4-----|
B|--------|-------------|--------------------|---------------4----|------4-------------|


C|---------------------------------|---------------------------------|---------------------------------|
G|---------------------------------|---------------------------------|---------------------------------|
D|---------------------------------|---------------------------------|---------------------------------|
A|---------------------------------|---------------------------------|---------------------------------|
E|---------------------------------|---------------------------------|---------------------------------|
B|-2---2---2---2---2---2---2---2---|-2---2---0---0---0---0---0---0---|-0---0---0---0---2---2---2---2---|


C|---------------------------------|---------------------------------|---------------------------------|
G|---------------------------------|---------------------------------|---------------------------------|
D|---------------------------------|---------------------------------|---------------------------------|
A|---------------------------------|---------------------------------|---------------------------------|
E|---------------------------------|---------------------------------|-5---5---5---5---5---5---5---5---|
B|-2---2---2---2---2---2---0---0---|-0---0---0---0---0---0---0---0---|---------------------------------|


C|---------------------------------|---------------------------------|---------------------------------|
G|---------------------------------|---------------------------------|---------------------------------|
D|---------------------------------|---------------------------------|---------------------------------|
A|---------------------------------|---------------------------------|---------------------------------|
E|-5---5---4---4---4---4---4---4---|-4---4---4---4---2---2---2---2---|-2---0---0---0---0---0-----------|
B|---------------------------------|---------------------------------|-------------------------4---4---|


C|------------------------------|---------------------------------|---------------------------------|
G|------------------------------|---------------------------------|---------------------------------|
D|------------------------------|---------------------------------|---------------------------------|
A|------------------------------|---------------------------------|---------------------------------|
E|-----------------4-------4----|---------------------------------|---------------------------------|
B|-4---4---4---4-------4--------|-2---2---2---2---2---2---2---2---|-2---2---0---0---0---0---0---0---|


C|---------------------------------|---------------------------------|---------------------------------|
G|---------------------------------|---------------------------------|---------------------------------|
D|---------------------------------|---------------------------------|---------------------------------|
A|---------------------------------|---------------------------------|---------------------------------|
E|---------------------------------|---------------------------------|---------------------------------|
B|-0---0---0---0---2---2---2---2---|-2---2---2---2---2---2---0---0---|-0---0---0---0---0---0---0---0---|


C|---------------------------------|---------------------------------|---------------------------------|
G|---------------------------------|---------------------------------|---------------------------------|
D|---------------------------------|---------------------------------|---------------------------------|
A|---------------------------------|---------------------------------|---------------------------------|
E|-5---5---5---5---5---5---5---5---|-5---5---4---4---4---4---4---4---|-4---4---4---4---2---2---2---2---|
B|---------------------------------|---------------------------------|---------------------------------|


C|---------------------------------|------------------------------|---------------------------------|
G|---------------------------------|------------------------------|---------------------------------|
D|---------------------------------|------------------------------|---------------------------------|
A|---------------------------------|------------------------------|-4---4---4---4---4---4---4---7---|
E|-2---0---0---0---0---0-----------|-----------------4-------4----|---------------------------------|
B|-------------------------4---4---|-4---4---4---4-------4--------|---------------------------------|


C|-----------------------------------|---------------------------------|---------------------------------|
G|-----------------------------------|---------------------------------|---------------------------------|
D|-6---4-----------------------------|---------------------------------|-------------------------6---4---|
A|---------7--7--4-------------------|-------------------------4---4---|-4---4---4---4---4---7-----------|
E|-------------------7---7---7---7---|-7---7---7---7---7---7-----------|---------------------------------|
B|-----------------------------------|---------------------------------|---------------------------------|


C|-----------------------------------|---------------------------------|---------------------------------|
G|-----------------------------------|---------------------------------|---------------------------------|
D|-----------------------------------|---------------------------------|---------------------------------|
A|-7--7--4---------------------------|---------------------------------|---------------------------------|
E|-----------7---7---7---7---7---7---|-7---7---7---7---4---4---4---4---|-4---4---5---5---5---5---5---5---|
B|-----------------------------------|---------------------------------|---------------------------------|


C|---------------------------------|---------------------------------|---------------------------------|
G|---------------------------------|---------------------------------|---------------------------------|
D|---------------------------------|---------------------------------|---------------------------------|
A|---------------------------------|---------------------------------|---------------------------------|
E|-7---7---7---7---7---------------|---------4---4---4---4---4---4---|-5---5---5---5---5---5---0---0---|
B|---------------------7---7---7---|-7---7---------------------------|---------------------------------|


C|---------------------------------|---------------------------------|---------------------------------|
G|---------------------------------|---------------------------------|---------------------------------|
D|---------------------------------|---------------------------------|---------------------------------|
A|---------------------------------|---------------------------------|---------------------------------|
E|-0---0---0-----------------------|-4---4---4---4---4-------4---4---|-4---4---4-------4---4---4---4---|
B|-------------4---4---4---4---4---|---------------------4-----------|-------------4-------------------|


C|---------------------------------|---------------------------------|---------------------------------|
G|---------------------------------|---------------------------------|---------------------------------|
D|---------------------------------|---------------------------------|---------------------------------|
A|---------------------------------|---------------------------------|---------------------------------|
E|-4-------4---4---4---4---4-------|---------------------------------|---------------------------------|
B|-----4-----------------------4---|-2---2---2---2---2---2---2---2---|-2---2---0---0---0---0---0---0---|


C|---------------------------------|---------------------------------|---------------------------------|
G|---------------------------------|---------------------------------|---------------------------------|
D|---------------------------------|---------------------------------|---------------------------------|
A|---------------------------------|---------------------------------|---------------------------------|
E|---------------------------------|---------------------------------|---------------------------------|
B|-0---0---0---0---2---2---2---2---|-2---2---2---2---2---2---0---0---|-0---0---0---0---0---0---0---0---|


C|---------------------------------|---------------------------------|---------------------------------|
G|---------------------------------|---------------------------------|---------------------------------|
D|---------------------------------|---------------------------------|---------------------------------|
A|---------------------------------|---------------------------------|---------------------------------|
E|-5---5---5---5---5---5---5---5---|-5---5---4---4---4---4---4---4---|-4---4---4---4---2---2---2---2---|
B|---------------------------------|---------------------------------|---------------------------------|


C|---------------------------------|------------------------------|-----------------|
G|---------------------------------|------------------------------|-----------------|
D|---------------------------------|------------------------------|-----------------|
A|---------------------------------|------------------------------|-----------------|
E|-2---0---0---0---0---0-----------|-----------------4-------4----|-----------------|
B|-------------------------4---4---|-4---4---4---4-------4--------|-4-----5---5-----|


C|-----------------|-----------------|-----------------|-----------------|-----------------|
G|-----------------|-----------------|-----------------|-----------------|-----------------|
D|-----------------|-----------------|-----------------|-----------------|-----------------|
A|-----------------|-----------------|-3-----4---4-----|-----------------|-----------------|
E|-2-----4---4-----|-----------------|-----------------|-----------------|-2-----4---4-----|
B|-----------------|-4-----5---5-----|-----------------|-4-----5---5-----|-----------------|


C|-----------------|-----------------------|-------------------------------------|
G|-----------------|-----------------------|-------------------------------------|
D|-----------------|-4---------------------|-------------------------------------|
A|-----------------|------6--6---7---4-----|-------------------------------------|
E|-----------------|-----------------------|---------------5---5---4-------4--5--|
B|-4-----5---5-----|-----------------------|-4----5--5---------------------------|


C|-------------------------------------------|-------------------------------------|
G|-------------------------------------------|-------------------------------------|
D|-------------------------------------------|-------------------------------------|
A|-3---4--6-----7--6----4--------------------|-------------------------------------|
E|----------------------------7--5--4--------|---------------5---5---4-------4--5--|
B|-------------------------------------7--5--|-4----5--5---------------------------|


C|----------------------------------|-------------------------------------|-------------------------------------------|
G|----------------------------------|-------------------------------------|-------------------------------------------|
D|-4---4----------------------------|-------------------------------------|-------------------------------------------|
A|--------6--6--6--7---7--4----4----|-------------------------------------|-3---4--6-----7--6----4--------------------|
E|----------------------------------|---------------5---5---4-------4--5--|----------------------------7--5--4--------|
B|----------------------------------|-4----5--5---------------------------|-------------------------------------7--5--|


C|-------------------------------------|---------------------------|-------------------------------------|
G|-------------------------------------|---------------------------|-------------------------------------|
D|-------------------------------------|---------------------------|-------------------------------------|
A|-------------------------------------|-3---4--6--6--7--4---4-----|-------------------------------------|
E|---------------5---5---4-------4--5--|---------------------------|---------------5---5---4-------4--5--|
B|-4----5--5---------------------------|---------------------------|-4----5--5---------------------------|


C|-------------------------------------------|-------------------------------------|
G|-------------------------------------------|-------------------------------------|
D|-------------------------------------------|-------------------------------------|
A|-3---4--6-----7--6----4--------------------|-------------------------------------|
E|----------------------------7--5--4--------|---------------5---5---4-------4--5--|
B|-------------------------------------7--5--|-4----5--5---------------------------|


C|----------------------------------|-------------------------------------|-------------------------------------------|
G|----------------------------------|-------------------------------------|-------------------------------------------|
D|-4---4----------------------------|-------------------------------------|-------------------------------------------|
A|--------6--6--6--7---7--4----4----|-------------------------------------|-3---4--6-----7--6----4--------------------|
E|----------------------------------|---------------5---5---4-------4--5--|----------------------------7--5--4--------|
B|----------------------------------|-4----5--5---------------------------|-------------------------------------7--5--|


C|-------------------------------------|---------------------------|-----------------|
G|-------------------------------------|---------------------------|-----------------|
D|-------------------------------------|---------------------------|-----------------|
A|-------------------------------------|-3---4--6--6--7--4---4-----|-----------------|
E|---------------5---5---4-------4--5--|---------------------------|-----------------|
B|-4----5--5---------------------------|---------------------------|-4-----5---5-----|


C|-----------------|-----------------|---------------------|-----------------|-----------------|
G|-----------------|-----------------|---------------------|-----------------|-----------------|
D|-----------------|-----------------|----------------6----|-----------------|-----------------|
A|-----------------|-------3---3-----|-4-----6---6---------|-----------------|-----------------|
E|-------4---4-----|-5---------------|---------------------|-----------------|-------4---4-----|
B|-7---------------|-----------------|---------------------|-4-----5---5-----|-7---------------|


C|-----------------|--------|----------------------------|---------------------------|
G|-----------------|--------|----------------------------|---------------------------|
D|-----------------|--------|----------------------------|---------------------------|
A|-----------------|-4------|----------------------------|---------------------------|
E|-5-----7---7-----|--------|-4------------4-----4--4----|-----4--4--4--4------------|
B|-----------------|--------|----------------------------|---------------------------|


C|----------------------------|----------------------------------------------|----------------------------|
G|----------------------------|----------------------------------------------|----------------------------|
D|----------------------------|-----------------6-----------------6--7-------|----------------------------|
A|----------------------------|--------------------9--7--6--7--9-------------|----------------------------|
E|-4------------4-----4--4----|-----4----------------------------------------|-4------------4-----4--4----|
B|----------------------------|----------------------------------------------|----------------------------|


C|---------------------------|----------------------------|----------------------------------------------|
G|---------------------------|----------------------------|----------------------------------------------|
D|---------------------------|----------------------------|-----------------6-----------------6--7-------|
A|---------------------------|----------------------------|--------------------9--7--6--7--9-------------|
E|-----4--4--4--4------------|-4------------4-----4--4----|-----4----------------------------------------|
B|---------------------------|----------------------------|----------------------------------------------|


C|---------------------|------------------------|---------------------|---------------------|
G|---------------------|------------------------|---------------------|---------------------|
D|---------------------|------------------------|---------------------|---------------------|
A|---------------------|------------------------|---------------------|---------------------|
E|-4----4----4----4----|-4----4----4----4---4---|-4----4----4----4----|-4----4----4----4----|
B|---------------------|------------------------|---------------------|---------------------|


C|-------------------------------------------|-------------------------------------------|
G|-------------------------------------------|-------------------------------------------|
D|-6------4-----6--7-------------------------|-----------------------4-------------------|
A|------------------------3-----4--6------4--|----6--7------6-----7------7--6-----4---3--|
E|-------------------------------------------|-------------------------------------------|
B|-------------------------------------------|-------------------------------------------|


C|-------------------------------------------|-------------------------------------------|
G|-------------------------------------------|-------------------------------------------|
D|-6------4-----6--7-------------------------|-----------------------4------------7--4---|
A|------------------------3-----4--6------4--|----6--7------6-----7------7--6------------|
E|-------------------------------------------|-------------------------------------------|
B|-------------------------------------------|-------------------------------------------|


C|---------------------------|--------------------------|------------------------|
G|---------------------------|--------------------------|------------------------|
D|---------------------------|--------------------------|------------------------|
A|---------------------------|--------------------------|------------------------|
E|-4----4--4---2---2---------|-0----0-------------------|-4----4---5---5---------|
B|----------------------4----|---------4--1---1----2----|-------------------4----|


C|-----------------------|---------------------------|--------------------------|------------------------|
G|-----------------------|---------------------------|--------------------------|------------------------|
D|-----------------------|---------------------------|--------------------------|------------------------|
A|-----------------------|---------------------------|--------------------------|------------------------|
E|-----------------------|-4----4--4---2---2---------|-0----0-------------------|-4----4---5---5---------|
B|-5----4--4---2---2-----|----------------------4----|---------4--1---1----2----|-------------------4----|


C|-----------------------|---------------------------------|---------------------------------|
G|-----------------------|---------------------------------|---------------------------------|
D|-----------------------|---------------------------------|---------------------------------|
A|-----------------------|-4----4---4----------------------|---------------------------------|
E|-----------------------|-------------7---7---5----5---5--|-4---4---------------------------|
B|-5----4--4---2---2-----|---------------------------------|---------7----7---7--5---5---5---|


C|---------------------------------|-----------------------------------|---------------------------------|
G|---------------------------------|-----------------------------------|---------------------------------|
D|---------------------------------|-----------------------------------|---------------------------------|
A|-------------------------4----4--|----4------------------------------|---------------------------------|
E|-------------4---4---4-----------|-------7---7---5----5---5--4---4---|---------------------------------|
B|-4----4---4----------------------|-----------------------------------|-7----7---7--5---5---5---4----4--|


C|-----------------------------------|---------------------------------|-----------------------------------|
G|-----------------------------------|---------------------------------|-----------------------------------|
D|-----------------------------------|---------------------------------|-----------------------------------|
A|-------------------4----4---4------|---------------------------------|-----------------------------------|
E|-------4---4---4---------------7---|-7---5----5---5--4---4-----------|-------------------------------4---|
B|----4------------------------------|-------------------------7----7--|----7--5---5---5---4----4---4------|


C|---------------------------------|-----------------------------------|---------------------------------|
G|---------------------------------|-----------------------------------|---------------------------------|
D|---------------------------------|-----------------------------------|---------------------------------|
A|---------4----4---4--------------|-----------------------------------|---------------------------------|
E|-4---4---------------7---7---5---|----5---5--4---4-------------------|---------------------------------|
B|---------------------------------|-------------------7----7---7--5---|-5---5---4----4---4--4---4---4---|


C|---------------------------------|---------------------------------------|-----------------------------------------|
G|---------------------------------|---------------------------------------|-----------------------------------------|
D|---------------------------------|---------------------------------------|----7--6----4----------------------------|
A|---------------------------------|-----------------------------6---7--9--|------------------7--6--4--3-------------|
E|-------------------------4----5--|-5-----9---9---8-------8--9------------|------------------------------5--4----5--|
B|-4----4---4--4---4---4-----------|---------------------------------------|-----------------------------------------|


C|---------------------------------------|--------------------------------|---------------------------------------|
G|---------------------------------------|--------------------------------|---------------------------------------|
D|-----------------------------7---7--4--|-4--4--6---6--------------------|---------------------------------------|
A|-------4---4---3-------3--4------------|--------------7----7------------|-----------------------------6---7--9--|
E|-5-------------------------------------|------------------------4----5--|-5-----9---9---8-------8--9------------|
B|---------------------------------------|--------------------------------|---------------------------------------|


C|-----------------------------------------|-------------------------------------|
G|-----------------------------------------|-------------------------------------|
D|----7--6----4----------------------------|-------------------------------------|
A|------------------7--6--4--3-------------|-------4---4---3-------3--4--6----7--|
E|------------------------------5--4----5--|-5-----------------------------------|
B|-----------------------------------------|-------------------------------------|


C|-----------------------|-----------------------------------|---------------------------------|
G|-----------------------|-----------------------------------|---------------------------------|
D|-----------------------|-----------------------------------|---------------------------------|
A|-7---6---4-----4----4--|----4------------------------------|---------------------------------|
E|-----------------------|-------7---7---5----5---5--4---4---|---------------------------------|
B|-----------------------|-----------------------------------|-7----7---7--5---5---5---4----4--|


C|-----------------------------------|---------------------------------|-----------------------------------|
G|-----------------------------------|---------------------------------|-----------------------------------|
D|-----------------------------------|---------------------------------|-----------------------------------|
A|-------------------4----4---4------|---------------------------------|-----------------------------------|
E|-------4---4---4---------------7---|-7---5----5---5--4---4-----------|-------------------------------4---|
B|----4------------------------------|-------------------------7----7--|----7--5---5---5---4----4---4------|


C|---------------------------------|-----------------------------------|---------------------------------|
G|---------------------------------|-----------------------------------|---------------------------------|
D|---------------------------------|-----------------------------------|---------------------------------|
A|---------4----4---4--------------|-----------------------------------|---------------------------------|
E|-4---4---------------7---7---5---|----5---5--4---4-------------------|---------------------4---4---4---|
B|---------------------------------|-------------------7----7---7--5---|-5---5---4----4---4--------------|


C|---------------------------------|---------------------------------|---------------------------------|
G|---------------------------------|---------------------------------|---------------------------------|
D|---------------------------------|---------------------------------|---------------------------------|
A|-4----4---4----------------------|---------------------------------|---------------------------------|
E|-------------7---7---5----5---5--|-4---4---------------------------|---------------------------------|
B|---------------------------------|---------7----7---7--5---5---5---|-4----4---4--4---4---4---4----4--|


C|-------------------------------------|---------------------------------------|-------------------------------------------|
G|-------------------------------------|---------------------------------------|-------------------------------------------|
D|-------------------------------------|--------------------------------7--6---|----4--------------------------------------|
A|-------------------------------------|-------------------6---7--9------------|----------7--6--4--3-------------------4---|
E|-------------------4----5--5-----9---|-9---8-------8--9----------------------|----------------------5--4----5--5---------|
B|----4--4---4---4---------------------|---------------------------------------|-------------------------------------------|


C|---------------------------------------|--------------------------------|---------------------------------------|
G|---------------------------------------|--------------------------------|---------------------------------------|
D|-------------------7---7--4--4--4--6---|-6------------------------------|--------------------------------7--6---|
A|-4---3-------3--4----------------------|----7----7----------------------|-------------------6---7--9------------|
E|---------------------------------------|--------------4----5--5-----9---|-9---8-------8--9----------------------|
B|---------------------------------------|--------------------------------|---------------------------------------|


C|-------------------------------------------|---------------------------------------|
G|-------------------------------------------|---------------------------------------|
D|----4--------------------------------------|---------------------------------------|
A|----------7--6--4--3-------------------4---|-4---3-------3--4--6--7---6--6--6--7---|
E|----------------------5--4----5--5---------|---------------------------------------|
B|-------------------------------------------|---------------------------------------|


C|-----------------------------------|--------------------------------|-----------------------------|
G|-----------------------------------|--------------------------------|-----------------------------|
D|-----------------------------------|--------------------------------|-----------------------------|
A|-6----4--4-------------------------|--------------------------------|-----------------------------|
E|-------------5---4----4--4--4--4---|-4----4---4---0----0--0--0--0---|-0----0----4----4--4--4--4---|
B|-----------------------------------|--------------------------------|-----------------------------|


C|--------------------------------|---------------------------|-----------------------|
G|--------------------------------|---------------------------|-----------------------|
D|--------------------------------|---------------------------|-----------------------|
A|--------------------------------|-----------2----2--2---2---|-2---------------------|
E|-4----4---4---0----0--0--0--0---|-0----0--------------------|-------3----3--3---3---|
B|--------------------------------|---------------------------|-----------------------|


C|-----------------------|-----------------------|--------------------|------------------------|
G|-----------------------|-----------------------|--------------------|------------------------|
D|-----------------------|-----------------------|--------------------|------------------------|
A|-------2----2--2---2---|-2---------------------|----------------6---|-6----7----7---9---9----|
E|-3---------------------|-------3----3--3---3---|-3-----8----8-------|------------------------|
B|-----------------------|-----------------------|--------------------|------------------------|


C|--------------------|------------------------|--------------------|------------------------|
G|--------------------|------------------------|--------------------|------------------------|
D|--------------------|------------------------|--------------------|------------------------|
A|-10-------------6---|-6----7----7---9---9----|-10-------------6---|-6----7----7---9---9----|
E|-------8----8-------|------------------------|-------8----8-------|------------------------|
B|--------------------|------------------------|--------------------|------------------------|


C|--------------------|------------------------|--------------------|------------------------|
G|--------------------|------------------------|--------------------|------------------------|
D|--------------------|------------------------|--------------------|------------------------|
A|-10-------------6---|-6----7----7---9---9----|-10-------------6---|-6----7----7---9---9----|
E|-------8----8-------|------------------------|-------8----8-------|------------------------|
B|--------------------|------------------------|--------------------|------------------------|


C|---------------------------|------------------------|--------------------|------------------------|
G|---------------------------|------------------------|--------------------|------------------------|
D|---------------------------|------------------------|--------------------|------------------------|
A|-10--------------------6---|-6----7----7---9---9----|-10-------------6---|-6----7----7---9---9----|
E|------6---7---8----8-------|------------------------|-------8----8-------|------------------------|
B|---------------------------|------------------------|--------------------|------------------------|


C|---------------------------|------------------------|--------------------|------------------------|
G|---------------------------|------------------------|--------------------|------------------------|
D|---------------------------|------------------------|--------------------|------------------------|
A|-10--------------------6---|-6----7----7---9---9----|-10-------------6---|-6----7----7---9---9----|
E|------6---7---8----8-------|------------------------|-------8----8-------|------------------------|
B|---------------------------|------------------------|--------------------|------------------------|


C|---------------------------|------------------------|------------------------|---------------------------|
G|---------------------------|------------------------|------------------------|---------------------------|
D|---------------------------|------------------------|----------4---4----5----|-5---7---7----8------------|
A|-10--------------------6---|-6----7----7---9---9----|-6----6-----------------|-------------------4---5---|
E|------6---7---8----8-------|------------------------|------------------------|---------------------------|
B|---------------------------|------------------------|------------------------|---------------------------|


C|------------------------|---------------------------|------------------------|---------------------------|
G|------------------------|---------------------------|------------------------|---------------------------|
D|----------4---4----5----|-5---7---7-------------7---|-7----8----8---10--10---|-11--------------------7---|
A|-6----6-----------------|--------------9----9-------|------------------------|------7---8---9----9-------|
E|------------------------|---------------------------|------------------------|---------------------------|
B|------------------------|---------------------------|------------------------|---------------------------|


C|------------------------|-----------------|-------------|-------------|-------------|
G|------------------------|------8----------|-------------|-------------|-------------|
D|-7----8----8---10--10---|-11--------------|-------------|-------------|-------------|
A|------------------------|-----------7-----|-------6-----|-------4-----|-------------|
E|------------------------|-----------------|-------------|-------------|------7------|
B|------------------------|-----------------|-------------|-------------|-------------|


C|------------------------|--------|--------|--------|--------|-------------|--------|
G|------------------------|--------|--------|--------|--------|-------------|--------|
D|------------------------|--------|--------|--------|--------|-------------|--------|
A|------------------------|--------|--------|--------|--------|-2------2----|--------|
E|------6----6---3---3----|-4------|-0------|-4------|-0------|-------------|-3------|
B|------------------------|--------|--------|--------|--------|-------------|--------|


C|-------------|--------|------------------------|--------------------|------------------------|
G|-------------|--------|------------------------|--------------------|------------------------|
D|-------------|--------|------------------------|--------------------|------------------------|
A|-2------2----|--------|----------6---6----7----|-7---9---9----10----|----------6---6----7----|
E|-------------|-3------|-8----8-----------------|--------------------|-8----8-----------------|
B|-------------|--------|------------------------|--------------------|------------------------|


C|--------------------|------------------------|--------------------|------------------------|
G|--------------------|------------------------|--------------------|------------------------|
D|--------------------|------------------------|--------------------|------------------------|
A|-7---9---9----10----|----------6---6----7----|-7---9---9----10----|----------6---6----7----|
E|--------------------|-8----8-----------------|--------------------|-8----8-----------------|
B|--------------------|------------------------|--------------------|------------------------|


C|--------------------|------------------------|---------------------------|------------------------|
G|--------------------|------------------------|---------------------------|------------------------|
D|--------------------|------------------------|---------------------------|------------------------|
A|-7---9---9----10----|----------6---6----7----|-7---9---9----10-----------|----------6---6----7----|
E|--------------------|-8----8-----------------|-------------------6---7---|-8----8-----------------|
B|--------------------|------------------------|---------------------------|------------------------|


C|---------------------------|------------------------|---------------------------|
G|---------------------------|------------------------|---------------------------|
D|-----------------------4---|-4----5----5---7---7----|-8---------------------4---|
A|-7---9---9----6----6-------|------------------------|------4---5---6----6-------|
E|---------------------------|------------------------|---------------------------|
B|---------------------------|------------------------|---------------------------|


C|------------------------|------------------------|---------------------------|------------------------|
G|------------------------|------------------------|---------------------------|------------------------|
D|-4----5----5---7---7----|----------7---7----8----|-8---10--10---11-----------|----------7---7----8----|
A|------------------------|-9----9-----------------|-------------------7---8---|-9----9-----------------|
E|------------------------|------------------------|---------------------------|------------------------|
B|------------------------|------------------------|---------------------------|------------------------|


C|------------------------|--------|--------|-------------|-------------|--------------------------------|
G|-------------------8----|--------|--------|-------------|-------------|--------------------------------|
D|-8---10--10---11--------|--------|--------|-------------|-------------|--------------------------------|
A|------------------------|-7------|-6------|-4-----------|-------------|--------------------------------|
E|------------------------|--------|--------|--------7----|--------6----|-6---3---3----4----4--4--4--4---|
B|------------------------|--------|--------|-------------|-------------|--------------------------------|


C|-------------------------------------|----------------------------------|-------------------------------------|
G|-------------------------------------|----------------------------------|-------------------------------------|
D|-------------------------------------|----------------------------------|-------------------------------------|
A|-------------------------------------|----------------------------------|-------------------------------------|
E|-4--4---4--4---4---0----0--0--0--0---|-0--0---0--0----4----4--4--4--4---|-4--4---4--4---4---0----0--0--0--0---|
B|-------------------------------------|----------------------------------|-------------------------------------|


C|----------------------------------|-------------------------------------|-------------------------------------------|
G|----------------------------------|-------------------------------------|-------------------------------------------|
D|----------------------------------|-------------------------------------|-------------------------------------------|
A|----------------------------------|-------------------------------------|-------------------------------------------|
E|-0--0---0--0----7----7--7--7--7---|-7--7---7--7---7---3----3--3--3--3---|-3---3---3---3---3---3---7----7--7--7--7---|
B|----------------------------------|-------------------------------------|-------------------------------------------|


C|-------------------------------------|----------------------------------------|-------------------------------------|
G|-------------------------------------|----------------------------------------|-------------------------------------|
D|-------------------------------------|----------------------------------------|-------------------------------------|
A|-------------------------------------|----------------------------------------|-------------------------------------|
E|-7--7---7--7---7---3----3--3--3--3---|-3---3---3--3--3--3---8----8--8--8--8---|-8--8---8--8---8---4----4--4--4--4---|
B|-------------------------------------|----------------------------------------|-------------------------------------|


C|---------------------------------------|-------------------------------------|-----------------------------------|
G|---------------------------------------|-------------------------------------|-----------------------------------|
D|---------------------------------------|-------------------------------------|-----------------------------------|
A|---------------------------------------|-------------------------------------|-----------------------------------|
E|-4---4---4---4---4---8----8--8--8--8---|-8--8---8--8---8---4----4--4--4--4---|-4----4--4---4---------------------|
B|---------------------------------------|-------------------------------------|-----------------4----4--4--4--4---|


C|--------------------------------|-----------------------------|--------------------------------|
G|--------------------------------|-----------------------------|--------------------------------|
D|--------------------------------|-----------------------------|--------------------------------|
A|--------------------------------|-----------------------------|--------------------------------|
E|--------------------------------|-----------------------------|--------------------------------|
B|-4----4---4---0----0--0--0--0---|-0----0----4----4--4--4--4---|-4----4---4---0----0--0--0--0---|


C|---------------------------|------------------------------|---------------------------|
G|---------------13------14--|---------13------14-------14--|-----13-------14------13---|
D|-----------11------11------|-----11------11---------------|---------------------------|
A|---------------------------|----------------------14------|-14-------14------14-------|
E|---------------------------|------------------------------|---------------------------|
B|-0----0--------------------|------------------------------|---------------------------|


C|------------------------------|---------------------------|------------------------------|
G|-----13------14-------13------|-14-------14------13-------|-14------13-------13------14--|
D|-11------11-------11------11--|---------------------------|--------------11------11------|
A|------------------------------|------14------14-------14--|-----14-----------------------|
E|------------------------------|---------------------------|------------------------------|
B|------------------------------|---------------------------|------------------------------|


C|------------------------------|---------------------------|------------------------------|
G|---------13------14-------14--|-----13-------14------13---|-----13------14-------13------|
D|-----11------11---------------|---------------------------|-11------11-------11------11--|
A|----------------------14------|-14-------14------14-------|------------------------------|
E|------------------------------|---------------------------|------------------------------|
B|------------------------------|---------------------------|------------------------------|


C|---------------------------|------------------------------|---------------------------------|
G|-14-------14------13-------|-14------13-------------------|---------------------------------|
D|---------------------------|------------------------------|---------------------------------|
A|------14------14-------14--|-----14-----------------------|---------------------------------|
E|---------------------------|------------------------------|---------------------------------|
B|---------------------------|--------------2---2---2---2---|-2---2---2---2---2---2---0---0---|


C|---------------------------------|---------------------------------|---------------------------------|
G|---------------------------------|---------------------------------|---------------------------------|
D|---------------------------------|---------------------------------|---------------------------------|
A|---------------------------------|---------------------------------|---------------------------------|
E|---------------------------------|---------------------------------|---------------------------------|
B|-0---0---0---0---0---0---0---0---|-2---2---2---2---2---2---2---2---|-2---2---0---0---0---0---0---0---|


C|---------------------------------|---------------------------------|---------------------------------|
G|---------------------------------|---------------------------------|---------------------------------|
D|---------------------------------|---------------------------------|---------------------------------|
A|---------------------------------|---------------------------------|---------------------------------|
E|-----------------5---5---5---5---|-5---5---5---5---5---5---4---4---|-4---4---4---4---4---4---4---4---|
B|-0---0---0---0-------------------|---------------------------------|---------------------------------|


C|---------------------------------|---------------------------------|---------------------------------|
G|---------------------------------|---------------------------------|---------------------------------|
D|---------------------------------|---------------------------------|---------------------------------|
A|---------------------------------|---------------------------------|-----------------4---4---4---4---|
E|-2---2---2---2---2---0---0---0---|-0---0---------------------------|-4---4---4---4-------------------|
B|---------------------------------|---------4---4---4---4---4---4---|---------------------------------|


C|-----------------------------------|---------------------------------|---------------------------------|
G|-----------------------------------|---------------------------------|---------------------------------|
D|-----------------6---4-------------|---------------------------------|---------------------------------|
A|-4---4---4---7-----------7--7--4---|---------------------------------|---------4---4---4---4---4---4---|
E|-----------------------------------|-7---7---7---7---7---7---7---7---|-7---7---------------------------|
B|-----------------------------------|---------------------------------|---------------------------------|


C|-----------------------------------|---------------------------------|---------------------------------|
G|-----------------------------------|---------------------------------|---------------------------------|
D|---------6---4---------------------|---------------------------------|---------------------------------|
A|-4---7-----------7--7--4-----------|---------------------------------|---------------------------------|
E|---------------------------7---7---|-7---7---7---7---7---7---7---7---|-4---4---4---4---4---4---5---5---|
B|-----------------------------------|---------------------------------|---------------------------------|


C|---------------------------------|---------------------------------|---------------------------------|
G|---------------------------------|---------------------------------|---------------------------------|
D|---------------------------------|---------------------------------|---------------------------------|
A|---------------------------------|---------------------------------|---------------------------------|
E|-5---5---5---5---7---7---7---7---|-7-----------------------4---4---|-4---4---4---4---5---5---5---5---|
B|---------------------------------|-----7---7---7---7---7-----------|---------------------------------|


C|---------------------------------|---------------------------------|---------------------------------|
G|---------------------------------|---------------------------------|---------------------------------|
D|---------------------------------|---------------------------------|---------------------------------|
A|---------------------------------|---------------------------------|---------------------------------|
E|-5---5---0---0---0---0---0-------|-----------------4---4---4---4---|-4-------4---4---4---4---4-------|
B|-----------------------------4---|-4---4---4---4-------------------|-----4-----------------------4---|


C|---------------------------------|---------------------------------|---------------------------------|
G|---------------------------------|---------------------------------|---------------------------------|
D|---------------------------------|---------------------------------|---------------------------------|
A|---------------------------------|-----------------4---4---4---4---|-4---4---6---6---6---6---6---6---|
E|-4---4---4---4---4-------4---4---|-4---4---4-----------------------|---------------------------------|
B|---------------------4-----------|-------------4-------------------|---------------------------------|


C|---------------------------------|---------------------------------|---------------------------------|
G|---------------------------------|---------------------------------|---------------------------------|
D|---------------------------------|---------------------------------|---------------------------------|
A|-------------------------7---7---|-7---7---7---7-------------------|---------------------------------|
E|-7---7---7---7---7---7-----------|-----------------5---5---5---5---|-5---5---------------------------|
B|---------------------------------|---------------------------------|---------4---4---4---4---4---4---|


C|---------------------------------|---------------------------------|---------------------------------|
G|---------------------------------|---------------------------------|---------------------------------|
D|---------------------------------|---------------------------------|---------------------------------|
A|-------------------------3---3---|-3---3---3---3---4---4---4---4---|-4---4---6---6---6---6---6---6---|
E|-4---4---4---4---4---4-----------|---------------------------------|---------------------------------|
B|---------------------------------|---------------------------------|---------------------------------|


C|---------------------------------|---------------------------------|---------------------------------|
G|---------------------------------|---------------------------------|---------------------------------|
D|-9---9---9---9---9---9-----------|---------------------------------|---------------------------------|
A|-------------------------7---7---|-7---7---7---7-------------------|---------------------------------|
E|---------------------------------|-----------------5---5---5---5---|-5---5---------------------------|
B|---------------------------------|---------------------------------|---------4---4---4---4---4---4---|


C|---------------------------------|---------------------------------|---------------------------------|
G|---------------------------------|---------------------------------|---------------------------------|
D|---------------------------------|---------------------------------|---------------------------------|
A|---------------------------------|---------------------------------|---------------------------------|
E|-4---4---4---4---4-------4---4---|-4---4---4-------4---4---4---4---|-4-------4---4---4---4---4-------|
B|---------------------4-----------|-------------4-------------------|-----4-----------------------4---|


C|---------------------------------|---------------------------------|---------------------------------|
G|---------------------------------|---------------------------------|---------------------------------|
D|---------------------------------|---------------------------------|---------------------------------|
A|-4---4---4---4---4---4---6---6---|-6---6---6---6-------------------|---------7---7---7---7---7---7---|
E|---------------------------------|-----------------7---7---7---7---|-7---7---------------------------|
B|---------------------------------|---------------------------------|---------------------------------|


C|---------------------------------|---------------------------------|---------------------------------|
G|---------------------------------|---------------------------------|---------------------------------|
D|---------------------------------|---------------------------------|---------------------------------|
A|---------------------------------|---------------------------------|---------3---3---3---3---3---3---|
E|-5---5---5---5---5---5-----------|-----------------4---4---4---4---|-4---4---------------------------|
B|-------------------------4---4---|-4---4---4---4-------------------|---------------------------------|


C|---------------------------------|---------------------------------|---------------------------------|
G|---------------------------------|---------------------------------|---------------------------------|
D|---------------------------------|-----------------9---9---9---9---|-9---9---------------------------|
A|-4---4---4---4---4---4---6---6---|-6---6---6---6-------------------|---------7---7---7---7---7---7---|
E|---------------------------------|---------------------------------|---------------------------------|
B|---------------------------------|---------------------------------|---------------------------------|


C|---------------------------------|---------------------------------|---------------------------------|
G|---------------------------------|---------------------------------|---------------------------------|
D|---------------------------------|---------------------------------|---------------------------------|
A|---------------------------------|---------------------------------|---------------------------------|
E|-5---5---5---5---5---5-----------|-----------------4---4---4---4---|-4-------4---4---4---4---4-------|
B|-------------------------4---4---|-4---4---4---4-------------------|-----4-----------------------4---|


C|---------------------------------|---------------------------------|---------------------------------|
G|---------------------------------|---------------------------------|---------------------------------|
D|---------------------------------|---------------------------------|---------------------------------|
A|---------------------------------|-----------------4---4---4---4---|-4---4---6---6---6---6---6---6---|
E|-4---4---4---4---4-------4---4---|-4---4---4-----------------------|---------------------------------|
B|---------------------4-----------|-------------4-------------------|---------------------------------|


C|---------------------------------|---------------------------------|---------------------------------|
G|---------------------------------|---------------------------------|---------------------------------|
D|---------------------------------|---------------------------------|---------------------------------|
A|-------------------------7---7---|-7---7---7---7-------------------|---------------------------------|
E|-7---7---7---7---7---7-----------|-----------------5---5---5---5---|-5---5---------------------------|
B|---------------------------------|---------------------------------|---------4---4---4---4---4---4---|


C|---------------------------------|---------------------------------|---------------------------------|
G|---------------------------------|---------------------------------|---------------------------------|
D|---------------------------------|---------------------------------|---------------------------------|
A|-------------------------3---3---|-3---3---3---3---4---4---4---4---|-4---4---6---6---6---6---6---6---|
E|-4---4---4---4---4---4-----------|---------------------------------|---------------------------------|
B|---------------------------------|---------------------------------|---------------------------------|


C|---------------------------------|---------------------------------|---------------------------------|
G|---------------------------------|---------------------------------|---------------------------------|
D|-9---9---9---9---9---9-----------|---------------------------------|---------------------------------|
A|-------------------------7---7---|-7---7---7---7-------------------|---------------------------------|
E|---------------------------------|-----------------5---5---5---5---|-5---5---------------------------|
B|---------------------------------|---------------------------------|---------4---4---4---4---4---4---|


C|---------------------------------|---------------------------------|---------------------------------|
G|---------------------------------|---------------------------------|---------------------------------|
D|---------------------------------|---------------------------------|---------------------------------|
A|---------------------------------|---------------------------------|---------------------------------|
E|-4---4---4---4---4-------4---4---|-4---4---4-------4---4---4---4---|-4-------4---4---4---4---4-------|
B|---------------------4-----------|-------------4-------------------|-----4-----------------------4---|


C|---------------------------------|---------------------------------|---------------------------------|
G|-----14--13--14--13----------16--|-14--16--14----------13------13--|-------------14--13--14--13------|
D|-11------------------11--13------|-------------13----------16------|-16------14------------------14--|
A|---------------------------------|-----------------14--------------|-----14--------------------------|
E|---------------------------------|---------------------------------|---------------------------------|
B|---------------------------------|---------------------------------|---------------------------------|


C|---------------------------------|---------------------------------|---------------------------------|
G|-----13--11--13--11--------------|---------------------14--13--14--|-13----------14--13--14--13------|
D|-----------------------------13--|-13--13--13--13------------------|---------10------------------10--|
A|-12------------------12----------|-----------------11--------------|-----11--------------------------|
E|-------------------------11------|---------------------------------|---------------------------------|
B|---------------------------------|---------------------------------|---------------------------------|


C|---------------------------------|---------------------------------|---------------------------------|
G|-----14--13--14--13----------16--|-14--16--14----------13------13--|-------------14--13--14--13------|
D|-11------------------11--13------|-------------13----------16------|-16------14------------------14--|
A|---------------------------------|-----------------14--------------|-----14--------------------------|
E|---------------------------------|---------------------------------|---------------------------------|
B|---------------------------------|---------------------------------|---------------------------------|


C|---------------------------------|---------------------------------|---------------------------------|
G|-----13--11--13--11--------------|---------------------------------|---------------------------------|
D|-----------------------------13--|-13--13--13--13------14--13--14--|-13----------14--13--14--13------|
A|-12------------------12----------|-----------------11--------------|---------11----------------------|
E|-------------------------11------|---------------------------------|-----11----------------------11--|
B|---------------------------------|---------------------------------|---------------------------------|


C|---------------------------------|-----------------------|-----------------|----------------|
G|-----14--13--14--13--------------|-----------------------|-----------------|----------------|
D|---------------------13----------|-----------------------|-----------------|----------------|
A|-11----------------------11--12--|-11--12--11------------|-----------------|----------------|
E|---------------------------------|-------------11--------|-----------------|----------------|
B|---------------------------------|-----------------2-----|-------2----0----|--------0---0---|


C|--------|-------------|--------------------|-----------------|----------------|-------------|
G|--------|-------------|--------------------|-----------------|----------------|-------------|
D|--------|-------------|--------------------|-----------------|----------------|-------------|
A|--------|-------------|--------------------|-----------------|----------------|-------------|
E|--------|-------------|--------------5-----|-------5----4----|--------4---4---|-2------0----|
B|-2------|-2----0------|------0---0---------|-----------------|----------------|-------------|


C|-------------|------------------------|------------------------|---------------------------|
G|-------------|------------------------|------------------------|---------------------------|
D|-------------|------------------------|------------------------|---------------------------|
A|-------------|------------------------|------------------------|---------------------------|
E|-------------|------4-----5---5---5---|-4-----5---5---5---4----|-----5---5---5---4----4----|
B|-------4-----|------------------------|------------------------|---------------------------|


C|-------------|
G|-------------|
D|-------------|
A|-------------|
E|-4-----------|
B|------2------|