Menu:

 

Search:

 

dream theater - strange deja vu:

 



Title: Scene Two: II. Strange Deja vu
Artist: 
Album: Scenes From A Memory
Author: Dream Theater


Track 1: Gtr1

E|-------------------------------------------|-----------------------------------------------|
B|-------------------------------------------|-----------------------------------------------|
G|-8--8--8--8------8--8--8--8------7--7--7---|-----7--7--7--7--------------------------------|
D|-6--6--6--6------6--6--6--6------6--6--6---|-----6--6--6--6-----------6-----------7--------|
A|-------------------------------------------|-----------------------------5-----------6-----|
E|-4--4--4--4------4--4--4--4------4--4--4---|-----4--4--4--4-----0--4--------4--5--------5--|


E|-------------------------------------------|---------------------------|-------------------------------------------|
B|-------------------------------------------|---------------------------|-------------------------------------------|
G|-8--8--8--8------8--8--8--8------7--7--7---|-----7--7--7--7------------|-8--8--8--8------8--8--8--8------7--7--7---|
D|-6--6--6--6------6--6--6--6------6--6--6---|-----6--6--6--6------------|-6--6--6--6------6--6--6--6------6--6--6---|
A|-------------------------------------------|---------------------------|-------------------------------------------|
E|-4--4--4--4------4--4--4--4------4--4--4---|-----4--4--4--4------------|-4--4--4--4------4--4--4--4------4--4--4---|


E|-----------------------------------------------|-------------------------------------------|
B|-----------------------------------------------|-------------------------------------------|
G|-----7--7--7--7--------------------------------|-5--5--5--5------5--5--5--5------4--4--4---|
D|-----6--6--6--6-----------6-----------7--------|-3--3--3--3------3--3--3--3------3--3--3---|
A|-----------------------------5-----------6-----|-------------------------------------------|
E|-----4--4--4--4-----0--4--------4--5--------5--|-1--1--1--1------1--1--1--1------1--1--1---|


E|---------------------------|-------------------------------------------|-----------------------------------------------|
B|---------------------------|-------------------------------------------|-----------------------------------------------|
G|-----4--4--4--4------------|-5--5--5--5------5--5--5--5------4--4--4---|-----4--4--4--4--------------------------------|
D|-----3--3--3--3------------|-3--3--3--3------3--3--3--3------3--3--3---|-----3--3--3--3-----------3-----------4--------|
A|---------------------------|-------------------------------------------|-----------------------------2-----------3-----|
E|-----1--1--1--1------------|-1--1--1--1------1--1--1--1------1--1--1---|-----1--1--1--1-----0--1--------1--2--------2--|


E|-------------------------------------------|---------------------------|-------------------------------------------|
B|-------------------------------------------|---------------------------|-------------------------------------------|
G|-8--8--8--8------8--8--8--8------7--7--7---|-----7--7--7--7------------|-8--8--8--8------8--8--8--8------7--7--7---|
D|-6--6--6--6------6--6--6--6------6--6--6---|-----6--6--6--6------------|-6--6--6--6------6--6--6--6------6--6--6---|
A|-------------------------------------------|---------------------------|-------------------------------------------|
E|-4--4--4--4------4--4--4--4------4--4--4---|-----4--4--4--4------------|-4--4--4--4------4--4--4--4------4--4--4---|


E|-----------------------------------------------|-------------------------------------------|
B|-----------------------------------------------|-------------------------------------------|
G|-----7--7--7--7--------------------------------|-5--5--5--5------5--5--5--5------4--4--4---|
D|-----6--6--6--6-----------6-----------7--------|-3--3--3--3------3--3--3--3------3--3--3---|
A|-----------------------------5-----------6-----|-------------------------------------------|
E|-----4--4--4--4-----0--4--------4--5--------5--|-1--1--1--1------1--1--1--1------1--1--1---|


E|---------------------------|-------------------------------------------|-----------------------------------------------|
B|---------------------------|-------------------------------------------|-----------------------------------------------|
G|-----4--4--4--4------------|-5--5--5--5------5--5--5--5------4--4--4---|-----4--4--4--4--------------------------------|
D|-----3--3--3--3------------|-3--3--3--3------3--3--3--3------3--3--3---|-----3--3--3--3-----------3-----------4--------|
A|---------------------------|-------------------------------------------|-----------------------------2-----------3-----|
E|-----1--1--1--1------------|-1--1--1--1------1--1--1--1------1--1--1---|-----1--1--1--1-----0--1--------1--2--------2--|


E|-------------------------------------------|---------------------------------------------|
B|-------------------------------------------|---------------------------------------------|
G|-------------------------------------------|---------------------------------------------|
D|-----------------------------------6-------|-------4---4---------1--2--1-----------------|
A|-------------------------------------------|------------------------------4--------------|
E|-4--1--2--5-----5--4------4--2--4-------4--|----4---------4---4--------------4--1--2--5--|


E|-----------------------------------------|---------------------------------------------|
B|-----------------------------------------|---------------------------------------------|
G|-----------------------------------------|---------------------------------------------|
D|-----------------------6-------------4---|-4-------------------------------------------|
A|-----------------------------------------|-----------4--6--4--3------------------------|
E|----5--4------4--2--4-------4-----4------|----4---4--------------1--2--4--5-----4--2---|


E|-----------------------------------------|-----------------------------------------------|
B|-----------------------------------------|-----------------------------------------------|
G|-----------------------------------------|-----------------------------------------------|
D|-------------4-------------2---2---------|-1--2--1---------------------------------------|
A|-----------------------------------------|----------4--2---------------------------------|
E|-2--2--0--2-------2-----2---------2---2--|----------------5--4--5-----4--2------2--0--2--|


E|-----------------------------------------|---------------------------------|-------------------------------|
B|-----------------------------------------|---------------------------------|-------------------------------|
G|-----------------------------------------|-------------6--6-----------8----|------8---------8---------7----|
D|-4-------------2-------------6--7--6--4--|-------------6--6-----------6----|------6---6--6--6---6--6--6----|
A|-----------------------------------------|-6--7--6-----4--4----------------|-------------------------------|
E|------2-----2---------2---2--------------|----------7----------------------|-------------------------------|


E|------------------------|-------------------------------|------------------------|
B|------------------------|-------------------------------|------------------------|
G|-----5---5---------8----|------8---------10--------7----|-----8---8---------5----|
D|-----6---6---------6----|------6---6--6--6---6--6--6----|-----6---6---------3----|
A|------------------------|-------------------------------|------------------------|
E|------------------------|-------------------------------|------------------------|


E|-------------------------------|------------------------|-------------------------------|
B|-------------------------------|------------------------|-------------------------------|
G|------5---------5---------4----|-----2---2---------5----|------5---------7---------4----|
D|------3---3--3--3---3--3--3----|-----3---3---------3----|------3---3--3--3---3--3--3----|
A|-------------------------------|------------------------|-------------------------------|
E|-------------------------------|------------------------|-------------------------------|


E|------------------------|-------------------------------|--------------------------|
B|------------------------|-------------------------------|--------------------------|
G|-----5---5---------8----|------8---------8---------7----|-----5---5-----5--7--8----|
D|-----3---3---------6----|------6---6--6--6---6--6--6----|-----6---6-----6-----6----|
A|------------------------|-------------------------------|--------------------------|
E|------------------------|-------------------------------|--------------------------|


E|-------------------------------|------------------------|-------------------------------|
B|-------------------------------|------------------------|-------------------------------|
G|------8---------10--------7----|-----8---8---------5----|------5---------5---------4----|
D|------6---6--6--6---6--6--6----|-----6---6---------3----|------3---3--3--3---3--3--3----|
A|-------------------------------|------------------------|-------------------------------|
E|-------------------------------|------------------------|-------------------------------|


E|--------------------------|-------------------------------|---------------------------|
B|--------------------------|-------------------------------|-------------------7----7--|
G|-----2---2-----2--4--5----|------5---------7---------4----|-----5---5---------4----4--|
D|-----3---3-----3-----3----|------3---3--3--3---3--3--3----|-----3---3-----------------|
A|--------------------------|-------------------------------|---------------------------|
E|--------------------------|-------------------------------|---------------------------|


E|--------------------------------|--------------------------------|--------------------------------|
B|-7---6---6---4----------7----7--|-7---6---6---4----------9----9--|-9---7---7---6----------9----9--|
G|-4---4---4---4----4--4--4----4--|-4---4---4---4----4--4--6----6--|-6---6---6---6----6--6--6----6--|
D|--------------------------------|--------------------------------|--------------------------------|
A|--------------------------------|--------------------------------|--------------------------------|
E|--------------------------------|--------------------------------|--------------------------------|


E|----------------------------------|-----------------------------------------|---------------------------------------------|
B|-9---7---7---6----6---------------|-----------------------------------------|---------------------------------------------|
G|-6---6---6---6----6---------------|-----------------------------------------|---------------------------------------------|
D|----------------------------------|-----------------------6-------------4---|-4---------1--2--1---------------------------|
A|----------------------------------|-----------------------------------------|--------------------4------------------------|
E|----------------------4--1--2--5--|----5--4------4--2--4-------4-----4------|----4---4--------------4--1--2--5-----5--4---|


E|-----------------------------------------|-----------------------------------------------|
B|-----------------------------------------|-----------------------------------------------|
G|-----------------------------------------|-----------------------------------------------|
D|-------------6-------------4---4---------|-----------------------------------------------|
A|-----------------------------------------|-4--6--4--3------------------------------------|
E|----4--2--4-------4-----4---------4---4--|-------------1--2--4--5-----4--2---2--2--0--2--|


E|-----------------------------------------|-------------------------------------------|
B|-----------------------------------------|-------------------------------------------|
G|-----------------------------------------|-------------------------------------------|
D|-4-------------2---2---------1--2--1-----|-----------------------------------4-------|
A|--------------------------------------4--|-2-----------------------------------------|
E|------2-----2---------2---2--------------|----5--4--5-----4--2------2--0--2-------2--|


E|-------------------------------------------|----------------|----------------|----------------|
B|---------------------------------------5---|------------2---|------------5---|----------------|
G|---------------------------------------6---|------------2---|------------4---|----------------|
D|-------2-------------6--4--------------6---|------------2---|------------2---|----------------|
A|---------------------------6--7--6-----4---|------------0---|----------------|----------------|
E|----2---------2---2-----------------7------|----------------|------------4---|------------2---|


E|-------------------------------|-----------------|-5---5---------------------|-4---4------------------------|
B|--------------------5----------|-5---5-----------|---------5-------------4---|---------4----------------2---|
G|--------------------6----------|-6---6-----2-----|------------------4--------|-------------4-------2--------|
D|--------------------6----------|-6---6-----2-----|------------------6--------|-----------------6---4--------|
A|----------------6---4----4--4--|-4---4-----0-----|------------------6--------|---------------------4--------|
E|----4--4---5-------------------|-----------------|------------------4--------|---------------------2--------|


E|-2---2------------------------|-0---0---------------------------|---------------------------------|
B|---------2-----------4--------|---------4-----------------------|-0---0-----------0---------------|
G|-------------2-------4--------|-------------4-------2-------2---|---------2-------------------4---|
D|-----------------4---4----4---|-----------------4---2----2------|-------------2-------4----4------|
A|---------------------2--------|---------------------0----0------|---------------------2----2------|
E|------------------------------|---------------------------------|---------------------------------|


E|---------------------------------|---------------------------------|---------------------------------|
B|-0---0---0-----------------------|-0---0---------------------------|-0---0-------0-------------------|
G|-------------4-------2-------2---|---------------------------------|---------3-----------2-------2---|
D|-----------------4---2----2------|-----------------4-----------4---|-----------------4---2----2------|
A|---------------------0-----------|-------------2------------4------|---------------------0----0------|
E|---------------------------------|---------0-----------2----2------|---------------------------------|


E|---------------------------------|---------------------------------|-3---3---------------------|
B|-0---0-----------0---------------|-0---0---0-----------------------|---------3-----3-------3---|
G|---------2-------------------4---|-------------4-------5-------5---|---------------2----2------|
D|-------------2-------4----4------|-----------------4---5----5------|---------------0----0------|
A|---------------------2----2------|---------------------3----3------|---------------------------|
E|---------------------------------|---------------------------------|---------------------------|


E|-3---3----2----------|-----------------|-----------------|-----------------|---------------------------------|
B|----------3----------|-----------------|-----------5-----|-----------------|---------------------------------|
G|---------------------|-----------------|-----------4-----|-----------------|-----5---5---5-------------------|
D|---------------2-----|-----------2-----|-----------2-----|-----------------|---------------------------------|
A|---------------2-----|-----------2-----|-----------2-----|-----------------|-------------------------5---7---|
E|---------------0-----|-----------0-----|-----------0-----|-----------0-----|-----------------0---0-----------|


E|-------------------------------------|--------------------------------|---------------------------------------|
B|-------------------------------------|--------------------------------|---------------------------------------|
G|-------------------------------------|--------------------------------|---------------------------------------|
D|-------------------------------------|--------------------------------|---------------------------------------|
A|-----5--7--------5---7---7---5---7---|------------------------5---7---|-------5--7--------5---7---7---5---7---|
E|-0---------0--0----------------------|-0--0--3---5----0---0-----------|-0--0--------0--0----------------------|


E|--------------------------------|---------------------------------------|-----------------------------------------|
B|--------------------------------|---------------------------------------|-----------------------------------------|
G|--------------------------------|---------------------------------------|-----------------------------------------|
D|--------------------------------|---------------------------------------|-----------------------------------------|
A|------------------------5---7---|-------5--7--------5---7---7---5---7---|----------------5--6--7----------5---7---|
E|-0--0--3---3----0---0-----------|-0--0--------0--0----------------------|-0--0--5--6--7-----------0---0-----------|


E|---------------------------------------|-----------------------------------|-------------------------------------|
B|---------------------------------------|-----------------------------------|-------------------------------------|
G|---------------------------------------|-----------------------5---5---5---|-------------------------------------|
D|---------------------------------------|-----------------------------------|-------------------------------------|
A|-------5--7--------5---7---7---5---7---|-----------------------------------|---------5---7-------5--7--------5---|
E|-0--0--------0--0----------------------|-0--0--3---4---5---0---------------|-0---0-----------0---------0--0------|


E|--------------------------------|-------------------------------------|--------------------------------|
B|--------------------------------|-------------------------------------|--------------------------------|
G|--------------------------------|-------------------------------------|--------------------------------|
D|--------------------------------|-------------------------------------|--------------------------------|
A|-7---7---5---7---------5---7----|---------5---7-------5--7--------5---|-7---7---5---7---------5---7----|
E|-----------------0--0--3---5----|-0---0-----------0---------0--0------|-----------------0--0--3---5----|


E|-------------------------------------|--------------------------------|-------------------------------------|
B|-------------------------------------|--------------------------------|-------------------------------------|
G|-------------------------------------|--------------------------------|-------------------------------------|
D|-------------------------------------|--------------------------------|-------------------------------------|
A|---------5---7-------5--7--------5---|-7---7---5---7---------5---7----|---------5---7-------5--7--------5---|
E|-0---0-----------0---------0--0------|-----------------0--0--3---5----|-0---0-----------0---------0--0------|


E|--------------------------------|-------------------------------------|--------------------------------|
B|--------------------------------|-------------------------------------|--------------------------------|
G|--------------------------------|-12--12------------------------------|--------------------------------|
D|--------------------------------|-12--12------------------------------|--------------------------------|
A|-7---7---5---7---------5---7----|---------5---7-------5--7--------5---|-7---7---5---7---------5---7----|
E|-----------------0--0--3---5----|-----------------0---------0--0------|-----------------0--0--3---5----|


E|-------------------------------------|--------------------------------|-------------------------------------|
B|-------------------------------------|--------------------------------|-------------------------------------|
G|-12--12------------------------------|--------------------------------|-12--12------------------------------|
D|-12--12------------------------------|--------------------------------|-12--12--4---5-------4--5--------4---|
A|---------5---7-------5--7--------5---|-7---7---5---7---------5---7----|-------------------------------------|
E|-----------------0---------0--0------|-----------------0--0--3---5----|-----------------0---------0--0------|


E|--------------------------------|-------------------------------------|---------------------------------|
B|--------------------------------|-------------------------------------|---------------------------------|
G|--------------------------------|-12--12------------------------------|---------------------------------|
D|-5---5---4---5------------------|-12--12--4---5-------4--5-----0--4---|-5---5---4---5-------------------|
A|-----------------------5---7----|-------------------------------------|---------------------------------|
E|-----------------0--0--3---5----|-----------------0---------0---------|-----------------0---3---4---5---|


E|---------------------------------|-----------------------------------|---------------------------------|
B|---------------------------------|-----------------------------------|---------------------------------|
G|---------------------------------|-----------------------------------|---------------------------------|
D|-----------------------------2---|-----------------------------------|-----------------------------2---|
A|-4---4-------------------2-------|-4---4-----------------------------|-4---4-------------------2-------|
E|---------0---2---3---4-----------|---------0---2---3---4---3--2--0---|---------0---2---3---4-----------|


E|-----------------------------------|---------------------------------|-----------------------------------|
B|-----------------------------------|---------------------------------|-----------------------------------|
G|-----------------------------------|---------------------------------|-----------------------------------|
D|---------------------2-------------|-----------------------------2---|-----------------------------------|
A|-4---4-------------------4--2------|-4---4-------------------2-------|-4---4-----------------------------|
E|---------0---2---4-------------4---|---------0---2---3---4-----------|---------0---2---3---4---3--2--0---|


E|---------------------------------|-----------------------------------|--------------------------------|
B|---------------------------------|-----------------------------------|--------------------------------|
G|---------------------------------|-----------------------------------|--------------------------------|
D|-----------------------------2---|---------------------4-------------|------4---6-------4--6----------|
A|-4---4-------------------2-------|-4---4-------------------6--4------|--------------------------------|
E|---------0---2---3---4-----------|---------0---2---4-------------7---|-4------------4---------4---7---|


E|-----------------------------------|-----------------------------------|-----------------------------------|
B|-----------------------------------|-----------------------------------|-----------------------------------|
G|-----------------------------------|-----------------------------------|-----------------------------------|
D|-----------------------------------|-----4---6-------4--6--------------|-----------------------------------|
A|-----4---6---4---4---2-------------|-----------------------------------|-4---6---4---5--4------------------|
E|-7-----------------------2--3--4---|-------------4---------4---7---7---|-------------------7---2---3---4---|


E|-----------------------------------|--------------------------------|-----------------------------------|
B|-----------------------------------|--------------------------------|-----------------------------------|
G|-----------------------------------|--------------------------------|-----------------------------------|
D|-----4---6-------4--6--------------|--------------------------------|-4---6-------4--6------------------|
A|-----------------------------------|-4---6---4---4---2--------------|-------------------------------4---|
E|-------------4---------4---7---7---|---------------------2--3--4----|---------4---------4---7---7-------|


E|-------------------------4----|-------------|-------------|-------------|-----2---2--------------------|
B|-------------------------5----|--------2----|--------5----|-------------|-------------2----------------|
G|-------------------------6----|--------2----|--------4----|--------2----|-----------------2-------2----|
D|-------------------------6----|--------2----|--------2----|--------4----|-------------------------0----|
A|-6-------------------2---4----|--------0----|-------------|--------4----|-------------------------0----|
E|-----2---2---3---4------------|-------------|--------4----|--------2----|------------------------------|


E|---------------------------|-------------------------|-----------------------2---|
B|-----3---3-----------------|-------------------------|---------------------------|
G|-------------2-------------|-------------------------|-----------------2---------|
D|----------------------7----|-------7---7-------------|-----------------4---------|
A|----------------------4----|-4--4------------2----4--|-4---5---5-------4---------|
E|---------------------------|-------------------------|-------------4---2---------|


E|-2-------------------------|------------------------|------------------------|--------------------------0---|
B|-----2-----------------3---|-3----------------------|------------------------|-----0------------------------|
G|---------2-------2---------|-----2--------6-----6---|-6---------4--------4---|-4-------4------------1-------|
D|-----------------0---------|------------------------|-----------4----4-------|-------------4----------------|
A|-----------------0---------|--------------4---------|-----------2------------|------------------------------|
E|---------------------------|------------------------|------------------------|-----------------0------------|


E|-0-------------------------|---------------------------------|---------------------------------|
B|-----0-----------------0---|-0-----------0---------------0---|-0---0-----------------------0---|
G|-----------2-------2-------|-----2-------------------4-------|---------4-------2-------2-------|
D|-----------2----2----------|---------2-------4----4----------|-------------4---2----2----------|
A|-----------0---------------|-----------------2----2----------|-----------------0---------------|
E|---------------------------|---------------------------------|---------------------------------|


E|---------------------------------|---------------------------------|---------------------------------|
B|-0---------------------------0---|---------0-------------------0---|-0-----------0---------------0---|
G|---------------------------------|-----3-----------2-------2-------|-----2-------------------4-------|
D|-------------4-----------4-------|-------------4---2----2----------|---------2-------4----4----------|
A|---------2------------4----------|-----------------0---------------|-----------------2----2----------|
E|-----0-----------2----2----------|---------------------------------|---------------------------------|


E|-----------------------------3---|-3---------------------3---|-3----2--------------------|
B|-0---0---------------------------|-----3-----3-------3-------|------3----------------0---|
G|---------4-------5-------5-------|-----------2----2----------|-----------2-------2-------|
D|-------------4---5----5----------|-----------0----0----------|-----------2----2----------|
A|-----------------3----3----------|---------------------------|-----------0---------------|
E|---------------------------------|---------------------------|---------------------------|


E|---------------------------------|---------------------------------|---------------------------------|
B|-0-----------0---------------0---|-0---0-----------------------0---|-0---------------------------0---|
G|-----2-------------------4-------|---------4-------2-------2-------|---------------------------------|
D|---------2-------4----4----------|-------------4---2----2----------|-------------4-----------4-------|
A|-----------------2----2----------|-----------------0---------------|---------2------------4----------|
E|---------------------------------|---------------------------------|-----0-----------2----2----------|


E|---------------------------------|---------------------------------|-----------------------------3---|
B|---------0-------------------0---|-0-----------0---------------0---|-0---0---------------------------|
G|-----3-----------2-------2-------|-----2-------------------4-------|---------4-------5-------5-------|
D|-------------4---2----2----------|---------2-------4----4----------|-------------4---5----5----------|
A|-----------------0---------------|-----------------2----2----------|-----------------3----3----------|
E|---------------------------------|---------------------------------|---------------------------------|


E|-3-------------------|--------------------3---|-3----2-----------------|-----------3-----|
B|-----3---------------|-----------3----3-------|------------------------|------3----3-----|
G|-----------4-----2---|-2----0----2------------|------------------------|-----------0-----|
D|---------------------|-----------0------------|------------------------|-----------0-----|
A|---------------------|------------------------|------------------------|-----------0-----|
E|---------------------|------------------------|----------0---2-----2---|-2---------3-----|





Track 2: Piano

E|--------|--------|--------|--------|--------|--------|--------|--------|--------|
B|--------|--------|--------|--------|--------|--------|--------|--------|--------|
G|--------|--------|--------|--------|--------|--------|--------|--------|--------|
D|--------|--------|--------|--------|--------|--------|--------|--------|--------|
A|--------|--------|--------|--------|--------|--------|--------|--------|--------|
E|--------|--------|--------|--------|--------|--------|--------|--------|--------|


E|--------|--------|--------|--------|--------|--------|--------|--------|--------|
B|--------|--------|--------|--------|--------|--------|--------|--------|--------|
G|--------|--------|--------|--------|--------|--------|--------|--------|--------|
D|--------|--------|--------|--------|--------|--------|--------|--------|--------|
A|--------|--------|--------|--------|--------|--------|--------|--------|--------|
E|--------|--------|--------|--------|--------|--------|--------|--------|--------|


E|--------8----|-----9---9----11---11---|-------8--------9---|-9----11---11----|------9-----7---7----|
B|--------9----|-----10--10---13---13---|-------9--------10--|-10---13---13----|------11----8---8----|
G|--------9----|-----11--11---13---13---|-------9--------11--|-11---13---13----|------11----9---9----|
D|--------10---|-----11--11---13---13---|-------10-------11--|-11---13---13----|------11----9---9----|
A|-------------|------------------------|--------------------|-----------------|---------------------|
E|-------------|------------------------|--------------------|-----------------|---------------------|


E|-------------|-9--------7-------------|--------|--------|--------|--------|--------|
B|-------------|-11-------8-------------|--------|--------|--------|--------|--------|
G|-------------|-11-------9-------------|--------|--------|--------|--------|--------|
D|-------------|-11---------------------|--------|--------|--------|--------|--------|
A|-------------|------------------------|--------|--------|--------|--------|--------|
E|-------------|------------------------|--------|--------|--------|--------|--------|


E|--------|--------|--------|--------|--------|--------|--------|--------|--------|
B|--------|--------|--------|--------|--------|--------|--------|--------|--------|
G|--------|--------|--------|--------|--------|--------|--------|--------|--------|
D|--------|--------|--------|--------|--------|--------|--------|--------|--------|
A|--------|--------|--------|--------|--------|--------|--------|--------|--------|
E|--------|--------|--------|--------|--------|--------|--------|--------|--------|


E|--------|--------|--------|--------|--------|--------|--------|-------8--------9---|
B|--------|--------|--------|--------|--------|--------|--------|-------9--------10--|
G|--------|--------|--------|--------|--------|--------|--------|-------9--------11--|
D|--------|--------|--------|--------|--------|--------|--------|-------10-------11--|
A|--------|--------|--------|--------|--------|--------|--------|--------------------|
E|--------|--------|--------|--------|--------|--------|--------|--------------------|


E|-9----11---11----|------8--------9---9----|-11---11-----|-9-----7---7---------|--------9----|
B|-10---13---13----|------9--------10--10---|-13---13-----|-11----8---8---------|--------11---|
G|-11---13---13----|------9--------11--11---|-13---13-----|-11----9---9---------|--------11---|
D|-11---13---13----|------10-------11--11---|-13---13-----|-11----9---9---------|--------11---|
A|-----------------|------------------------|-------------|---------------------|-------------|
E|-----------------|------------------------|-------------|---------------------|-------------|


E|-----7--------------|--------|--------|--------|--------|--------|--------|--------|
B|-----8--------------|--------|--------|--------|--------|--------|--------|--------|
G|-----9--------------|--------|--------|--------|--------|--------|--------|--------|
D|--------------------|--------|--------|--------|--------|--------|--------|--------|
A|--------------------|--------|--------|--------|--------|--------|--------|--------|
E|--------------------|--------|--------|--------|--------|--------|--------|--------|


E|--------|--------|--------|--------|--------|--------|--------|--------|--------|
B|--------|--------|--------|--------|--------|--------|--------|--------|--------|
G|--------|--------|--------|--------|--------|--------|--------|--------|--------|
D|--------|--------|--------|--------|--------|--------|--------|--------|--------|
A|--------|--------|--------|--------|--------|--------|--------|--------|--------|
E|--------|--------|--------|--------|--------|--------|--------|--------|--------|


E|--------|--------|--------|--------|--------|--------|--------|--------|--------|
B|--------|--------|--------|--------|--------|--------|--------|--------|--------|
G|--------|--------|--------|--------|--------|--------|--------|--------|--------|
D|--------|--------|--------|--------|--------|--------|--------|--------|--------|
A|--------|--------|--------|--------|--------|--------|--------|--------|--------|
E|--------|--------|--------|--------|--------|--------|--------|--------|--------|


E|--------|--------|--------|--------|--------|--------|--------|--------|--------|
B|--------|--------|--------|--------|--------|--------|--------|--------|--------|
G|--------|--------|--------|--------|--------|--------|--------|--------|--------|
D|--------|--------|--------|--------|--------|--------|--------|--------|--------|
A|--------|--------|--------|--------|--------|--------|--------|--------|--------|
E|--------|--------|--------|--------|--------|--------|--------|--------|--------|


E|--------|--------|--------|--------|--------|--------|--------|--------|--------|
B|--------|--------|--------|--------|--------|--------|--------|--------|--------|
G|--------|--------|--------|--------|--------|--------|--------|--------|--------|
D|--------|--------|--------|--------|--------|--------|--------|--------|--------|
A|--------|--------|--------|--------|--------|--------|--------|--------|--------|
E|--------|--------|--------|--------|--------|--------|--------|--------|--------|


E|--------|--------|--------|--------|--------|--------|--------|--------|--------|
B|--------|--------|--------|--------|--------|--------|--------|--------|--------|
G|--------|--------|--------|--------|--------|--------|--------|--------|--------|
D|--------|--------|--------|--------|--------|--------|--------|--------|--------|
A|--------|--------|--------|--------|--------|--------|--------|--------|--------|
E|--------|--------|--------|--------|--------|--------|--------|--------|--------|


E|--------|--------|--------|--------|--------|--------|--------|--------|--------|
B|--------|--------|--------|--------|--------|--------|--------|--------|--------|
G|--------|--------|--------|--------|--------|--------|--------|--------|--------|
D|--------|--------|--------|--------|--------|--------|--------|--------|--------|
A|--------|--------|--------|--------|--------|--------|--------|--------|--------|
E|--------|--------|--------|--------|--------|--------|--------|--------|--------|


E|--------|--------|--------|--------|--------|--------|--------|--------|--------|
B|--------|--------|--------|--------|--------|--------|--------|--------|--------|
G|--------|--------|--------|--------|--------|--------|--------|--------|--------|
D|--------|--------|--------|--------|--------|--------|--------|--------|--------|
A|--------|--------|--------|--------|--------|--------|--------|--------|--------|
E|--------|--------|--------|--------|--------|--------|--------|--------|--------|


E|--------|--------|--------|--------|--------|--------|--------|--------|--------|
B|--------|--------|--------|--------|--------|--------|--------|--------|--------|
G|--------|--------|--------|--------|--------|--------|--------|--------|--------|
D|--------|--------|--------|--------|--------|--------|--------|--------|--------|
A|--------|--------|--------|--------|--------|--------|--------|--------|--------|
E|--------|--------|--------|--------|--------|--------|--------|--------|--------|


E|--------|--------|--------|--------|--------|--------|--------|--------|--------|
B|--------|--------|--------|--------|--------|--------|--------|--------|--------|
G|--------|--------|--------|--------|--------|--------|--------|--------|--------|
D|--------|--------|--------|--------|--------|--------|--------|--------|--------|
A|--------|--------|--------|--------|--------|--------|--------|--------|--------|
E|--------|--------|--------|--------|--------|--------|--------|--------|--------|


E|--------|--------|--------|
B|--------|--------|--------|
G|--------|--------|--------|
D|--------|--------|--------|
A|--------|--------|--------|
E|--------|--------|--------|





Track 3: Gtr1

E|--------|--------|--------|--------|--------|--------|--------|--------|--------|
B|--------|--------|--------|--------|--------|--------|--------|--------|--------|
G|--------|--------|--------|--------|--------|--------|--------|--------|--------|
D|--------|--------|--------|--------|--------|--------|--------|--------|--------|
A|--------|--------|--------|--------|--------|--------|--------|--------|--------|
E|--------|--------|--------|--------|--------|--------|--------|--------|--------|


E|--------|--------|--------|--------|--------|--------|--------|--------|--------|
B|--------|--------|--------|--------|--------|--------|--------|--------|--------|
G|--------|--------|--------|--------|--------|--------|--------|--------|--------|
D|--------|--------|--------|--------|--------|--------|--------|--------|--------|
A|--------|--------|--------|--------|--------|--------|--------|--------|--------|
E|--------|--------|--------|--------|--------|--------|--------|--------|--------|


E|--------|--------|--------|--------|--------|--------|--------|--------|--------|
B|--------|--------|--------|--------|--------|--------|--------|--------|--------|
G|--------|--------|--------|--------|--------|--------|--------|--------|--------|
D|--------|--------|--------|--------|--------|--------|--------|--------|--------|
A|--------|--------|--------|--------|--------|--------|--------|--------|--------|
E|--------|--------|--------|--------|--------|--------|--------|--------|--------|


E|--------|--------|--------|--------|--------|--------|--------|--------|--------|
B|--------|--------|--------|--------|--------|--------|--------|--------|--------|
G|--------|--------|--------|--------|--------|--------|--------|--------|--------|
D|--------|--------|--------|--------|--------|--------|--------|--------|--------|
A|--------|--------|--------|--------|--------|--------|--------|--------|--------|
E|--------|--------|--------|--------|--------|--------|--------|--------|--------|


E|--------|--------|--------|--------|--------|--------|--------|--------|--------|
B|--------|--------|--------|--------|--------|--------|--------|--------|--------|
G|--------|--------|--------|--------|--------|--------|--------|--------|--------|
D|--------|--------|--------|--------|--------|--------|--------|--------|--------|
A|--------|--------|--------|--------|--------|--------|--------|--------|--------|
E|--------|--------|--------|--------|--------|--------|--------|--------|--------|


E|--------|--------|--------|--------|--------|--------|--------|------------9---|
B|--------|--------|--------|--------|--------|--------|--------|------------9---|
G|--------|--------|--------|--------|--------|--------|--------|------------9---|
D|--------|--------|--------|--------|--------|--------|--------|------------11--|
A|--------|--------|--------|--------|--------|--------|--------|----------------|
E|--------|--------|--------|--------|--------|--------|--------|------------9---|


E|-----11--12--12--11--11-12-------|----16-16--14--14-12---12------4---|-----14--16--16--14--14-16---14--|
B|-----------------------------7---|-------------------------------5---|-----------------------------14--|
G|-----8---9---9---8---8--9----6---|----13-13--11--11-9----9-------4---|-----11--13--13--11--11-13---14--|
D|-----------------------------7---|-----------------------------------|-----------------------------16--|
A|-----------------------------0---|-----------------------------------|---------------------------------|
E|---------------------------------|-------------------------------4---|---------------------------------|


E|----19-19--17--17-16--------11--|-12--12--11--11-12--------16-16--|-14--14-12---12---0----11-12-|
B|----21-21--17--17---------------|---------------------7-----------|------------------4----------|
G|----21-21--18--18-13--------8---|-9---9---8---8--9----6----13-13--|-11--11-9----9----4----8--9--|
D|----21-21--19--19---------------|---------------------7-----------|-----------------------------|
A|-----------------------4--------|---------------------0-----------|-----------------------------|
E|------------------0-------------|---------------------------------|------------------4----------|


E|-14--14--16--16-19---17---19-19--|-21--21------16--17--19----|-----19-----------19-21-23-------|
B|---------------------------------|---------------------19----|-----19--19-21-22----------------|
G|-11--11--13--13-16---14---16-16--|-18--18--------------20----|-----20--------21----------------|
D|---------------------------------|--------14-----------21----|-----21--------23----------------|
A|---------------------16----------|---------------------------|---------------24----------------|
E|---------------------14----------|---------------------19----|-----19--------------------------|


E|--------|--------|--------|--------|--------|--------|--------|--------|--------|
B|--------|--------|--------|--------|--------|--------|--------|--------|--------|
G|--------|--------|--------|--------|--------|--------|--------|--------|--------|
D|--------|--------|--------|--------|--------|--------|--------|--------|--------|
A|--------|--------|--------|--------|--------|--------|--------|--------|--------|
E|--------|--------|--------|--------|--------|--------|--------|--------|--------|


E|--------|--------|--------|--------|--------|--------|--------|--------|--------|
B|--------|--------|--------|--------|--------|--------|--------|--------|--------|
G|--------|--------|--------|--------|--------|--------|--------|--------|--------|
D|--------|--------|--------|--------|--------|--------|--------|--------|--------|
A|--------|--------|--------|--------|--------|--------|--------|--------|--------|
E|--------|--------|--------|--------|--------|--------|--------|--------|--------|


E|--------|--------|--------|--------|--------|--------|--------|--------|--------|
B|--------|--------|--------|--------|--------|--------|--------|--------|--------|
G|--------|--------|--------|--------|--------|--------|--------|--------|--------|
D|--------|--------|--------|--------|--------|--------|--------|--------|--------|
A|--------|--------|--------|--------|--------|--------|--------|--------|--------|
E|--------|--------|--------|--------|--------|--------|--------|--------|--------|


E|--------|--------|--------|--------|--------|--------|--------|--------|--------|
B|--------|--------|--------|--------|--------|--------|--------|--------|--------|
G|--------|--------|--------|--------|--------|--------|--------|--------|--------|
D|--------|--------|--------|--------|--------|--------|--------|--------|--------|
A|--------|--------|--------|--------|--------|--------|--------|--------|--------|
E|--------|--------|--------|--------|--------|--------|--------|--------|--------|


E|--------|--------|--------|--------|--------|--------|--------|--------|--------|
B|--------|--------|--------|--------|--------|--------|--------|--------|--------|
G|--------|--------|--------|--------|--------|--------|--------|--------|--------|
D|--------|--------|--------|--------|--------|--------|--------|--------|--------|
A|--------|--------|--------|--------|--------|--------|--------|--------|--------|
E|--------|--------|--------|--------|--------|--------|--------|--------|--------|


E|--------|--------|--------|--------|--------|--------|--------|--------|--------|
B|--------|--------|--------|--------|--------|--------|--------|--------|--------|
G|--------|--------|--------|--------|--------|--------|--------|--------|--------|
D|--------|--------|--------|--------|--------|--------|--------|--------|--------|
A|--------|--------|--------|--------|--------|--------|--------|--------|--------|
E|--------|--------|--------|--------|--------|--------|--------|--------|--------|


E|--------|--------|--------|--------|--------|--------|--------|--------|--------|
B|--------|--------|--------|--------|--------|--------|--------|--------|--------|
G|--------|--------|--------|--------|--------|--------|--------|--------|--------|
D|--------|--------|--------|--------|--------|--------|--------|--------|--------|
A|--------|--------|--------|--------|--------|--------|--------|--------|--------|
E|--------|--------|--------|--------|--------|--------|--------|--------|--------|


E|--------|--------|--------|--------|--------|--------|--------|--------|--------|
B|--------|--------|--------|--------|--------|--------|--------|--------|--------|
G|--------|--------|--------|--------|--------|--------|--------|--------|--------|
D|--------|--------|--------|--------|--------|--------|--------|--------|--------|
A|--------|--------|--------|--------|--------|--------|--------|--------|--------|
E|--------|--------|--------|--------|--------|--------|--------|--------|--------|


E|--------|--------|--------|--------|--------|--------|--------|--------|--------|
B|--------|--------|--------|--------|--------|--------|--------|--------|--------|
G|--------|--------|--------|--------|--------|--------|--------|--------|--------|
D|--------|--------|--------|--------|--------|--------|--------|--------|--------|
A|--------|--------|--------|--------|--------|--------|--------|--------|--------|
E|--------|--------|--------|--------|--------|--------|--------|--------|--------|


E|--------|
B|--------|
G|--------|
D|--------|
A|--------|
E|--------|





Track 4: Gtr1

E|--------|--------|--------|--------|--------|--------|--------|--------|--------|
B|--------|--------|--------|--------|--------|--------|--------|--------|--------|
G|--------|--------|--------|--------|--------|--------|--------|--------|--------|
D|--------|--------|--------|--------|--------|--------|--------|--------|--------|
A|--------|--------|--------|--------|--------|--------|--------|--------|--------|
E|--------|--------|--------|--------|--------|--------|--------|--------|--------|


E|--------|--------|--------|--------|--------|--------|--------|--------|--------|
B|--------|--------|--------|--------|--------|--------|--------|--------|--------|
G|--------|--------|--------|--------|--------|--------|--------|--------|--------|
D|--------|--------|--------|--------|--------|--------|--------|--------|--------|
A|--------|--------|--------|--------|--------|--------|--------|--------|--------|
E|--------|--------|--------|--------|--------|--------|--------|--------|--------|


E|--------|--------|--------|--------|--------|--------|--------|--------|--------|
B|--------|--------|--------|--------|--------|--------|--------|--------|--------|
G|--------|--------|--------|--------|--------|--------|--------|--------|--------|
D|--------|--------|--------|--------|--------|--------|--------|--------|--------|
A|--------|--------|--------|--------|--------|--------|--------|--------|--------|
E|--------|--------|--------|--------|--------|--------|--------|--------|--------|


E|--------|--------|--------|--------|--------|--------|--------|--------|--------|
B|--------|--------|--------|--------|--------|--------|--------|--------|--------|
G|--------|--------|--------|--------|--------|--------|--------|--------|--------|
D|--------|--------|--------|--------|--------|--------|--------|--------|--------|
A|--------|--------|--------|--------|--------|--------|--------|--------|--------|
E|--------|--------|--------|--------|--------|--------|--------|--------|--------|


E|--------|--------|--------|--------|--------|--------|--------|--------|--------|
B|--------|--------|--------|--------|--------|--------|--------|--------|--------|
G|--------|--------|--------|--------|--------|--------|--------|--------|--------|
D|--------|--------|--------|--------|--------|--------|--------|--------|--------|
A|--------|--------|--------|--------|--------|--------|--------|--------|--------|
E|--------|--------|--------|--------|--------|--------|--------|--------|--------|


E|--------|--------|--------|--------|--------|--------|--------|--------|--------|
B|--------|--------|--------|--------|--------|--------|--------|--------|--------|
G|--------|--------|--------|--------|--------|--------|--------|--------|--------|
D|--------|--------|--------|--------|--------|--------|--------|--------|--------|
A|--------|--------|--------|--------|--------|--------|--------|--------|--------|
E|--------|--------|--------|--------|--------|--------|--------|--------|--------|


E|--------|--------|--------|--------|--------|--------|--------|-----------------|
B|--------|--------|--------|--------|--------|--------|--------|-----------------|
G|--------|--------|--------|--------|--------|--------|--------|-----------------|
D|--------|--------|--------|--------|--------|--------|--------|-----------------|
A|--------|--------|--------|--------|--------|--------|--------|-----------------|
E|--------|--------|--------|--------|--------|--------|--------|-----------------|


E|-----------------|--------|--------|--------|--------|--------|--------|--------|
B|-----------------|--------|--------|--------|--------|--------|--------|--------|
G|-----------------|--------|--------|--------|--------|--------|--------|--------|
D|-----------------|--------|--------|--------|--------|--------|--------|--------|
A|-----------------|--------|--------|--------|--------|--------|--------|--------|
E|-----------------|--------|--------|--------|--------|--------|--------|--------|


E|--------|--------|--------|--------|--------|--------|--------|--------|--------|
B|--------|--------|--------|--------|--------|--------|--------|--------|--------|
G|--------|--------|--------|--------|--------|--------|--------|--------|--------|
D|--------|--------|--------|--------|--------|--------|--------|--------|--------|
A|--------|--------|--------|--------|--------|--------|--------|--------|--------|
E|--------|--------|--------|--------|--------|--------|--------|--------|--------|


E|--------|--------|--------|--------|--------|--------|--------|--------|--------|
B|--------|--------|--------|--------|--------|--------|--------|--------|--------|
G|--------|--------|--------|--------|--------|--------|--------|--------|--------|
D|--------|--------|--------|--------|--------|--------|--------|--------|--------|
A|--------|--------|--------|--------|--------|--------|--------|--------|--------|
E|--------|--------|--------|--------|--------|--------|--------|--------|--------|


E|--------|--------|--------|--------|--------|--------|--------|--------|--------|
B|--------|--------|--------|--------|--------|--------|--------|--------|--------|
G|--------|--------|--------|--------|--------|--------|--------|--------|--------|
D|--------|--------|--------|--------|--------|--------|--------|--------|--------|
A|--------|--------|--------|--------|--------|--------|--------|--------|--------|
E|--------|--------|--------|--------|--------|--------|--------|--------|--------|


E|--------|--------|--------|--------|--------|--------|--------|--------|--------|
B|--------|--------|--------|--------|--------|--------|--------|--------|--------|
G|--------|--------|--------|--------|--------|--------|--------|--------|--------|
D|--------|--------|--------|--------|--------|--------|--------|--------|--------|
A|--------|--------|--------|--------|--------|--------|--------|--------|--------|
E|--------|--------|--------|--------|--------|--------|--------|--------|--------|


E|--------|--------|--------|--------|--------|--------|--------|--------|--------|
B|--------|--------|--------|--------|--------|--------|--------|--------|--------|
G|--------|--------|--------|--------|--------|--------|--------|--------|--------|
D|--------|--------|--------|--------|--------|--------|--------|--------|--------|
A|--------|--------|--------|--------|--------|--------|--------|--------|--------|
E|--------|--------|--------|--------|--------|--------|--------|--------|--------|


E|--------|--------|--------|--------|--------|--------|--------|--------|--------|
B|--------|--------|--------|--------|--------|--------|--------|--------|--------|
G|--------|--------|--------|--------|--------|--------|--------|--------|--------|
D|--------|--------|--------|--------|--------|--------|--------|--------|--------|
A|--------|--------|--------|--------|--------|--------|--------|--------|--------|
E|--------|--------|--------|--------|--------|--------|--------|--------|--------|


E|--------|--------|--------|--------|--------|--------|--------|--------|--------|
B|--------|--------|--------|--------|--------|--------|--------|--------|--------|
G|--------|--------|--------|--------|--------|--------|--------|--------|--------|
D|--------|--------|--------|--------|--------|--------|--------|--------|--------|
A|--------|--------|--------|--------|--------|--------|--------|--------|--------|
E|--------|--------|--------|--------|--------|--------|--------|--------|--------|


E|--------|--------|--------|--------|--------|--------|--------|--------|--------|
B|--------|--------|--------|--------|--------|--------|--------|--------|--------|
G|--------|--------|--------|--------|--------|--------|--------|--------|--------|
D|--------|--------|--------|--------|--------|--------|--------|--------|--------|
A|--------|--------|--------|--------|--------|--------|--------|--------|--------|
E|--------|--------|--------|--------|--------|--------|--------|--------|--------|


E|--------|--------|
B|--------|--------|
G|--------|--------|
D|--------|--------|
A|--------|--------|
E|--------|--------|





Track 5: Gtr1

E|--------|--------|--------|--------|--------|--------|--------|--------|--------|
B|--------|--------|--------|--------|--------|--------|--------|--------|--------|
G|--------|--------|--------|--------|--------|--------|--------|--------|--------|
D|--------|--------|--------|--------|--------|--------|--------|--------|--------|
A|--------|--------|--------|--------|--------|--------|--------|--------|--------|
E|--------|--------|--------|--------|--------|--------|--------|--------|--------|


E|--------|--------|--------|--------|--------|--------|--------|--------|--------|
B|--------|--------|--------|--------|--------|--------|--------|--------|--------|
G|--------|--------|--------|--------|--------|--------|--------|--------|--------|
D|--------|--------|--------|--------|--------|--------|--------|--------|--------|
A|--------|--------|--------|--------|--------|--------|--------|--------|--------|
E|--------|--------|--------|--------|--------|--------|--------|--------|--------|


E|--------|--------|--------|--------|--------|--------|--------|--------|--------|
B|--------|--------|--------|--------|--------|--------|--------|--------|--------|
G|--------|--------|--------|--------|--------|--------|--------|--------|--------|
D|--------|--------|--------|--------|--------|--------|--------|--------|--------|
A|--------|--------|--------|--------|--------|--------|--------|--------|--------|
E|--------|--------|--------|--------|--------|--------|--------|--------|--------|


E|--------|--------|--------|--------|--------|--------|--------|--------|--------|
B|--------|--------|--------|--------|--------|--------|--------|--------|--------|
G|--------|--------|--------|--------|--------|--------|--------|--------|--------|
D|--------|--------|--------|--------|--------|--------|--------|--------|--------|
A|--------|--------|--------|--------|--------|--------|--------|--------|--------|
E|--------|--------|--------|--------|--------|--------|--------|--------|--------|


E|--------|--------|--------|--------|--------|--------|--------|--------|--------|
B|--------|--------|--------|--------|--------|--------|--------|--------|--------|
G|--------|--------|--------|--------|--------|--------|--------|--------|--------|
D|--------|--------|--------|--------|--------|--------|--------|--------|--------|
A|--------|--------|--------|--------|--------|--------|--------|--------|--------|
E|--------|--------|--------|--------|--------|--------|--------|--------|--------|


E|--------|--------|--------|--------|--------|--------|--------|--------|--------|
B|--------|--------|--------|--------|--------|--------|--------|--------|--------|
G|--------|--------|--------|--------|--------|--------|--------|--------|--------|
D|--------|--------|--------|--------|--------|--------|--------|--------|--------|
A|--------|--------|--------|--------|--------|--------|--------|--------|--------|
E|--------|--------|--------|--------|--------|--------|--------|--------|--------|


E|--------|--------|--------|--------|--------|--------|--------|--------|--------|
B|--------|--------|--------|--------|--------|--------|--------|--------|--------|
G|--------|--------|--------|--------|--------|--------|--------|--------|--------|
D|--------|--------|--------|--------|--------|--------|--------|--------|--------|
A|--------|--------|--------|--------|--------|--------|--------|--------|--------|
E|--------|--------|--------|--------|--------|--------|--------|--------|--------|


E|--------|--------|--------|--------|--------|--------|--------|--------|--------|
B|--------|--------|--------|--------|--------|--------|--------|--------|--------|
G|--------|--------|--------|--------|--------|--------|--------|--------|--------|
D|--------|--------|--------|--------|--------|--------|--------|--------|--------|
A|--------|--------|--------|--------|--------|--------|--------|--------|--------|
E|--------|--------|--------|--------|--------|--------|--------|--------|--------|


E|--------|--------|--------|--------|--------|--------|--------|--------|--------|
B|--------|--------|--------|--------|--------|--------|--------|--------|--------|
G|--------|--------|--------|--------|--------|--------|--------|--------|--------|
D|--------|--------|--------|--------|--------|--------|--------|--------|--------|
A|--------|--------|--------|--------|--------|--------|--------|--------|--------|
E|--------|--------|--------|--------|--------|--------|--------|--------|--------|


E|--------|--------|--------|--------|--------|--------|--------|--------|--------|
B|--------|--------|--------|--------|--------|--------|--------|--------|--------|
G|--------|--------|--------|--------|--------|--------|--------|--------|--------|
D|--------|--------|--------|--------|--------|--------|--------|--------|--------|
A|--------|--------|--------|--------|--------|--------|--------|--------|--------|
E|--------|--------|--------|--------|--------|--------|--------|--------|--------|


E|--------|--------|------------|------------|--------|--------|--------|--------|
B|--------|--------|------------|------------|--------|--------|--------|--------|
G|--------|--------|------------|------------|--------|--------|--------|--------|
D|--------|--------|------------|------------|--------|--------|--------|--------|
A|--------|--------|------------|------------|--------|--------|--------|--------|
E|--------|--------|------------|------------|--------|--------|--------|--------|


E|--------|--------|--------|--------|--------|--------|--------|--------|--------|
B|--------|--------|--------|--------|--------|--------|--------|--------|--------|
G|--------|--------|--------|--------|--------|--------|--------|--------|--------|
D|--------|--------|--------|--------|--------|--------|--------|--------|--------|
A|--------|--------|--------|--------|--------|--------|--------|--------|--------|
E|--------|--------|--------|--------|--------|--------|--------|--------|--------|


E|--------|--------|--------|--------|--------|--------|--------|--------|--------|
B|--------|--------|--------|--------|--------|--------|--------|--------|--------|
G|--------|--------|--------|--------|--------|--------|--------|--------|--------|
D|--------|--------|--------|--------|--------|--------|--------|--------|--------|
A|--------|--------|--------|--------|--------|--------|--------|--------|--------|
E|--------|--------|--------|--------|--------|--------|--------|--------|--------|


E|--------|--------|--------|--------|--------|--------|--------|--------|--------|
B|--------|--------|--------|--------|--------|--------|--------|--------|--------|
G|--------|--------|--------|--------|--------|--------|--------|--------|--------|
D|--------|--------|--------|--------|--------|--------|--------|--------|--------|
A|--------|--------|--------|--------|--------|--------|--------|--------|--------|
E|--------|--------|--------|--------|--------|--------|--------|--------|--------|


E|--------|--------|--------|--------|--------|--------|--------|--------|--------|
B|--------|--------|--------|--------|--------|--------|--------|--------|--------|
G|--------|--------|--------|--------|--------|--------|--------|--------|--------|
D|--------|--------|--------|--------|--------|--------|--------|--------|--------|
A|--------|--------|--------|--------|--------|--------|--------|--------|--------|
E|--------|--------|--------|--------|--------|--------|--------|--------|--------|


E|--------|--------|--------|--------|--------|--------|--------|--------|--------|
B|--------|--------|--------|--------|--------|--------|--------|--------|--------|
G|--------|--------|--------|--------|--------|--------|--------|--------|--------|
D|--------|--------|--------|--------|--------|--------|--------|--------|--------|
A|--------|--------|--------|--------|--------|--------|--------|--------|--------|
E|--------|--------|--------|--------|--------|--------|--------|--------|--------|


E|--------|
B|--------|
G|--------|
D|--------|
A|--------|
E|--------|





Track 6: Gtr2

E|--------|--------|--------|--------|--------|--------|--------|--------|--------|
B|--------|--------|--------|--------|--------|--------|--------|--------|--------|
G|--------|--------|--------|--------|--------|--------|--------|--------|--------|
D|--------|--------|--------|--------|--------|--------|--------|--------|--------|
A|--------|--------|--------|--------|--------|--------|--------|--------|--------|
E|--------|--------|--------|--------|--------|--------|--------|--------|--------|


E|--------|--------|--------|--------|--------|--------|--------|--------|--------|
B|--------|--------|--------|--------|--------|--------|--------|--------|--------|
G|--------|--------|--------|--------|--------|--------|--------|--------|--------|
D|--------|--------|--------|--------|--------|--------|--------|--------|--------|
A|--------|--------|--------|--------|--------|--------|--------|--------|--------|
E|--------|--------|--------|--------|--------|--------|--------|--------|--------|


E|--------|--------|--------|--------|--------|--------|--------|--------|--------|
B|--------|--------|--------|--------|--------|--------|--------|--------|--------|
G|--------|--------|--------|--------|--------|--------|--------|--------|--------|
D|--------|--------|--------|--------|--------|--------|--------|--------|--------|
A|--------|--------|--------|--------|--------|--------|--------|--------|--------|
E|--------|--------|--------|--------|--------|--------|--------|--------|--------|


E|--------|--------|--------|--------|--------|--------|--------|--------|--------|
B|--------|--------|--------|--------|--------|--------|--------|--------|--------|
G|--------|--------|--------|--------|--------|--------|--------|--------|--------|
D|--------|--------|--------|--------|--------|--------|--------|--------|--------|
A|--------|--------|--------|--------|--------|--------|--------|--------|--------|
E|--------|--------|--------|--------|--------|--------|--------|--------|--------|


E|--------|--------|--------|--------|--------|--------|--------|--------|--------|
B|--------|--------|--------|--------|--------|--------|--------|--------|--------|
G|--------|--------|--------|--------|--------|--------|--------|--------|--------|
D|--------|--------|--------|--------|--------|--------|--------|--------|--------|
A|--------|--------|--------|--------|--------|--------|--------|--------|--------|
E|--------|--------|--------|--------|--------|--------|--------|--------|--------|


E|--------|--------|--------|--------|--------|--------|--------|--------|--------|
B|--------|--------|--------|--------|--------|--------|--------|--------|--------|
G|--------|--------|--------|--------|--------|--------|--------|--------|--------|
D|--------|--------|--------|--------|--------|--------|--------|--------|--------|
A|--------|--------|--------|--------|--------|--------|--------|--------|--------|
E|--------|--------|--------|--------|--------|--------|--------|--------|--------|


E|--------|--------|--------|--------|--------|--------|--------|--------|--------|
B|--------|--------|--------|--------|--------|--------|--------|--------|--------|
G|--------|--------|--------|--------|--------|--------|--------|--------|--------|
D|--------|--------|--------|--------|--------|--------|--------|--------|--------|
A|--------|--------|--------|--------|--------|--------|--------|--------|--------|
E|--------|--------|--------|--------|--------|--------|--------|--------|--------|


E|--------|--------|--------|--------|--------|--------|--------|--------|--------|
B|--------|--------|--------|--------|--------|--------|--------|--------|--------|
G|--------|--------|--------|--------|--------|--------|--------|--------|--------|
D|--------|--------|--------|--------|--------|--------|--------|--------|--------|
A|--------|--------|--------|--------|--------|--------|--------|--------|--------|
E|--------|--------|--------|--------|--------|--------|--------|--------|--------|


E|--------|--------|--------|--------|--------|--------|--------|--------|--------|
B|--------|--------|--------|--------|--------|--------|--------|--------|--------|
G|--------|--------|--------|--------|--------|--------|--------|--------|--------|
D|--------|--------|--------|--------|--------|--------|--------|--------|--------|
A|--------|--------|--------|--------|--------|--------|--------|--------|--------|
E|--------|--------|--------|--------|--------|--------|--------|--------|--------|


E|--------|--------|--------|--------|--------|--------|--------|--------|--------|
B|--------|--------|--------|--------|--------|--------|--------|--------|--------|
G|--------|--------|--------|--------|--------|--------|--------|--------|--------|
D|--------|--------|--------|--------|--------|--------|--------|--------|--------|
A|--------|--------|--------|--------|--------|--------|--------|--------|--------|
E|--------|--------|--------|--------|--------|--------|--------|--------|--------|


E|--------|--------|--------|--------|-------------------------------------|--------------------------------|
B|--------|--------|--------|--------|-------------------------------------|--------------------------------|
G|--------|--------|--------|--------|-----12------------------------------|--------------------------------|
D|--------|--------|--------|--------|-----12------------------------------|--------------------------------|
A|--------|--------|--------|--------|---------5---7-------5--7--------5---|-7---7---5---7---------5---7----|
E|--------|--------|--------|--------|-----------------0---------0--0------|-----------------0--0--3---5----|


E|-------------------------------------|---------------------------------|----------------|
B|-------------------------------------|---------------------------------|----------------|
G|-12--12------------------------------|---------------------------------|----------------|
D|-12--12------------------------------|---------------------------------|----------------|
A|---------5---7-------5--7--------5---|-7---7---5---7-------------------|-4--------------|
E|-----------------0---------0--0------|-----------------0---3---4---5---|----------------|


E|--------|--------|--------|--------|--------|--------|--------|--------|--------|
B|--------|--------|--------|--------|--------|--------|--------|--------|--------|
G|--------|--------|--------|--------|--------|--------|--------|--------|--------|
D|--------|--------|--------|--------|--------|--------|--------|--------|--------|
A|--------|--------|--------|--------|--------|--------|--------|--------|--------|
E|--------|--------|--------|--------|--------|--------|--------|--------|--------|


E|--------|--------|--------|--------|--------|-------------|-------------|-------------|
B|--------|--------|--------|--------|--------|-------------|-------------|-------------|
G|--------|--------|--------|--------|--------|-------------|-------------|-------------|
D|--------|--------|--------|--------|--------|-------------|-------------|-------------|
A|--------|--------|--------|--------|--------|--------4----|-------------|-------------|
E|--------|--------|--------|--------|--------|-------------|--------5----|--------4----|


E|-------------|--------|--------|--------|--------|--------|--------|--------|--------|
B|-------------|--------|--------|--------|--------|--------|--------|--------|--------|
G|-------------|--------|--------|--------|--------|--------|--------|--------|--------|
D|-------------|--------|--------|--------|--------|--------|--------|--------|--------|
A|-------------|--------|--------|--------|--------|--------|--------|--------|--------|
E|-------------|--------|--------|--------|--------|--------|--------|--------|--------|


E|--------|--------|--------|--------|--------|--------|--------|--------|--------|
B|--------|--------|--------|--------|--------|--------|--------|--------|--------|
G|--------|--------|--------|--------|--------|--------|--------|--------|--------|
D|--------|--------|--------|--------|--------|--------|--------|--------|--------|
A|--------|--------|--------|--------|--------|--------|--------|--------|--------|
E|--------|--------|--------|--------|--------|--------|--------|--------|--------|


E|--------|--------|--------|--------|--------|--------|-----------------|--------------------3---|
B|--------|--------|--------|--------|--------|--------|-----------------|-----------3----3-------|
G|--------|--------|--------|--------|--------|--------|-----------------|-----------2------------|
D|--------|--------|--------|--------|--------|--------|-------5-----4---|-4----0----0------------|
A|--------|--------|--------|--------|--------|--------|-----------------|------------------------|
E|--------|--------|--------|--------|--------|--------|-----------------|------------------------|


E|-3----2-------------5---|-5---------3-----|
B|------------------------|------3----3-----|
G|------------------------|-----------0-----|
D|------------------------|-----------0-----|
A|------------------------|-----------------|
E|----------0---2---------|-----------3-----|





Track 7: Gtr1

E|--------|--------|--------|--------|--------|--------|--------|--------|--------|
B|--------|--------|--------|--------|--------|--------|--------|--------|--------|
G|--------|--------|--------|--------|--------|--------|--------|--------|--------|
D|--------|--------|--------|--------|--------|--------|--------|--------|--------|
A|--------|--------|--------|--------|--------|--------|--------|--------|--------|
E|--------|--------|--------|--------|--------|--------|--------|--------|--------|


E|--------|--------|--------|--------|--------|--------|--------|--------|--------|
B|--------|--------|--------|--------|--------|--------|--------|--------|--------|
G|--------|--------|--------|--------|--------|--------|--------|--------|--------|
D|--------|--------|--------|--------|--------|--------|--------|--------|--------|
A|--------|--------|--------|--------|--------|--------|--------|--------|--------|
E|--------|--------|--------|--------|--------|--------|--------|--------|--------|


E|--------|--------|--------|--------|--------|--------|--------|--------|--------|
B|--------|--------|--------|--------|--------|--------|--------|--------|--------|
G|--------|--------|--------|--------|--------|--------|--------|--------|--------|
D|--------|--------|--------|--------|--------|--------|--------|--------|--------|
A|--------|--------|--------|--------|--------|--------|--------|--------|--------|
E|--------|--------|--------|--------|--------|--------|--------|--------|--------|


E|--------|--------|--------|--------|--------|--------|--------|--------|--------|
B|--------|--------|--------|--------|--------|--------|--------|--------|--------|
G|--------|--------|--------|--------|--------|--------|--------|--------|--------|
D|--------|--------|--------|--------|--------|--------|--------|--------|--------|
A|--------|--------|--------|--------|--------|--------|--------|--------|--------|
E|--------|--------|--------|--------|--------|--------|--------|--------|--------|


E|--------|--------|--------|--------|--------|--------|--------|--------|--------|
B|--------|--------|--------|--------|--------|--------|--------|--------|--------|
G|--------|--------|--------|--------|--------|--------|--------|--------|--------|
D|--------|--------|--------|--------|--------|--------|--------|--------|--------|
A|--------|--------|--------|--------|--------|--------|--------|--------|--------|
E|--------|--------|--------|--------|--------|--------|--------|--------|--------|


E|--------|--------|--------|--------|--------|--------|--------|--------|--------|
B|--------|--------|--------|--------|--------|--------|--------|--------|--------|
G|--------|--------|--------|--------|--------|--------|--------|--------|--------|
D|--------|--------|--------|--------|--------|--------|--------|--------|--------|
A|--------|--------|--------|--------|--------|--------|--------|--------|--------|
E|--------|--------|--------|--------|--------|--------|--------|--------|--------|


E|--------|--------|--------|--------|--------|--------|--------|--------|--------|
B|--------|--------|--------|--------|--------|--------|--------|--------|--------|
G|--------|--------|--------|--------|--------|--------|--------|--------|--------|
D|--------|--------|--------|--------|--------|--------|--------|--------|--------|
A|--------|--------|--------|--------|--------|--------|--------|--------|--------|
E|--------|--------|--------|--------|--------|--------|--------|--------|--------|


E|--------|--------|--------|--------|--------|--------|--------|--------|--------|
B|--------|--------|--------|--------|--------|--------|--------|--------|--------|
G|--------|--------|--------|--------|--------|--------|--------|--------|--------|
D|--------|--------|--------|--------|--------|--------|--------|--------|--------|
A|--------|--------|--------|--------|--------|--------|--------|--------|--------|
E|--------|--------|--------|--------|--------|--------|--------|--------|--------|


E|--------|--------|--------|--------|--------|--------|--------|--------|--------|
B|--------|--------|--------|--------|--------|--------|--------|--------|--------|
G|--------|--------|--------|--------|--------|--------|--------|--------|--------|
D|--------|--------|--------|--------|--------|--------|--------|--------|--------|
A|--------|--------|--------|--------|--------|--------|--------|--------|--------|
E|--------|--------|--------|--------|--------|--------|--------|--------|--------|


E|--------|--------|--------|--------|--------|--------|--------|--------|--------|
B|--------|--------|--------|--------|--------|--------|--------|--------|--------|
G|--------|--------|--------|--------|--------|--------|--------|--------|--------|
D|--------|--------|--------|--------|--------|--------|--------|--------|--------|
A|--------|--------|--------|--------|--------|--------|--------|--------|--------|
E|--------|--------|--------|--------|--------|--------|--------|--------|--------|


E|--------|--------|--------|--------|--------|--------|--------|--------|--------|
B|--------|--------|--------|--------|--------|--------|--------|--------|--------|
G|--------|--------|--------|--------|--------|--------|--------|--------|--------|
D|--------|--------|--------|--------|--------|--------|--------|--------|--------|
A|--------|--------|--------|--------|--------|--------|--------|--------|--------|
E|--------|--------|--------|--------|--------|--------|--------|--------|--------|


E|--------|--------|--------|--------|--------|--------|--------|--------|--------|
B|--------|--------|--------|--------|--------|--------|--------|--------|--------|
G|--------|--------|--------|--------|--------|--------|--------|--------|--------|
D|--------|--------|--------|--------|--------|--------|--------|--------|--------|
A|--------|--------|--------|--------|--------|--------|--------|--------|--------|
E|--------|--------|--------|--------|--------|--------|--------|--------|--------|


E|--------|--------|--------|-------------|-------------|--------|--------|--------|
B|--------|--------|--------|-------------|-------------|--------|--------|--------|
G|--------|--------|--------|-------------|-------------|--------|--------|--------|
D|--------|--------|--------|-------------|-------------|--------|--------|--------|
A|--------|--------|--------|-------------|-------------|--------|--------|--------|
E|--------|--------|--------|-------------|-------------|--------|--------|--------|


E|--------|--------|--------|--------|--------|--------|--------|--------|--------|
B|--------|--------|--------|--------|--------|--------|--------|--------|--------|
G|--------|--------|--------|--------|--------|--------|--------|--------|--------|
D|--------|--------|--------|--------|--------|--------|--------|--------|--------|
A|--------|--------|--------|--------|--------|--------|--------|--------|--------|
E|--------|--------|--------|--------|--------|--------|--------|--------|--------|


E|--------|--------|--------|--------|--------|--------|--------|--------|--------|
B|--------|--------|--------|--------|--------|--------|--------|--------|--------|
G|--------|--------|--------|--------|--------|--------|--------|--------|--------|
D|--------|--------|--------|--------|--------|--------|--------|--------|--------|
A|--------|--------|--------|--------|--------|--------|--------|--------|--------|
E|--------|--------|--------|--------|--------|--------|--------|--------|--------|


E|--------|--------|--------|--------|--------|--------|--------|--------|--------|
B|--------|--------|--------|--------|--------|--------|--------|--------|--------|
G|--------|--------|--------|--------|--------|--------|--------|--------|--------|
D|--------|--------|--------|--------|--------|--------|--------|--------|--------|
A|--------|--------|--------|--------|--------|--------|--------|--------|--------|
E|--------|--------|--------|--------|--------|--------|--------|--------|--------|


E|--------|
B|--------|
G|--------|
D|--------|
A|--------|
E|--------|





Track 8: Bass

C|-------------------------------------------|-----------------------------------------------|
G|-------------------------------------------|-----------------------------------------------|
D|-------------------------------------------|--------------------------6-----------7--------|
A|-------------------------------------------|-----------------------------5-----------6-----|
E|-4--4--4--4------4--4--4--4------4--4--4---|-----4--4--4--4-----0--4--------4--5--------5--|
B|-------------------------------------------|-----------------------------------------------|


C|-------------------------------------------|---------------------------|-------------------------------------------|
G|-------------------------------------------|---------------------------|-------------------------------------------|
D|-------------------------------------------|---------------------------|-------------------------------------------|
A|-------------------------------------------|---------------------------|-------------------------------------------|
E|-4--4--4--4------4--4--4--4------4--4--4---|-----4--4--4--4------------|-4--4--4--4------4--4--4--4------4--4--4---|
B|-------------------------------------------|---------------------------|-------------------------------------------|


C|-----------------------------------------------|-------------------------------------------|
G|-----------------------------------------------|-------------------------------------------|
D|--------------------------6-----------7--------|-------------------------------------------|
A|-----------------------------5-----------6-----|-------------------------------------------|
E|-----4--4--4--4-----0--4--------4--5--------5--|-1--1--1--1------1--1--1--1------1--1--1---|
B|-----------------------------------------------|-------------------------------------------|


C|---------------------------|-------------------------------------------|-----------------------------------------------|
G|---------------------------|-------------------------------------------|-----------------------------------------------|
D|---------------------------|-------------------------------------------|--------------------------3-----------4--------|
A|---------------------------|-------------------------------------------|-----------------------------2-----------3-----|
E|-----1--1--1--1------------|-1--1--1--1------1--1--1--1------1--1--1---|-----1--1--1--1-----0--1--------1--2--------2--|
B|---------------------------|-------------------------------------------|-----------------------------------------------|


C|-------------------------------------------|---------------------------|-------------------------------------------|
G|-------------------------------------------|---------------------------|-------------------------------------------|
D|-------------------------------------------|---------------------------|-------------------------------------------|
A|-------------------------------------------|---------------------------|-------------------------------------------|
E|-4--4--4--4------4--4--4--4------4--4--4---|-----4--4--4--4------------|-4--4--4--4------4--4--4--4------4--4--4---|
B|-------------------------------------------|---------------------------|-------------------------------------------|


C|-----------------------------------------------|-------------------------------------------|
G|-----------------------------------------------|-------------------------------------------|
D|--------------------------6-----------7--------|-------------------------------------------|
A|-----------------------------5-----------6-----|-------------------------------------------|
E|-----4--4--4--4-----0--4--------4--5--------5--|-1--1--1--1------1--1--1--1------1--1--1---|
B|-----------------------------------------------|-------------------------------------------|


C|---------------------------|-------------------------------------------|-----------------------------------------------|
G|---------------------------|-------------------------------------------|-----------------------------------------------|
D|---------------------------|-------------------------------------------|--------------------------3-----------4--------|
A|---------------------------|-------------------------------------------|-----------------------------2-----------3-----|
E|-----1--1--1--1------------|-1--1--1--1------1--1--1--1------1--1--1---|-----1--1--1--1-----0--1--------1--2--------2--|
B|---------------------------|-------------------------------------------|-----------------------------------------------|


C|-------------------------------------------|---------------------------------------------|
G|-------------------------------------------|---------------------------------------------|
D|-----------------------------------6-------|-------4---4---------------------------------|
A|-------------------------------------------|---------------------6--7--6--4--------------|
E|-4--------5-----5--4------4-----4-------4--|----4---------4---4--------------4--------5--|
B|----6--7---------------------7-------------|------------------------------------6--7-----|


C|---------------------------------------|---------------------------------------------|
G|---------------------------------------|---------------------------------------------|
D|-----------------------6-----------4---|-4-------------------------------------------|
A|---------------------------------------|-----------4--6--4--3------------------------|
E|----5--4------4-----4-------4---4------|----4---4--------------1--2--4--5-----4--2---|
B|-----------------7---------------------|---------------------------------------------|


C|---------------------------------------|-----------------------------------------------|
G|---------------------------------------|-----------------------------------------------|
D|-------------4-----------2---2---------|-1--2--1---------------------------------------|
A|---------------------------------------|----------4--2---------------------------------|
E|----2--0--2-------2---2---------2---2--|----------------5--4--5-----4--2------2--0--2--|
B|---------------------------------------|-----------------------------------------------|


C|---------------------------------------|---------------------------------|---------------------|
G|---------------------------------------|---------------------------------|---------------------|
D|-4-----------2---2---------6--7--6--4--|---------------------------------|---------------------|
A|---------------------------------------|-6--7--6-----4--4----------------|---------------------|
E|------2---2---------2---2--------------|----------7------------14---4----|-4----4----4----4----|
B|---------------------------------------|---------------------------------|---------------------|


C|-----------------------------------|---------------------|-----------------------------------|
G|-----------------------------------|---------------------|-----------------------------------|
D|-----------------------------------|---------------------|-----------------------------------|
A|-----------------------------------|---------------------|------------------------------8----|
E|-4----4-----2--2--4--4--2--2--4----|-4----4----4----4----|-4----4-----2--2--4--4--2--2-------|
B|-----------------------------------|---------------------|-----------------------------------|


C|------------------------|---------------------------------|------------------------|
G|------------------------|---------------------------------|------------------------|
D|------------------------|---------------------------------|------------------------|
A|-8----8----8---6---8----|-8----8---6--6--8--8--6--6--8----|-8----8----8---6---8----|
E|------------------------|---------------------------------|------------------------|
B|------------------------|---------------------------------|------------------------|


C|----------------------------------------|-------------------------------------------------|
G|----------------------------------------|-------------------------------------------------|
D|----------------------------------------|-------------------------------------------------|
A|-8----8---6--6--8--8--6--6--------------|-------------------------------------------------|
E|----------------------------4--4--4--4--|-4--4--4--4--4--4--4--4--4--4--4--4--4--4--4--4--|
B|----------------------------------------|-------------------------------------------------|


C|-------------------------------------------------|-------------------------------------------------|
G|-------------------------------------------------|-------------------------------------------------|
D|-------------------------------------------------|-------------------------------------------------|
A|-------------------------------------------------|-------------------------------------------------|
E|-4--4--4--4--4--4--4--4--4--4--4--4--4--4--4--4--|-4--4--4--4--4--4--4--4--4--4--4--4--4--4--4--4--|
B|-------------------------------------------------|-------------------------------------------------|


C|-------------------------------------------------|-------------------------------------------------|
G|-------------------------------------------------|-------------------------------------------------|
D|-------------------------------------------------|-------------------------------------------------|
A|-------------------------------------------------|-------------------------------------------------|
E|-4--4--4--4--4--4--4--4--4--4--4--4--1--1--1--1--|-1--1--1--1--1--1--1--1--1--1--1--1--1--1--1--1--|
B|-------------------------------------------------|-------------------------------------------------|


C|-------------------------------------------------|-------------------------------------------------|
G|-------------------------------------------------|-------------------------------------------------|
D|-------------------------------------------------|-------------------------------------------------|
A|-------------------------------------------------|-------------------------------------------------|
E|-1--1--1--1--1--1--1--1--1--1--1--1--1--1--1--1--|-1--1--1--1--1--1--1--1--1--1--1--1--1--1--1--1--|
B|-------------------------------------------------|-------------------------------------------------|


C|-------------------------------------------------|-------------------------------------------------|
G|-------------------------------------------------|-------------------------------------------------|
D|-------------------------------------------------|-------------------------------------------------|
A|-------------------------------------------------|-------------------------------------------------|
E|-1--1--1--1--1--1--1--1--1--1--1--1--7--7--7--7--|-7--7--7--7--7--7--7--7--7--7--7--7--7--7--7--7--|
B|-------------------------------------------------|-------------------------------------------------|


C|-------------------------------------------------|-------------------------------------------------|
G|-------------------------------------------------|-------------------------------------------------|
D|-------------------------------------------------|-------------------------------------------------|
A|-------------------------------------------------|-------------------------------------------------|
E|-7--7--7--7--7--7--7--7--7--7--7--7--9--9--9--9--|-9--9--9--9--9--9--9--9--9--9--9--9--9--9--9--9--|
B|-------------------------------------------------|-------------------------------------------------|


C|-------------------------------------------------|---------------------------------------|
G|-------------------------------------------------|---------------------------------------|
D|-------------------------------------------------|-----------------------6-----------4---|
A|-------------------------------------------------|---------------------------------------|
E|-9--9--9--9--9--9--9--9--9--9--9--9--4--------5--|----5--4------4-----4-------4---4------|
B|----------------------------------------6--7-----|-----------------7---------------------|


C|---------------------------------------------|---------------------------------------|
G|---------------------------------------------|---------------------------------------|
D|-4-------------------------------------------|-------------6-----------4---4---------|
A|-----------6--7--6--4------------------------|---------------------------------------|
E|----4---4--------------4--------5-----5--4---|----4-----4-------4---4---------4---4--|
B|--------------------------6--7---------------|-------7-------------------------------|


C|-----------------------------------------------|---------------------------------------|
G|-----------------------------------------------|---------------------------------------|
D|-----------------------------------------------|-4-----------2---2---------1--2--1-----|
A|-4--6--4--3------------------------------------|------------------------------------4--|
E|-------------1--2--4--5-----4--2------2--0--2--|------2---2---------2---2--------------|
B|-----------------------------------------------|---------------------------------------|


C|-------------------------------------------|---------------------------------------------|
G|-------------------------------------------|---------------------------------------------|
D|-----------------------------------4-------|-------2---2---------6--7--6--4--------------|
A|-2-----------------------------------------|---------------------------------6--7--6-----|
E|----5--4--5-----4--2------2--0--2-------2--|----2---------2---2-----------------------7--|
B|-------------------------------------------|---------------------------------------------|


C|---------------------------------------|-------------------------|-------------------------------------|
G|---------------------------------------|-------------------------|-----------------------------9-------|
D|-----------------------------9--11-11--|-------------------------|-----------------------9--11----11---|
A|-4----4--4--4--4---4---9--11-----------|-------------------------|-------------------------------------|
E|---------------------------------------|-5----5--5--5--5---5-----|-4----4--4--4--4---4-----------------|
B|---------------------------------------|-------------------------|-------------------------------------|


C|------------------------------|---------------------------------------|-------------------------|
G|------------------------------|---------------------------------------|-------------------------|
D|------------------------------|---------------------9--11-11----------|-------------------------|
A|------------------6---4----4--|-4--4--4---4---9--11-------------------|-------------------------|
E|-2----4--4---5----------------|-------------------------------5----5--|-5--5--5---5-----4----4--|
B|------------------------------|---------------------------------------|-------------------------|


C|-------------------------------------|---------------------------------------|-------------------------------------|
G|---------------------9---------------|---------------------------------------|-------------------------------------|
D|---------------9--11----11-----------|---------------------------------------|-------------------------------------|
A|-------------------------------------|---------------------------------------|-------------------------------------|
E|-4--4--4---4-----------------2----2--|-2--2--2---2---2--2--2---2--2--7----7--|-7--7--7---7---7---7--7--7---5----5--|
B|-------------------------------------|---------------------------------------|-------------------------------------|


C|-----------------------------------|-----------------------------------|-----------------------------------|
G|-----------------------------------|-----------------------------------|-----------------------------------|
D|-----------------------------------|-----------------------------------|-----------------------------------|
A|-----------------------------------|-----------------------------------|-----------------------------------|
E|-5--5--5---5---5---5---5---7----7--|-7--7--7---7---7---7---7---5----5--|-5--5--5---5---0---0---0---2----2--|
B|-----------------------------------|-----------------------------------|-----------------------------------|


C|-------------------------------------|-------------------------------------|-------------------------------------|
G|-------------------------------------|-------2---2---------2---------------|-------4---4-------4--4--------------|
D|-------------------------------------|-------------------------------------|-------------------------------------|
A|-----------------------------0----0--|-0--0----------0--0------0---2----2--|-2--2----------2---------2---3----3--|
E|-2--2--2---2---2--2--2---2-----------|-------------------------------------|-------------------------------------|
B|-------------------------------------|-------------------------------------|-------------------------------------|


C|---------------------------------|--------------------------------|-----19--19------------------19--|
G|---------------------------------|--------------------------------|-19----------19--19--------------|
D|---------------------------------|--------------------------------|---------------------------------|
A|-3---3---3---3---3---3---5----5--|-5---5---5---5---5--------------|---------------------------------|
E|---------------------------------|---------------------10-12-0----|---------------------0---0-------|
B|---------------------------------|--------------------------------|---------------------------------|


C|--------------------------------|-----19--19----------2---2----|-------2---------------|
G|-19------19---------------------|-19------------------2---2----|-------2---------------|
D|--------------------------------|------------------------------|-----------------------|
A|-----19------19--19-------------|------------------------------|-----------------------|
E|---------------------10-12-0----|-------------0---0------------|-----------0---0---10--|
B|--------------------------------|------------------------------|-----------------------|


C|---------------------------------------|-----------------------------------|---------------------------------------|
G|---------------------------------------|-----------------------------------|---------------------------------------|
D|---------------------------------------|-----------------------------------|---------------------------------------|
A|---------------------------------------|-----------------------------------|---------------------------------------|
E|-12--0--0--10-12-0--0--10--12--12--10--|-12--0--0--3---5---5---0---0---10--|-12--0--0--10-12-0--0--10--12--12--10--|
B|---------------------------------------|-----------------------------------|---------------------------------------|


C|-----------------------------------|---------------------------------------|-----------------------------------------|
G|-----------------------------------|---------------------------------------|-----------------------------------------|
D|-----------------------------------|---------------------------------------|-----------------------------------------|
A|-----------------------------------|---------------------------------------|--------------------5--6--7--------------|
E|-12--0--0--5---3---3---0---0---10--|-12--0--0--10-12-0--0--10--12--12--10--|-12--0--0--5--6--7-----------0---0---10--|
B|-----------------------------------|---------------------------------------|-----------------------------------------|


C|---------------------------------------|-----------------------------------|---------------------------------------|
G|---------------------------------------|-----------------------------------|---------------------------------------|
D|---------------------------------------|-----------------------------------|---------------------------------------|
A|---------------------------------------|---------------------------7---7---|-7-------------------------------------|
E|-12--0--0--10-12-0--0--10--12--12--10--|-12--0--0--3---4---5---0-----------|-----0---0---10--12--0--0--10-12-0--0--|
B|---------------------------------------|-----------------------------------|---------------------------------------|


C|-----------------------------------|---------------------------------------|-----------------------------------|
G|-----------------------------------|---------------------------------------|-----------------------------------|
D|-----------------------------------|---------------------------------------|-----------------------------------|
A|-----------------------------------|---------------------------------------|-----------------------------------|
E|-10--12--12--10--12--0--0--3---5---|-5---0---0---10--12--0--0--10-12-0--0--|-10--12--12--10--12--0--0--3---5---|
B|-----------------------------------|---------------------------------------|-----------------------------------|


C|---------------------------------------|-----------------------------------|---------------------------------------|
G|---------------------------------------|-----------------------------------|---------------------------------------|
D|---------------------------------------|-----------------------------------|---------------------------------------|
A|---------------------------------------|-----------------------------------|---------------------------------------|
E|-5---0---0---10--12--0--0--10-12-0--0--|-10--12--12--10--12--0--0--3---5---|-5---0---0---10--12--0--0--10-12-0--0--|
B|---------------------------------------|-----------------------------------|---------------------------------------|


C|-----------------------------------|---------------------------------------|-----------------------------------|
G|-----------------------------------|---------------------------------------|-----------------------------------|
D|-----------------------------------|---------------------------------------|-----------------------------------|
A|-----------------------------------|---------------------------------------|-----------------------------------|
E|-10--12--12--10--12--0--0--3---5---|-5---12--12--10--12--0--0--10-12-0--0--|-10--12--12--10--12--0--0--3---5---|
B|-----------------------------------|---------------------------------------|-----------------------------------|


C|---------------------------------------|-----------------------------------|---------------------------------------|
G|---------------------------------------|-----------------------------------|---------------------------------------|
D|---------------------------------------|-----------------------------------|---------------------------------------|
A|---------------------------------------|-----------------------------------|---------------------------------------|
E|-5---12--12--10--12--0--0--10-12-0--0--|-10--12--12--10--12--0--0--3---5---|-5---12--12--10--12--0--0--10-12-0--0--|
B|---------------------------------------|-----------------------------------|---------------------------------------|


C|-----------------------------------|---------------------------------------|-----------------------------------|
G|-----------------------------------|---------------------------------------|-----------------------------------|
D|-----------------------------------|---------------------------------------|-----------------------------------|
A|-----------------------------------|---------------------------------------|-----------------------------------|
E|-10--12--12--10--12--0--0--3---5---|-5---12--12--10--12--0--0--10-12-0--0--|-10--12--12--10--12--0--0--3---4---|
B|-----------------------------------|---------------------------------------|-----------------------------------|


C|---------------------------------|-----------------------------------|---------------------------------|
G|---------------------------------|-----------------------------------|---------------------------------|
D|---------------------------------|-2---------------------------------|---------------------------------|
A|-----4---4-------------------2---|-----4---4-------------------------|-----4---4-------------------2---|
E|-5-----------0---2---3---4-------|-------------0---2---3---4---3--2--|-0-----------0---2---3---4-------|
B|---------------------------------|-----------------------------------|---------------------------------|


C|-----------------------------------|---------------------------------|-----------------------------------|
G|-----------------------------------|---------------------------------|-----------------------------------|
D|-2-----------------------2---------|---------------------------------|-2---------------------------------|
A|-----4---4-------------------4--2--|-----4---4-------------------2---|-----4---4-------------------------|
E|-------------0---2---4-------------|-4-----------0---2---3---4-------|-------------0---2---3---4---3--2--|
B|-----------------------------------|---------------------------------|-----------------------------------|


C|---------------------------------|-----------------------------------|--------------------------------|
G|---------------------------------|-----------------------------------|--------------------------------|
D|---------------------------------|-2-----------------------4---------|----------4---6-------4--6------|
A|-----4---4-------------------2---|-----4---4-------------------6--4--|--------------------------------|
E|-0-----------0---2---3---4-------|-------------0---2---4-------------|-7---4------------4---------4---|
B|---------------------------------|-----------------------------------|--------------------------------|


C|-----------------------------------|--------------------------------|-----------------------------------|
G|-----------------------------------|--------------------------------|-----------------------------------|
D|-----------------------------------|------4---6-------4--6----------|-----------------------------------|
A|---------4---6---4---4-------------|--------------------------------|-----4---6---4---5--4--------------|
E|-7---7-------------------7---2--3--|-4------------4---------4---7---|-7---------------------7---2---3---|
B|-----------------------------------|--------------------------------|-----------------------------------|


C|--------------------------------|-----------------------------------|-----------------------------------|
G|--------------------------------|-----------------------------------|-----------------------------------|
D|------4---6-------4--6----------|-----------------------------------|-----4---6-------4--6--------------|
A|--------------------------------|-----4---6---4---4-----------------|-----------------------------------|
E|-4------------4---------4---7---|-7-------------------7---2--3--4---|-------------4---------4---7---7---|
B|--------------------------------|-----------------------------------|-----------------------------------|


C|---------------------------------|----------------|----------------|----------------|
G|---------------------------------|----------------|----------------|----------------|
D|---------------------------------|----------------|----------------|----------------|
A|-4---6-------------------2---4---|----------------|----------------|----------------|
E|---------2---2---3---4-----------|------------5---|------------4---|------------2---|
B|---------------------------------|----------------|----------------|----------------|


C|---------------------------------------|---------------------------|---------------------------------------|
G|---------------------------------------|---------------------------|---------------------------------------|
D|---------------------------------------|---------------------------|---------------------------7-----------|
A|---------------------------7--9----5---|----5--5--5--5---5-----4---|----4--4--4--4---4---7--9-----9----2---|
E|----2--2--2--2---2---7--9--------------|---------------------------|---------------------------------------|
B|---------------------------------------|---------------------------|---------------------------------------|


C|-------------------------------------|-------------------------------------|----------------------------------------|
G|-------------------------------------|-------------------------------------|----------------------------------------|
D|-------------------------------------|-------------------------------------|-12--12--11--9--11-9--7-----------------|
A|----4--4---5---5---------------------|---------------7--9----5----5--5--5--|--------------------------4----4--4--4--|
E|-------------------4---2----2--2--2--|-2---2---7--9------------------------|----------------------------------------|
B|-------------------------------------|-------------------------------------|----------------------------------------|


C|-----------------------------------|------------------------------|-------------------------------------|
G|-----------------------------------|------------------------------|-------------------------------------|
D|---------------7-------------------|------------------------------|-------------------------------------|
A|-4---4---7--9-----9----------------|------------------------------|-----------------------0----0--0--0--|
E|-----------------------7----7--7---|-7---7---7---7----0----0--0---|-0---0---0---0---0--0----------------|
B|-----------------------------------|------------------------------|-------------------------------------|


C|-------------------------------------|-------------------------------------|---------------------------------|
G|-------------------------------------|-------------------------------------|---------------------------------|
D|-------------------------------------|-------------------------------------|---------------------------------|
A|-0---0---0---0---0--0--2----2--2--2--|-2---2---2---2--2--2-----------------|---------------------------------|
E|-------------------------------------|-----------------------5----5--5--5--|-5---5---0---0---0---2----2--2---|
B|-------------------------------------|-------------------------------------|---------------------------------|


C|-------------------------------------|---------------------------------------|---------------------------------------|
G|-------------------------------------|---------------------------------------|---------------------------------------|
D|-------------------------------------|-7---7---------------------------------|---------------------------------------|
A|-9---9---9---7--9--9---0----0--0--0--|---------0--0--0--0--0---2----2--2--2--|-2---2---2--2--2--2--2---3----3--3--3--|
E|-------------------------------------|---------------------------------------|---------------------------------------|
B|-------------------------------------|---------------------------------------|---------------------------------------|


C|---------------------------------------|---------------------------------------|
G|---------------------------------------|---------------------------------------|
D|---------------------------------------|---------------------------------------|
A|-3---3---3--3--3--3--3---5----5--5--5--|-5---5---5--5--5--5--5---0----0--0--0--|
E|---------------------------------------|---------------------------------------|
B|---------------------------------------|---------------------------------------|


C|-------------------------------------|-------------------------------------|---------------------------------|
G|-------------------------------------|---------------4---------------------|---------------------------------|
D|-7---7---------7--7------------------|-------------------------------------|---------------------------------|
A|---------0--0--------0---2----2--2---|-2---2---2--2------2-----------------|---------------------------------|
E|-------------------------------------|-----------------------5----5--5--5--|-5---5---0---0---0---2----2--2---|
B|-------------------------------------|-------------------------------------|---------------------------------|


C|-------------------------------------|-------------------------------------|-----------------------------------|
G|-------------------------------------|-------------------------------------|---------------4-------------------|
D|-------------------------------------|-7---7---------7--7------------------|-----------------------------------|
A|-9---9---9---7--9--9---0----0--0--0--|---------0--0--------0---2----2--2---|-2---2---2--2------2---3----3--3---|
E|-------------------------------------|-------------------------------------|-----------------------------------|
B|-------------------------------------|-------------------------------------|-----------------------------------|


C|---------------------------------|---------------------------------|---------------------------|
G|---------------------------------|---------------------------------|---------------------------|
D|---------------------------------|---------------------------------|---------------------------|
A|-3---3---3---3---3---3----3--3---|-3---3---3---3---3---5----5--5---|-5---5---5---5---5---------|
E|---------------------------------|---------------------------------|---------------------2-----|
B|---------------------------------|---------------------------------|---------------------------|


C|-----------------|
G|-----------------|
D|-----------------|
A|-----------------|
E|-----------3-----|
B|-----------------|