Menu:

 

Search:

 

dream theater - strange deja vu:

 



/---------------------------------------------------------------------------
/ The following is the author's own interpretation of the song, to be used -
/ for studying or private use only, removal of any part of this ten line   -
/ header is illegal!!!  Removal of the transcribers name or anything       -
/ relevant to the transcriber is also illegal, as so is the removal of the -
/ place inwhich the tab was downloaded. Publishing as well as printing of  -
/ the tab is illegal without permission of the transcriber and copyright   -
/ owner of the song. Failure to apply to these laws result will in legal   -
/ action from the appropriate parties.                                     -
/---------------------------------------------------------------------------

downloaded from Displacer's Tablature Site at
        http://www.dsrmusic.com/metaltab
join the death/black tab emailing list by filling out the free
subscription form at http://www.dsrmusic.com/metaltab/join.htm


Strange Deja Vu - Guitar Tab


Author - Johann Lau


Strange Deja Vu - Scenes From A Memory
By Dream Theater

Tabbed by Johann Lau

Intro from Overture 1928
E|-------------------------------------|-------------------------------------------------------|
B|-------------------------------------|-------------------------------------------------------|
G|-8-8-8-8---8-8-8-8---7-7-7---7-7-7-7-|-8-8-8-8---8-8-8-8---7-7-7---7-7-7-7-------------------|
D|-6-6-6-6---6-6-6-6---6-6-6---6-6-6-6-|-6-6-6-6---6-6-6-6---6-6-6---6-6-6-6-----6-------7-----|
A|-------------------------------------|-------------------------------------------7-6-----7-6-|
E|-------------------------------------|-------------------------------------2/4-------5-------|

Figure 1 (play twice)
E|-------------------------------------|-------------------------------------------------------|
B|-------------------------------------|-------------------------------------------------------|
G|-8-8-8-8---8-8-8-8---7-7-7---7-7-7-7-|-8-8-8-8---8-8-8-8---7-7-7---7-7-7-7-------------------|
D|-6-6-6-6---6-6-6-6---6-6-6---6-6-6-6-|-6-6-6-6---6-6-6-6---6-6-6---6-6-6-6-----6-------7-----|
A|-------------------------------------|-------------------------------------------7-6-----7-6-|
E|-------------------------------------|-------------------------------------2/4-------5-------|

E|-------------------------------------|-------------------------------------------------------|
B|-------------------------------------|-------------------------------------------------------|
G|-5-5-5-5---5-5-5-5---4-4-4---4-4-4-4-|-5-5-5-5---5-5-5-5---4-4-4---4-4-4-4-------------------|
D|-3-3-3-3---3-3-3-3---3-3-3---3-3-3-3-|-3-3-3-3---3-3-3-3---3-3-3---3-3-3-3-----3-------4-----|
A|-------------------------------------|-------------------------------------------3-2-----3-2-|
E|-------------------------------------|-------------------------------------0/1-------2-------|
End Figure 1

E|-------------------------------------------|-------------------------------------------|
B|-------------------------------------------|-------------------------------------------|
G|-------------------------------------------|-------------------------------------------|
D|---------------------6~-----4~-------------|---------------------6~-----4~-------------|
A|-----------------------------------6-7-6-4-|-----------------------------------6-7-6-4-|
E|-4-0-2-5--5-4~---4-4----4-4----4-4---------|-4-0-2-5--5-4~---4-4----4-4----4-4---------|
              p.m. ^ ^    ^ ^    ^ ^                      p.m. ^ ^    ^ ^    ^ ^ 

E|-------------------------------------------|-------------------------------------------------------|
B|-------------------------------------------|-------------------------------------------------------|
G|-------------------------------------------|-----------------------------------1-2-1---------------|
D|---------------------4~-----2~-----1-2-1---|---------------------4~-----2~-----------4-1-2-1---6-6-|
A|-----------------------------------------4-|-------------------------------------------------2/4-4-|
E|-2-0-4-5--4-2~---2-2----2-2----2-2---------|-2-0-4-5--4-2~---2-2----2-2----2-2---------------------|
              p.m. ^ ^    ^ ^    ^ ^                      p.m. ^ ^    ^ ^    ^ ^

  Repeat once
E||---------------------|---------------|-------------------|----------------||----------------------------|
B||---------------------|---------------|-------------------|----------------||-7-6-4--7-6-4--9-7-6--9-7-6-|
G||o--8~--8-7~--5~--5h7-|-8~--10-7~--8~-|-5~--5-4~--2~--2h4-|-5~--7-4~--5~--o||-4-4-4--4-4-4--6-6-6--6-6-6-|
D||o--6---6-6---6---6---|-6---6--6---6--|-3---3-3---3---3---|-3---3-3---3---o||----------------------------|
A||---------------------|---------------|-------------------|----------------||----------------------------|
E||---------------------|---------------|-------------------|----------------||----------------------------|
   play hammer-ons the second time through only

E|-------------------------------------------|-------------------------------------------|
B|-------------------------------------------|-------------------------------------------|
G|-------------------------------------------|-------------------------------------------|
D|---------------------6~-----4~-------------|---------------------6~-----4~-------------|
A|-----------------------------------6-7-6-4-|-----------------------------------6-7-6-4-|
E|-4-0-2-5--5-4~---4-4----4-4----4-4---------|-4-0-2-5--5-4~---4-4----4-4----4-4---------|
              p.m. ^ ^    ^ ^    ^ ^                      p.m. ^ ^    ^ ^    ^ ^ 

E|-------------------------------------------|---------------------------------------------------|
B|-------------------------------------------|---------------------------------------------------|
G|-------------------------------------------|-----------------------------------1-2-1-----------|
D|---------------------4~-----2~-----1-2-1---|---------------------4~-----2~-----------4-1-2-1---|
A|-----------------------------------------4-|-------------------------------------------------2-|
E|-2-0-4-5--4-2~---2-2----2-2----2-2---------|-2-0-4-5--4-2~---2-2----2-2----2-2-----------------|
              p.m. ^ ^    ^ ^    ^ ^                      p.m. ^ ^    ^ ^    ^ ^

E|---------------------|---------------5--------4-------2------|
B|---------------------|-------------5---5----4---4---2---2----|
G|-6-------4-----------|-6--6--6----------------------------4--|
D|-6---7---6-----------|-6--6--6---7-------6--------4-------4--|
A|-4---7---7---------6-|-4--4--4---7-------6--------4-------2~-|
E|-----5---4---2-4-5---|-----------5-------4--------2----------|
                       p.m. ^
                                                                                    natural harmonics
E|------------------------------|-----------------3~------------------|------|-----------------|
B|---0~----0~----0~------0~-----|---0~----0~----3----3----------8---7-|------|-----------------|
G|-2-----4-----2-----3-3----3---|-2-----4-----5--------5--7-----7---7-|------|-----<5>-<5>-<5>-|
D|-2-----4-----2-----4--------4-|-2-----4-----5-----------7-----------|-2----|-2---------------|
A|-0-----2-----0-----4----------|-0-----2-----3-----------5~--5---5---|-2----|-2---------------|
E|-------------------2----------|-------------------------------------|-0~---|-0~--------------|

E|---------------------------------|---------------------------------|
B|---------------------------------|---------------------------------|
G|---------------------------------|---------------------------------|
D|---------------------------------|---------------------------------|
A|----5-7---5-7---5-7~--5-7--------|----5-7---5-7---5-7~--5-7--------|
E|-0------0-----0-----------0-3-5~-|-0------0-----0-----------0-5-3~-|
     p.m. ^     ^           ^          p.m. ^     ^           ^

										natural harmonics
E|----------------------------------------|------------------------------------------------|
B|----------------------------------------|------------------------------------<5>-<5>-<5>-|
G|----------------------------------------|------------------------------------<5>-<5>-<5>-|
D|----------------------------------------|------------------------------------<5>-<5>-<5>-|
A|----5-7---5-7---5-7~--5-7-----------5-7-|----5-7---5-7---5-7~--5-7-----------------------|
E|-0------0-----0-----------0-5-5-6-7-----|-0------0-----0-----------0-3-4-5-0-------------|
     p.m. ^     ^           ^ ^ ^ ^ ^ ^ ^     p.m. ^     ^           ^

  Repeat 3 times                            Repeat once
E||-----------------------------------||----------------------------------||
B||-----------------------------------||--8-------------------------------||
G||o---------------------------------o||o-7------------------------------o||
D||o---------------------------------o||o-6------------------------------o||
A||-----5-7---5-7---5-7~--5-7---------||--7--5-7---5-7---5-7~--5-7--------||
E||--0------0-----0-----------0-3-5~--||---------0-----0-----------0-3-5~-||
       p.m. ^     ^           ^             p.m. ^     ^           ^ 

E|---------------------------------|----------------------------------|
B|-8-------------------------------|-8--------------------------------|
G|-7-------------------------------|-7--------------------------------|
D|-6--4-5---4-5---4-5---4-5--------|-6--4-5---4-5---4-5---4-5---------|
A|-7--5-7---5-7---5-7~--5-7---5-7--|-7--5-7---5-7---5-7~--5-7---------|
E|--------0-----0-----------0-3-5~-|--------0-----0-----------0-3-4-5-|
     p.m. ^     ^           ^          p.m. ^     ^           ^

E|-------------------|------------------|----------------|------------------|
B|-------------------|------------------|----------------|------------------|
G|-------------------|------------------|----------------|------------------|
D|--------------2----|------------------|-----------2----|-------2----------|
A|-4~---------2---4~-|---------------4~-|---------2---4~-|---------4-2---4~-|
E|----0-2-3-4--------|-0-2-3-4-3-2-0----|-0-2-3-4--------|-0-2-3-------4----|
                          p.m. ^ ^

E|-------------------|------------------|----------------|-----------------|
B|-------------------|------------------|----------------|-----------------|
G|-------------------|------------------|----------------|-----------------|
D|--------------2----|------------------|-----------2----|---------4~-2----|
A|-4~---------2---4~-|---------------4~-|---------2---4~-|-------------4-2-|
E|----0-2-3-4--------|-0-2-3-4-3-2-0----|-0-2-3-4--------|-0-2-3-4---------|
                          p.m. ^ ^                        p.m. ^ ^

E|-----------------------------|-------------------------------|-----------------------------|
B|-----------------------------|-------------------------------|-----------------------------|
G|-----------------------------|-------------------------------|-----------------------------|
D|---4-6---4h6-----------------|---4-6---4h6-------------------|---4-6---4h6-----------------|
A|------------------4-6-4~-----|------------------4-6-4~-------|------------------4-6-4~-----|
E|-4-----4-----4-7~--------7-2-|-4-----4-----4-7~--------7-2-3-|-4-----4-----4-7~--------7-2-|

E|-------------------------------|-------------|-------------------------------------|
B|-------------------------------|-------------|------2------------------------------|
G|-------------------------------|-6-----------|----2---2--7----7----6--6-6----------|
D|---4-6---4h6-------------------|-6---7---6---|-4---------7--7---7--7--7-7----------|
A|------------------4-6------2-3-|-4~--7---7---|-4---------5~--------4--4-4--2-4-5---|
E|-4-----4-----4-7~-----2~-4-----|-----5~--4~--|-2~--------------------------------4-|
                                                                   p.m. ^

E|------2-------------------------------------|------------------------------|
B|----2---2-----------------------------------|---0~----0~----0~------0~-----|
G|-----------7----7----6----6----4----4----1--|-2-----4-----2-----3-3----3---|
D|-4---------7--7---7--6--6---6--4--4---4--2--|-2-----4-----2-----4--------4-|
A|-4---------5~--------4~--------2~--------2--|-0-----2-----0-----4----------|
E|-2~--------------------------------------0~-|-------------------2----------|

E|-----------------3~----------------|-----------------------------|
B|---0~----0~----3----3--------8---7-|---0~----0~----0~-----0~-----|
G|-2-----4-----5--------5-7----7---7-|-2-----4-----2----3-3----3---|
D|-2-----4-----5----------7----------|-2-----4-----2----4--------4-|
A|-0-----2-----3----------5~-5---5---|-0-----2-----0----4----------|
E|-----------------------------------|------------------2----------|

E|-----------------3~---------------5~--------|-3----|
B|---0~----0~----3----3-----------5----5------|-3----|
G|-2-----4-----5--------5-5---5-7--------7----|-0----|
D|-2-----4-----5----------5---5-7-------------|-0----|
A|-0-----2-----3----------3~--3-5----------4--|-x----|
E|-----------------------------------------2~-|-3~---|

Legend:

5h7  = hammer-on
p.m. = palm mute
<5>  = natural harmonic

Questions?  Comments?  Email me at zetho@hotmail.com