Menu:

 

Search:

 

dream theater - spacedye vest:

 



Title: Space Dye Vest
Artist: 
Album: Awake
Author: Kevin Moore


Track 1: Nylon Stringed Guitar

E|---------------------------|-----------------------|-----------------|-----------------5---------|
B|-----5-----------6-----5---|-5-----5---6---5-------|-8-----6---6-----|-6---8---6-------------8---|
G|-7-------7-----------------|-------------------7---|-----------------|-------------7-------------|
D|-------------7-------------|-----------------------|-----------------|---------------------------|
A|---------------------------|-----------------------|-----------------|---------------------------|
D|---------------------------|-----------------------|-----------------|---------------------------|


E|-----------5-----------|-6-----5---5-----|-5---6---5-------8-----6---|-6-----6---5-------5---|
B|-8-----8-------8---5---|-----------------|-------------6-------------|---------------8-------|
G|-----------------------|-----------------|---------------------------|-----------------------|
D|-----------------------|-----------------|---------------------------|-----------------------|
A|-----------------------|-----------------|---------------------------|-----------------------|
D|-----------------------|-----------------|---------------------------|-----------------------|


E|-6-----5---5-----|-5---------------5---------|-----------------------|---------------------|
B|-----------------|-----8---6---8---------8---|-8-----6---5-------5---|-6-----5-------------|
G|-----------------|---------------------------|---------------7-------|-----------7---------|
D|-----------------|---------------------------|-----------------------|-----------------7---|
A|-----------------|---------------------------|-----------------------|---------------------|
D|-----------------|---------------------------|-----------------------|---------------------|


E|---------------------------|-----------------------|-----------------|-----------------5---------|
B|-----5-----------6-----5---|-5-----5---6---5-------|-8-----6---6-----|-6---8---6-------------8---|
G|-7-------7-----------------|-------------------7---|-----------------|-------------7-------------|
D|-------------7-------------|-----------------------|-----------------|---------------------------|
A|---------------------------|-----------------------|-----------------|---------------------------|
D|---------------------------|-----------------------|-----------------|---------------------------|


E|-----------5-----------|-6-----5---5-----|-5---6---5-------8-----6---|-6-----6---5-------5---|
B|-8-----8-------8---5---|-----------------|-------------6-------------|---------------8-------|
G|-----------------------|-----------------|---------------------------|-----------------------|
D|-----------------------|-----------------|---------------------------|-----------------------|
A|-----------------------|-----------------|---------------------------|-----------------------|
D|-----------------------|-----------------|---------------------------|-----------------------|


E|-6-----5---5-----|-5---------------5---------|-----------------------|---------------------|
B|-----------------|-----8---6---8---------8---|-8-----6---5-------5---|-6-----5---3---------|
G|-----------------|---------------------------|---------------7-------|-----------2---------|
D|-----------------|---------------------------|-----------------------|----------------3----|
A|-----------------|---------------------------|-----------------------|---------------------|
D|-----------------|---------------------------|-----------------------|-----------0---------|


E|---------------------|---------------------|---------------------|---------------------------|
B|-3---------3---------|-3---------3---------|-3---------1---------|-1-------------------------|
G|-2---------3---------|-3---------0---------|-0-------------------|-----------------------0---|
D|------3---------3----|------3---------2----|------2----3---------|-2-----------------0-------|
A|---------------------|---------------------|----------------5----|------3--------0-----------|
D|-----------0---------|-----------0---------|-----------0---------|-----------0---------------|


E|---------------------------------|---------------------------------|---------------------------------|
B|---------------------------------|---------------------------------|---------------------------------|
G|-------------------------2-------|-0---------------------------0---|-------------------------0-------|
D|-----3-------2-------------------|---------3-------2-------0-------|-----3-------2-------0-----------|
A|-0-------0-----------0-------0---|-----0-------0-------1-----------|-1-------1-------1-----------1---|
D|-----------------0---------------|---------------------------------|---------------------------------|


E|---------------------------------|---------------------------------|---------------------------------|
B|---------------------------------|---------------------------------|---------------------------------|
G|-----------------------------0---|-------------------------2-------|-0---------------------------0---|
D|-3-------2---------------0-------|-----3-------2-------------------|---------3-------2-------0-------|
A|-----1-------1-------0-----------|-0-------0-----------0-------0---|-----0-------0-------1-----------|
D|-----------------0---------------|-----------------0---------------|---------------------------------|


E|---------------------------------|---------------------------------|---------------------------------|
B|---------------------------------|---------------------------------|---------------------------------|
G|-------------------------0-------|-----------------------------0---|-------------------------2-------|
D|-----3-------2-------0-----------|-3-------2---------------0-------|-----3-------2-------------------|
A|-1-------1-------1-----------1---|-----1-------1-------0-----------|-0-------0-----------0-------0---|
D|---------------------------------|-----------------0---------------|-----------------0---------------|


E|---------------------------------|---------------------------------|---------------------------------|
B|---------------------------------|---------------------------------|---------------------------------|
G|-0---------------------------0---|-------------------------0-------|-----------------------------0---|
D|---------3-------2-------0-------|-----3-------2-------0-----------|-3-------2---------------0-------|
A|-----0-------0-------1-----------|-1-------1-------1-----------1---|-----1-------1-------0-----------|
D|---------------------------------|---------------------------------|-----------------0---------------|


E|---------------------------------|---------------------------------|---------------------------------|
B|---------------------------------|---------------------------------|---------------------------------|
G|-------------------------2-------|-0---------------------------0---|-------------------------0-------|
D|-----3-------2-------------------|---------3-------2-------0-------|-----3-------2-------0-----------|
A|-0-------0-----------0-------0---|-----0-------0-------1-----------|-1-------1-------1-----------1---|
D|-----------------0---------------|---------------------------------|---------------------------------|


E|---------------------------------|---------------------------------|---------------------------------|
B|---------------------------------|---------------------------------|---------------------------------|
G|-----------------------------0---|-------------------------2-------|-0---------------------------0---|
D|-3-------2---------------0-------|-----3-------2-------------------|---------3-------2-------0-------|
A|-----1-------1-------0-----------|-0-------0-----------0-------0---|-----0-------0-------1-----------|
D|-----------------0---------------|-----------------0---------------|---------------------------------|


E|---------------------------------|---------------------------------|---------------------------------|
B|---------------------------------|---------------------------------|---------------------------------|
G|-------------------------0-------|-----------------------------0---|-------------------------2-------|
D|-----3-------2-------0-----------|-3-------2---------------0-------|-----3-------2-------------------|
A|-1-------1-------1-----------1---|-----1-------1-------0-----------|-0-------0-----------0-------0---|
D|---------------------------------|-----------------0---------------|-----------------0---------------|


E|---------------------------------|---------------------------------|---------------------------|
B|---------------------------------|---------------------------------|-----------------3---------|
G|-0---------------------------0---|-------------------------0-------|-----------------2---------|
D|---------3-------2-------0-------|-----3-------2-------0-----------|-3-------2------------3----|
A|-----0-------0-------1-----------|-1-------1-------1-----------1---|-----1-------1-------------|
D|---------------------------------|---------------------------------|-----------------0---------|


E|---------------------|---------------------|---------------------|---------------------|
B|-3---------3---------|-3---------3---------|-3---------1---------|-1---------3---------|
G|-2---------2---------|-2---------0---------|-0---------0---------|-0---------2---------|
D|------3---------3----|------3---------2----|------2---------2----|------2---------3----|
A|---------------------|-----------3---------|-----------3---------|---------------------|
D|-----------0---------|---------------------|---------------------|-----------0---------|


E|---------------------|---------------------|---------------------|---------------------|
B|-3---------3---------|-3---------3---------|-3---------1---------|-1---------3---------|
G|-2---------2---------|-2---------0---------|-0---------0---------|-0---------3---------|
D|------3---------3----|------3---------2----|------2---------2----|------2---------3----|
A|---------------------|-----------3---------|-----------3---------|-----------1---------|
D|-----------0---------|---------------------|---------------------|---------------------|


E|---------------------|---------------------|---------------------|---------------------|
B|-3---------3---------|-3---------3---------|-3---------1---------|-1---------3---------|
G|-3---------3---------|-3---------0---------|-0---------0---------|-0---------3---------|
D|------3---------3----|------3---------2----|------2---------2----|------2---------3----|
A|-----------1---------|-----------3---------|-----------3---------|-----------1---------|
D|---------------------|---------------------|---------------------|---------------------|


E|---------------------|---------------------|---------------------|---------------------------|
B|-3---------3---------|-3---------3---------|-3---------3---------|-1-------------------------|
G|-3---------3---------|-3---------3---------|-3---------0---------|-0---------------------0---|
D|------3---------3----|------3---------3----|------3---------2----|------2------------0-------|
A|-----------1---------|---------------------|---------------------|---------------0-----------|
D|---------------------|-----------5---------|-----------3---------|-2---------0---------------|


E|---------------------------------|---------------------------------|---------------------------------|
B|---------------------------------|---------------------------------|---------------------------------|
G|-------------------------2-------|-0---------------------------0---|-------------------------0-------|
D|-----3-------2-------------------|---------3-------2-------0-------|-----3-------2-------0-----------|
A|-0-------0-----------0-------0---|-----0-------0-------1-----------|-1-------1-------1-----------1---|
D|-----------------0---------------|---------------------------------|---------------------------------|


E|---------------------------------|---------------------------------|---------------------------------|
B|---------------------------------|---------------------------------|---------------------------------|
G|-----------------------------0---|-------------------------2-------|-0---------------------------0---|
D|-3-------2---------------0-------|-----3-------2-------------------|---------3-------2-------0-------|
A|-----1-------1-------0-----------|-0-------0-----------0-------0---|-----0-------0-------1-----------|
D|-----------------0---------------|-----------------0---------------|---------------------------------|


E|---------------------------------|---------------------------------|---------------------------------|
B|---------------------------------|---------------------------------|---------------------------------|
G|-------------------------0-------|-----------------------------0---|-------------------------2-------|
D|-----3-------2-------0-----------|-3-------2---------------0-------|-----3-------2-------------------|
A|-1-------1-------1-----------1---|-----1-------1-------0-----------|-0-------0-----------0-------0---|
D|---------------------------------|-----------------0---------------|-----------------0---------------|


E|---------------------------------|---------------------------------|---------------------------------|
B|---------------------------------|---------------------------------|---------------------------------|
G|-0---------------------------0---|-------------------------0-------|-----------------------------0---|
D|---------3-------2-------0-------|-----3-------2-------0-----------|-3-------2---------------0-------|
A|-----0-------0-------1-----------|-1-------1-------1-----------1---|-----1-------1-------0-----------|
D|---------------------------------|---------------------------------|-----------------0---------------|


E|---------------------------------|---------------------------------|---------------------------------|
B|---------------------------------|---------------------------------|---------------------------------|
G|-------------------------2-------|-0---------------------------0---|-------------------------0-------|
D|-----3-------2-------------------|---------3-------2-------0-------|-----3-------2-------0-----------|
A|-0-------0-----------0-------0---|-----0-------0-------1-----------|-1-------1-------1-----------1---|
D|-----------------0---------------|---------------------------------|---------------------------------|


E|---------------------------|---------------------|---------------------|---------------------|
B|-----------------3---------|-3---------3---------|-3---------3---------|-3---------1---------|
G|-----------------2---------|-2---------2---------|-2---------0---------|-0---------0---------|
D|-3-------2------------3----|------3---------3----|------3---------2----|------2---------2----|
A|-----1-------1-------------|---------------------|-----------3---------|-----------3---------|
D|-----------------0---------|-----------0---------|---------------------|---------------------|


E|---------------------|---------------------|---------------------|---------------------|
B|-1---------3---------|-3---------3---------|-3---------3---------|-3---------1---------|
G|-0---------2---------|-2---------2---------|-2---------0---------|-0---------0---------|
D|------2---------3----|------3---------3----|------3---------2----|------2---------2----|
A|---------------------|---------------------|-----------3---------|-----------3---------|
D|-----------0---------|-----------0---------|---------------------|---------------------|


E|---------------------|---------------------|---------------------|---------------------|
B|-1---------3---------|-3---------3---------|-3---------3---------|-3---------1---------|
G|-0---------3---------|-3---------3---------|-3---------0---------|-0---------0---------|
D|------2---------3----|------3---------3----|------3---------2----|------2---------2----|
A|-----------1---------|-----------1---------|-----------3---------|-----------3---------|
D|---------------------|---------------------|---------------------|---------------------|


E|---------------------|---------------------|---------------------|---------------------|
B|-1---------3---------|-3---------3---------|-3---------3---------|-3---------3---------|
G|-0---------3---------|-3---------3---------|-3---------3---------|-3---------0---------|
D|------2---------3----|------3---------3----|------3---------3----|------3---------2----|
A|-----------1---------|-----------1---------|---------------------|---------------------|
D|---------------------|---------------------|-----------5---------|-----------3---------|


E|-----------5----3---5---|-5-----5-----5---|-3---1---0-------1---3---0---1---|-1---3---3----3---------|
B|-1----------------------|-----------------|-------------3-------------------|--------------------1---|
G|-0----------------------|-----------------|---------------------------------|------------------------|
D|------2-----------------|-----------------|-----------------2---------------|--------------2---------|
A|-----------0------------|-------0---------|-----------------3---------------|--------------3---------|
D|-2---------0------------|-------0---------|---------------------------------|------------------------|


E|-----0---1---3---3---5---3---5---|-5-----5-----5---|-3---1---0-------1---3---0---1---|
B|-3-------------------------------|-----------------|-------------3-------------------|
G|---------------------------------|-----------------|---------------------------------|
D|---------------------------------|-----------------|-----------------2---------------|
A|-----------------0---------------|-------0---------|-----------------3---------------|
D|-----------------0---------------|-------0---------|---------------------------------|


E|-0-------------------|-----0---1---3---3---5---3---5---|-5-----5-----5---|-3---1---0-------0---1-----------|
B|------1----1-----1---|-3-------------------------------|-----------------|-------------3-----------1---3---|
G|---------------------|---------------------------------|-----------------|---------------------------------|
D|-----------2---------|---------------------------------|-----------------|-----------------2---------------|
A|-----------3---------|-----------------1---------------|-------1---------|-----------------3---------------|
D|---------------------|---------------------------------|-----------------|---------------------------------|


E|-0-----0---------|---------0---1---3---5---3---5---|-5-----5-----5---|-3---1---0-------3---5---0---1---|
B|-------------0---|-1---3---------------------------|-----------------|-------------3-------------------|
G|-----------------|---------------------------------|-----------------|---------------------------------|
D|-------2---------|---------------------------------|-----------------|-----------------2---------------|
A|-------3---------|-----------------1---------------|-------1---------|-----------------3---------------|
D|-----------------|---------------------------------|-----------------|---------------------------------|


E|-0-----0---1---0-------|-----------------3---1---0---1---|-1---------3---1---0---|
B|-------------------3---|-------------3---3-----------3---|-3-----3---------------|
G|-----------------------|-0-------2-------2-----------2---|-2-----2---------------|
D|-----------------------|-----------------0-----------0---|-0-----0---------------|
A|-----------------------|---------------------------------|-----------------------|
D|-------5---------------|-5---3---------------------------|-----------------------|


E|-3---1---0----0-----------3---|-3---1---0--------3---1---0---|-3---1---0----3---1---0---1---|
B|--------------3-------3---3---|-3------------3---------------|--------------3-----------3---|
G|--------------3---3-------3---|-3------------3---------------|--------------2-----------2---|
D|--------------0-----------0---|-0------------0---------------|--------------0-----------0---|
A|------------------------------|------------------------------|------------------------------|
D|------------------------------|------------------------------|------------------------------|


E|-1---------3---1---0---|-3---1---0----0-----------3---|-3---1---0--------3---1---0---|
B|-3-----3---------------|--------------3-------3---3---|-3------------3---------------|
G|-2-----2---------------|--------------3---3-------3---|-3------------3---------------|
D|-0-----0---------------|--------------0-----------0---|-0------------0---------------|
A|-----------------------|------------------------------|------------------------------|
D|-----------------------|------------------------------|------------------------------|


E|-3---1---0----3---1---0---1---|-1---------3---1---0---|-3---1---0----0-----------3---|
B|--------------3-----------3---|-3-----3---------------|--------------3-------3---3---|
G|--------------2-----------2---|-2-----2---------------|--------------3---3-------3---|
D|--------------0-----------0---|-0-----0---------------|--------------0-----------0---|
A|------------------------------|-----------------------|------------------------------|
D|------------------------------|-----------------------|------------------------------|


E|-3---1---0--------3---1---0---|-3---1---0----3---1---0---1---|-1---------3---1---0---|
B|-3------------3---------------|--------------3-----------3---|-3-----3---------------|
G|-3------------3---------------|--------------2-----------2---|-2-----2---------------|
D|-0------------0---------------|--------------0-----------0---|-0-----0---------------|
A|------------------------------|------------------------------|-----------------------|
D|------------------------------|------------------------------|-----------------------|


E|-3---1---0----0-----------3---|-3---1---0--------3---1---0---|-3---1---0----3---1---0---1---|
B|--------------3-------3---3---|-3------------3---------------|--------------3-----------3---|
G|--------------3---3-------3---|-3------------3---------------|--------------2-----------2---|
D|--------------0-----------0---|-0------------0---------------|--------------0-----------0---|
A|------------------------------|------------------------------|------------------------------|
D|------------------------------|------------------------------|------------------------------|


E|-1---------3---1---0---|-3---1---0----0-----------3---|-3---1---0--------3---1---0---|
B|-3-----3---------------|--------------3-------3---3---|-3------------3---------------|
G|-2-----2---------------|--------------3---3-------3---|-3------------3---------------|
D|-0-----0---------------|--------------0-----------0---|-0------------0---------------|
A|-----------------------|------------------------------|------------------------------|
D|-----------------------|------------------------------|------------------------------|


E|-3---1---0----3---1---0---1---|-1---------3---1---0---|-3---1---0----0-----------3---|
B|--------------3-----------3---|-3-----3---------------|--------------3-------3---3---|
G|--------------2-----------2---|-2-----2---------------|--------------3---3-------3---|
D|--------------0-----------0---|-0-----0---------------|--------------0-----------0---|
A|------------------------------|-----------------------|------------------------------|
D|------------------------------|-----------------------|------------------------------|


E|-3---1---0--------3---1---0---|-3---1---0----1----1---1---|-----5---5---5---5---3---3---3---|
B|-3------------3---------------|--------------3----3---3---|-----3---3---3---3---3---3---3---|
G|-3------------3---------------|--------------2----2---2---|-----2---2---2---2---2---2---2---|
D|-0------------0---------------|--------------0----0---0---|-----0---0---0---0---0---0---0---|
A|------------------------------|---------------------------|---------------------------------|
D|------------------------------|---------------------------|---------------------------------|


E|-3---1---1---0---0-------0---0---|-0---1---1---3---3----3---1---|-1---0---0----1----1---1---|
B|-3---3---3---3---3---3---3---3---|-3---3---3---3---3----3---3---|-3---3---3----3----3---3---|
G|-2---2---2---3---3---3---3---3---|-3---3---3---3---3----3---3---|-3---3---3----2----2---2---|
D|-0---0---0---0---0-------0---0---|-0---0---0---0---0----0---0---|-0---0---0----0----0---0---|
A|---------------------------------|------------------------------|---------------------------|
D|---------------------------------|------------------------------|---------------------------|


E|-----5---5---5---5---3---3---3---|-3---1---1---0---0-------0---0---|-0---1---1---3---3----3---1---|
B|-----3---3---3---3---3---3---3---|-3---3---3---3---3---3---3---3---|-3---3---3---3---3----3---3---|
G|-----2---2---2---2---2---2---2---|-2---2---2---3---3---3---3---3---|-3---3---3---3---3----3---3---|
D|-----0---0---0---0---0---0---0---|-0---0---0---0---0-------0---0---|-0---0---0---0---0----0---0---|
A|---------------------------------|---------------------------------|------------------------------|
D|---------------------------------|---------------------------------|------------------------------|


E|-1---0---0----1----1---1---|-----5---5---5---5---3---3---3---|-3---1---1---0---0-------0---0---|
B|-3---3---3----3----3---3---|-----3---3---3---3---3---3---3---|-3---3---3---3---3---3---3---3---|
G|-3---3---3----2----2---2---|-----2---2---2---2---2---2---2---|-2---2---2---3---3---3---3---3---|
D|-0---0---0----0----0---0---|-----0---0---0---0---0---0---0---|-0---0---0---0---0-------0---0---|
A|---------------------------|---------------------------------|---------------------------------|
D|---------------------------|---------------------------------|---------------------------------|


E|-0---1---1---3---3----3---1---|-1---0---0----1----1---1---|-----5---5---5---5---3---3---3---|
B|-3---3---3---3---3----3---3---|-3---3---3----3----3---3---|-----3---3---3---3---3---3---3---|
G|-3---3---3---3---3----3---3---|-3---3---3----2----2---2---|-----2---2---2---2---2---2---2---|
D|-0---0---0---0---0----0---0---|-0---0---0----0----0---0---|-----0---0---0---0---0---0---0---|
A|------------------------------|---------------------------|---------------------------------|
D|------------------------------|---------------------------|---------------------------------|


E|-3---1---1---0---0-------0---0---|-0---1---1---3---3----3---1---|-1---0---0----1----1---1---|
B|-3---3---3---3---3---3---3---3---|-3---3---3---3---3----3---3---|-3---3---3----3----3---3---|
G|-2---2---2---3---3---3---3---3---|-3---3---3---3---3----3---3---|-3---3---3----2----2---2---|
D|-0---0---0---0---0-------0---0---|-0---0---0---0---0----0---0---|-0---0---0----0----0---0---|
A|---------------------------------|------------------------------|---------------------------|
D|---------------------------------|------------------------------|---------------------------|


E|-----5---5---5---5---3---3---3---|-3---1---1---0---0-------0---0---|-0---1---1---3---3----3---1---|
B|-----3---3---3---3---3---3---3---|-3---3---3---3---3---3---3---3---|-3---3---3---3---3----3---3---|
G|-----2---2---2---2---2---2---2---|-2---2---2---3---3---3---3---3---|-3---3---3---3---3----3---3---|
D|-----0---0---0---0---0---0---0---|-0---0---0---0---0-------0---0---|-0---0---0---0---0----0---0---|
A|---------------------------------|---------------------------------|------------------------------|
D|---------------------------------|---------------------------------|------------------------------|


E|-1---0---0----1----1---1---|-----5---5---5---5---3---3---3---|-3---1---1---0---0-------0---0---|
B|-3---3---3----3----3---3---|-----3---3---3---3---3---3---3---|-3---3---3---3---3---3---3---3---|
G|-3---3---3----2----2---2---|-----2---2---2---2---2---2---2---|-2---2---2---3---3---3---3---3---|
D|-0---0---0----0----0---0---|-----0---0---0---0---0---0---0---|-0---0---0---0---0-------0---0---|
A|---------------------------|---------------------------------|---------------------------------|
D|---------------------------|---------------------------------|---------------------------------|


E|-0---1---1---3---3----3---1---|-1---0---0----1----1---1---|-----1---1---1---1---1---1---1---|
B|-3---3---3---3---3----3---3---|-3---3---3----3----3---3---|-----3---3---3---3---3---3---3---|
G|-3---3---3---3---3----3---3---|-3---3---3----3----3---3---|-----3---3---3---3---3---3---3---|
D|-0---0---0---0---0----0---0---|-0---0---0----0----0---0---|-----0---0---0---0---0---0---0---|
A|------------------------------|---------------------------|---------------------------------|
D|------------------------------|---------------------------|---------------------------------|


E|-1---1---1---1---0----0---0---|-----0---0---0---0---0---0---0---|-0---0---0---0---1----1---1---|
B|-3---3---3---3---1----1---1---|-----1---1---1---1---1---1---1---|-1---1---1---1---3----3---3---|
G|-3---3---3---3---0----0---0---|-----0---0---0---0---0---0---0---|-0---0---0---0---3----3---3---|
D|-0---0---0---0---2----2---2---|-----2---2---2---2---2---2---2---|-2---2---2---2---0----0---0---|
A|------------------------------|---------------------------------|------------------------------|
D|------------------------------|---------------------------------|------------------------------|


E|-----1---1---1---1---1---1---1---|-1---1---1---1---0----0---0---|-----0---0---0---0---0---0---0---|
B|-----3---3---3---3---3---3---3---|-3---3---3---3---1----1---1---|-----1---1---1---1---1---1---1---|
G|-----3---3---3---3---3---3---3---|-3---3---3---3---0----0---0---|-----0---0---0---0---0---0---0---|
D|-----0---0---0---0---0---0---0---|-0---0---0---0---2----2---2---|-----2---2---2---2---2---2---2---|
A|---------------------------------|------------------------------|---------------------------------|
D|---------------------------------|------------------------------|---------------------------------|


E|-0---0---0---0---1---3---5---1---|-1---1---1---3---3---0-------0---|-----1----0---0-----|
B|-1---1---1---1---3---5---6---3---|-3---3---3---3---3---3-------1---|-----3----0---0-----|
G|-0---0---0---0-------------------|-----2---2---3---3---2-------0---|-----2----2---2-----|
D|-2---2---2---2-------------------|-----------------------------3---|-----3--------------|
A|---------------------------------|---------------------------------|----------0---0-----|
D|-----------------0---------------|-----------------0-------2-------|--------------------|


E|-----------------------|-----------------|---------------------------|-----------------------|
B|-----------5-----------|-6-----5---5-----|-5---6---5-------8-----6---|-6-----6---8---6-------|
G|-------7-------7-------|-----------------|-------------7-------------|-------------------7---|
D|-------------------7---|-----------------|---------------------------|-----------------------|
A|-----------------------|-----------------|---------------------------|-----------------------|
D|-----------------------|-----------------|---------------------------|-----------------------|


E|-5---------------|-----5-----------6-----5---|-5-----5---6---5-------|-8-----6---6-----|
B|-------8---8-----|-8-------8---5-------------|-------------------6---|-----------------|
G|-----------------|---------------------------|-----------------------|-----------------|
D|-----------------|---------------------------|-----------------------|-----------------|
A|-----------------|---------------------------|-----------------------|-----------------|
D|-----------------|---------------------------|-----------------------|-----------------|


E|-6---5-------5---6-----5---|-5-----5---3-------3---|-5-----3---3-----|-1---0-------0---1-----0---|
B|---------8-----------------|---------------6-------|-----------------|---------3-----------------|
G|---------------------------|-----------------------|-----------------|---------------------------|
D|---------------------------|-----------------------|-----------------|---------------------------|
A|---------------------------|-----------------------|-----------------|---------------------------|
D|---------------------------|-----------------------|-----------------|---------------------------|


E|-1-----1-----|
B|-3-----3-----|
G|-2-----2-----|
D|-0-----0-----|
A|-0-----0-----|
D|-0-----0-----|





Track 2: Distorted Electric

E|--------|--------|--------|--------|--------|--------|--------|--------|--------|
B|--------|--------|--------|--------|--------|--------|--------|--------|--------|
G|--------|--------|--------|--------|--------|--------|--------|--------|--------|
D|--------|--------|--------|--------|--------|--------|--------|--------|--------|
A|--------|--------|--------|--------|--------|--------|--------|--------|--------|
D|--------|--------|--------|--------|--------|--------|--------|--------|--------|


E|--------|--------|--------|--------|--------|--------|--------|--------|--------|
B|--------|--------|--------|--------|--------|--------|--------|--------|--------|
G|--------|--------|--------|--------|--------|--------|--------|--------|--------|
D|--------|--------|--------|--------|--------|--------|--------|--------|--------|
A|--------|--------|--------|--------|--------|--------|--------|--------|--------|
D|--------|--------|--------|--------|--------|--------|--------|--------|--------|


E|--------|--------|--------|--------|--------|--------|--------|--------|--------|
B|--------|--------|--------|--------|--------|--------|--------|--------|--------|
G|--------|--------|--------|--------|--------|--------|--------|--------|--------|
D|--------|--------|--------|--------|--------|--------|--------|--------|--------|
A|--------|--------|--------|--------|--------|--------|--------|--------|--------|
D|--------|--------|--------|--------|--------|--------|--------|--------|--------|


E|--------|--------|--------|--------|--------|--------|--------|--------|--------|
B|--------|--------|--------|--------|--------|--------|--------|--------|--------|
G|--------|--------|--------|--------|--------|--------|--------|--------|--------|
D|--------|--------|--------|--------|--------|--------|--------|--------|--------|
A|--------|--------|--------|--------|--------|--------|--------|--------|--------|
D|--------|--------|--------|--------|--------|--------|--------|--------|--------|


E|--------|--------|--------|--------|--------|--------|--------|--------|--------|
B|--------|--------|--------|--------|--------|--------|--------|--------|--------|
G|--------|--------|--------|--------|--------|--------|--------|--------|--------|
D|--------|--------|--------|--------|--------|--------|--------|--------|--------|
A|--------|--------|--------|--------|--------|--------|--------|--------|--------|
D|--------|--------|--------|--------|--------|--------|--------|--------|--------|


E|--------|--------|--------|--------|--------|--------|--------|--------|--------|
B|--------|--------|--------|--------|--------|--------|--------|--------|--------|
G|--------|--------|--------|--------|--------|--------|--------|--------|--------|
D|--------|--------|--------|--------|--------|--------|--------|--------|--------|
A|--------|--------|--------|--------|--------|--------|--------|--------|--------|
D|--------|--------|--------|--------|--------|--------|--------|--------|--------|


E|--------|--------|--------|--------|--------|--------|--------|--------|--------|
B|--------|--------|--------|--------|--------|--------|--------|--------|--------|
G|--------|--------|--------|--------|--------|--------|--------|--------|--------|
D|--------|--------|--------|--------|--------|--------|--------|--------|--------|
A|--------|--------|--------|--------|--------|--------|--------|--------|--------|
D|--------|--------|--------|--------|--------|--------|--------|--------|--------|


E|--------|--------|--------|--------|-------------|-------------|-------------|-------------|
B|--------|--------|--------|--------|-------------|-------------|-------------|-------------|
G|--------|--------|--------|--------|-------------|-------------|-------------|-------------|
D|--------|--------|--------|--------|-------0-----|-------0-----|-------3-----|-------3-----|
A|--------|--------|--------|--------|-------0-----|-------0-----|-------1-----|-------1-----|
D|--------|--------|--------|--------|-------0-----|-------0-----|-------3-----|-------3-----|


E|-------------|-------------|-------------|-------------|-------------|-------------|
B|-------------|-------------|-------------|-------------|-------------|-------------|
G|-------------|-------------|-------------|-------------|-------------|-------------|
D|-------0-----|-------0-----|-------3-----|-------3-----|-------0-----|-------0-----|
A|-------0-----|-------0-----|-------1-----|-------1-----|-------0-----|-------0-----|
D|-------0-----|-------0-----|-------3-----|-------3-----|-------0-----|-------0-----|


E|-------------|-------------|-------------|-------------|-------------|-------------|
B|-------------|-------------|-------------|-------------|-------------|-------------|
G|-------------|-------------|-------------|-------------|-------------|-------------|
D|-------3-----|-------3-----|-------0-----|-------0-----|-------3-----|-------3-----|
A|-------1-----|-------1-----|-------0-----|-------0-----|-------1-----|-------1-----|
D|-------3-----|-------3-----|-------0-----|-------0-----|-------3-----|-------3-----|


E|--------|--------|--------|--------|--------|--------|--------|--------|--------|
B|--------|--------|--------|--------|--------|--------|--------|--------|--------|
G|--------|--------|--------|--------|--------|--------|--------|--------|--------|
D|--------|--------|--------|--------|--------|--------|--------|--------|--------|
A|--------|--------|--------|--------|--------|--------|--------|--------|--------|
D|--------|--------|--------|--------|--------|--------|--------|--------|--------|


E|--------|--------|--------|--------|--------|--------|--------|--------|--------|
B|--------|--------|--------|--------|--------|--------|--------|--------|--------|
G|--------|--------|--------|--------|--------|--------|--------|--------|--------|
D|--------|--------|--------|--------|--------|--------|--------|--------|--------|
A|--------|--------|--------|--------|--------|--------|--------|--------|--------|
D|--------|--------|--------|--------|--------|--------|--------|--------|--------|


E|--------|--------|--------|--------|--------|--------|--------|--------|--------|
B|--------|--------|--------|--------|--------|--------|--------|--------|--------|
G|--------|--------|--------|--------|--------|--------|--------|--------|--------|
D|--------|--------|--------|--------|--------|--------|--------|--------|--------|
A|--------|--------|--------|--------|--------|--------|--------|--------|--------|
D|--------|--------|--------|--------|--------|--------|--------|--------|--------|


E|--------|--------|--------|--------|--------|-------------|-------------|-------------|
B|--------|--------|--------|--------|--------|-------------|-------------|-------------|
G|--------|--------|--------|--------|--------|-------------|-------------|-------------|
D|--------|--------|--------|--------|--------|-------0-----|-------0-----|-------8-----|
A|--------|--------|--------|--------|--------|-------0-----|-------0-----|-------8-----|
D|--------|--------|--------|--------|--------|-------0-----|-------0-----|-------8-----|


E|-------------|-------------|-------------|-------------|-------------|-------------|
B|-------------|-------------|-------------|-------------|-------------|-------------|
G|-------------|-------------|-------------|-------------|-------------|-------------|
D|-------8-----|-------0-----|-------0-----|-------8-----|-------5-----|-------0-----|
A|-------8-----|-------0-----|-------0-----|-------8-----|-------5-----|-------0-----|
D|-------8-----|-------0-----|-------0-----|-------8-----|-------5-----|-------0-----|


E|-------------|-------------|-------------|-------------|-------------|-------------|
B|-------------|-------------|-------------|-------------|-------------|-------------|
G|-------------|-------------|-------------|-------------|-------------|-------------|
D|-------0-----|-------8-----|-------8-----|-------0-----|-------0-----|-------8-----|
A|-------0-----|-------8-----|-------8-----|-------0-----|-------0-----|-------8-----|
D|-------0-----|-------8-----|-------8-----|-------0-----|-------0-----|-------8-----|


E|-------------|-----------------|---------------------------|---------------------|
B|-------------|-----------------|---------------------------|---------------------|
G|-------------|-------7-----12--|-----10---9---9---9---14---|-12---10---9-----12--|
D|-------5-----|-----------------|---------------------------|---------------------|
A|-------5-----|-------5-----10--|-----8----7---7---7---12---|-10---8----7-----10--|
D|-------5-----|-----------------|---------------------------|---------------------|


E|---------------------------|---------------------|---------------------------|---------------------|
B|---------------------------|---------------------|---------------------------|---------------------|
G|-----10---9---9---9---12---|-10---9----7-----12--|-----10---9---9---9---14---|-12---10---9-----12--|
D|---------------------------|---------------------|---------------------------|---------------------|
A|-----8----7---7---7---10---|-8----7----5-----10--|-----8----7---7---7---12---|-10---8----7-----10--|
D|---------------------------|---------------------|---------------------------|---------------------|


E|---------------------------|---------------------------|---------------------------------|
B|---------------------------|---------------------------|---------------------------------|
G|-----10---9---9---9---12---|-10---9----7---7---7---7---|-7---7---7---7---7---7---7---7---|
D|---------------------------|-----------0---0---0---0---|-0---0---0---0---0---0---0---0---|
A|-----8----7---7---7---10---|-8----7--------------------|---------------------------------|
D|---------------------------|---------------------------|---------------------------------|


E|---------------------------------|---------------------------------|-----------------------------------|
B|---------------------------------|---------------------------------|-----------------------------------|
G|-7---7---7---7---7---7---7---7---|-7---7---7---7---7---7---7---7---|-12--12--12--5--5--7---7---7---7---|
D|-0---0---0---0---8---8---8---8---|-8---8---8---8---8---8---8---8---|-12--12--12--5--5--0---0---0---0---|
A|---------------------------------|---------------------------------|-----------------------------------|
D|---------------------------------|---------------------------------|-----------------------------------|


E|---------------------------------|---------------------------------|---------------------------------|
B|---------------------------------|---------------------------------|---------------------------------|
G|-7---7---7---7---7---7---7---7---|-7---7---7---7---7---7---7---7---|-7---7---7---7---7---7---7---7---|
D|-0---0---0---0---0---0---0---0---|-0---0---0---0---8---8---8---8---|-8---8---8---8---8---8---8---8---|
A|---------------------------------|---------------------------------|---------------------------------|
D|---------------------------------|---------------------------------|---------------------------------|


E|-----------------------------------|---------------------------------|---------------------------------|
B|-----------------------------------|---------------------------------|---------------------------------|
G|-12--12--12--5--5--7---7---7---7---|-7---7---7---7---7---7---7---7---|-7---7---7---7---7---7---7---7---|
D|-12--12--12--5--5--0---0---0---0---|-0---0---0---0---0---0---0---0---|-0---0---0---0---8---8---8---8---|
A|-----------------------------------|---------------------------------|---------------------------------|
D|-----------------------------------|---------------------------------|---------------------------------|


E|---------------------------------|-----------------------------------|---------------------------------|
B|---------------------------------|-----------------------------------|---------------------------------|
G|-7---7---7---7---7---7---7---7---|-12--12--12--5--5--7---7---7---7---|-7---7---7---7---7---7---7---7---|
D|-8---8---8---8---8---8---8---8---|-12--12--12--5--5--0---0---0---0---|-0---0---0---0---0---0---0---0---|
A|---------------------------------|-----------------------------------|---------------------------------|
D|---------------------------------|-----------------------------------|---------------------------------|


E|---------------------------------|---------------------------------|-----------------------------------|
B|---------------------------------|---------------------------------|-----------------------------------|
G|-7---7---7---7---7---7---7---7---|-7---7---7---7---7---7---7---7---|-12--12--12--5--5--7---7---7---7---|
D|-0---0---0---0---8---8---8---8---|-8---8---8---8---8---8---8---8---|-12--12--12--5--5--0---0---0---0---|
A|---------------------------------|---------------------------------|-----------------------------------|
D|---------------------------------|---------------------------------|-----------------------------------|


E|---------------------------------|---------------------------------|---------------------------------|
B|---------------------------------|---------------------------------|---------------------------------|
G|-7---7---7---7---7---7---7---7---|-7---7---7---7---7---7---7---7---|-7---7---7---7---7---7---7---7---|
D|-0---0---0---0---0---0---0---0---|-0---0---0---0---8---8---8---8---|-8---8---8---8---8---8---8---8---|
A|---------------------------------|---------------------------------|---------------------------------|
D|---------------------------------|---------------------------------|---------------------------------|


E|-----------------------------------|---------------------------------|---------------------------------|
B|-----------------------------------|---------------------------------|---------------------------------|
G|-12--12--12--5--5--7---7---7---7---|-7---7---7---7---7---7---7---7---|-7---7---7---7---7---7---7---7---|
D|-12--12--12--5--5--0---0---0---0---|-0---0---0---0---0---0---0---0---|-0---0---0---0---8---8---8---8---|
A|-----------------------------------|---------------------------------|---------------------------------|
D|-----------------------------------|---------------------------------|---------------------------------|


E|---------------------------------|-----------------------------------|---------------------------------|
B|---------------------------------|-----------------------------------|---------------------------------|
G|-7---7---7---7---7---7---7---7---|-12--12--12--5--5--7---7---7---7---|-7---7---7---7---7---7---7---7---|
D|-8---8---8---8---8---8---8---8---|-12--12--12--5--5--8---8---8---8---|-8---8---8---8---8---8---8---8---|
A|---------------------------------|-----------------------------------|---------------------------------|
D|---------------------------------|-----------------------------------|---------------------------------|


E|---------------------------------|---------------------------------|---------------------------------|
B|---------------------------------|---------------------------------|---------------------------------|
G|-7---7---7---7---9---9---9---9---|-9---9---9---9---9---9---9---9---|-9---9---9---9---7---7---7---7---|
D|-8---8---8---8---10--10--10--10--|-10--10--10--10--10--10--10--10--|-10--10--10--10--8---8---8---8---|
A|---------------------------------|---------------------------------|---------------------------------|
D|---------------------------------|---------------------------------|---------------------------------|


E|---------------------------------|---------------------------------|---------------------------------|
B|---------------------------------|---------------------------------|---------------------------------|
G|-7---7---7---7---7---7---7---7---|-7---7---7---7---9---9---9---9---|-9---9---9---9---9---9---9---9---|
D|-8---8---8---8---8---8---8---8---|-8---8---8---8---10--10--10--10--|-10--10--10--10--10--10--10--10--|
A|---------------------------------|---------------------------------|---------------------------------|
D|---------------------------------|---------------------------------|---------------------------------|


E|---------------------------|------------------------------|--------------------|
B|---------------------------|------------------------------|--------------------|
G|-9---9---9---9-------------|------------------------------|--------------------|
D|-10--10--10--10------------|----------------------7---7---|-----8----7---7-----|
A|-----------------0-----5---|-----7---8---5---5----5---7---|-----8----7---7-----|
D|-----------------0-----5---|-----7---8---5---5----0---0---|-----0----7---7-----|


E|--------|--------|--------|--------|--------|--------|--------|--------|--------|
B|--------|--------|--------|--------|--------|--------|--------|--------|--------|
G|--------|--------|--------|--------|--------|--------|--------|--------|--------|
D|--------|--------|--------|--------|--------|--------|--------|--------|--------|
A|--------|--------|--------|--------|--------|--------|--------|--------|--------|
D|--------|--------|--------|--------|--------|--------|--------|--------|--------|


E|--------|--------|--------|--------|
B|--------|--------|--------|--------|
G|--------|--------|--------|--------|
D|--------|--------|--------|--------|
A|--------|--------|--------|--------|
D|--------|--------|--------|--------|





Track 3: Harmony Acoustic

E|--------|--------|--------|--------|--------|--------|--------|--------|--------|
B|--------|--------|--------|--------|--------|--------|--------|--------|--------|
G|--------|--------|--------|--------|--------|--------|--------|--------|--------|
D|--------|--------|--------|--------|--------|--------|--------|--------|--------|
A|--------|--------|--------|--------|--------|--------|--------|--------|--------|
D|--------|--------|--------|--------|--------|--------|--------|--------|--------|


E|--------|--------|--------|--------|--------|--------|--------|--------|--------|
B|--------|--------|--------|--------|--------|--------|--------|--------|--------|
G|--------|--------|--------|--------|--------|--------|--------|--------|--------|
D|--------|--------|--------|--------|--------|--------|--------|--------|--------|
A|--------|--------|--------|--------|--------|--------|--------|--------|--------|
D|--------|--------|--------|--------|--------|--------|--------|--------|--------|


E|--------|--------|--------|--------|--------|--------|--------|--------|--------|
B|--------|--------|--------|--------|--------|--------|--------|--------|--------|
G|--------|--------|--------|--------|--------|--------|--------|--------|--------|
D|--------|--------|--------|--------|--------|--------|--------|--------|--------|
A|--------|--------|--------|--------|--------|--------|--------|--------|--------|
D|--------|--------|--------|--------|--------|--------|--------|--------|--------|


E|--------|--------|--------|--------|--------|--------|--------|--------|--------|
B|--------|--------|--------|--------|--------|--------|--------|--------|--------|
G|--------|--------|--------|--------|--------|--------|--------|--------|--------|
D|--------|--------|--------|--------|--------|--------|--------|--------|--------|
A|--------|--------|--------|--------|--------|--------|--------|--------|--------|
D|--------|--------|--------|--------|--------|--------|--------|--------|--------|


E|--------|--------|--------|--------|--------|--------|--------|--------|--------|
B|--------|--------|--------|--------|--------|--------|--------|--------|--------|
G|--------|--------|--------|--------|--------|--------|--------|--------|--------|
D|--------|--------|--------|--------|--------|--------|--------|--------|--------|
A|--------|--------|--------|--------|--------|--------|--------|--------|--------|
D|--------|--------|--------|--------|--------|--------|--------|--------|--------|


E|--------|--------|--------|--------|--------|--------|--------|--------|--------|
B|--------|--------|--------|--------|--------|--------|--------|--------|--------|
G|--------|--------|--------|--------|--------|--------|--------|--------|--------|
D|--------|--------|--------|--------|--------|--------|--------|--------|--------|
A|--------|--------|--------|--------|--------|--------|--------|--------|--------|
D|--------|--------|--------|--------|--------|--------|--------|--------|--------|


E|--------|--------|--------|--------|--------|--------|--------|--------|--------|
B|--------|--------|--------|--------|--------|--------|--------|--------|--------|
G|--------|--------|--------|--------|--------|--------|--------|--------|--------|
D|--------|--------|--------|--------|--------|--------|--------|--------|--------|
A|--------|--------|--------|--------|--------|--------|--------|--------|--------|
D|--------|--------|--------|--------|--------|--------|--------|--------|--------|


E|--------|--------|--------|--------|--------|--------|--------|--------|--------|
B|--------|--------|--------|--------|--------|--------|--------|--------|--------|
G|--------|--------|--------|--------|--------|--------|--------|--------|--------|
D|--------|--------|--------|--------|--------|--------|--------|--------|--------|
A|--------|--------|--------|--------|--------|--------|--------|--------|--------|
D|--------|--------|--------|--------|--------|--------|--------|--------|--------|


E|--------|--------|--------|--------|--------|--------|--------|--------|--------|
B|--------|--------|--------|--------|--------|--------|--------|--------|--------|
G|--------|--------|--------|--------|--------|--------|--------|--------|--------|
D|--------|--------|--------|--------|--------|--------|--------|--------|--------|
A|--------|--------|--------|--------|--------|--------|--------|--------|--------|
D|--------|--------|--------|--------|--------|--------|--------|--------|--------|


E|--------|--------|--------|--------|--------|--------|--------|--------|--------|
B|--------|--------|--------|--------|--------|--------|--------|--------|--------|
G|--------|--------|--------|--------|--------|--------|--------|--------|--------|
D|--------|--------|--------|--------|--------|--------|--------|--------|--------|
A|--------|--------|--------|--------|--------|--------|--------|--------|--------|
D|--------|--------|--------|--------|--------|--------|--------|--------|--------|


E|--------|--------|--------|--------|--------|--------|--------|--------|--------|
B|--------|--------|--------|--------|--------|--------|--------|--------|--------|
G|--------|--------|--------|--------|--------|--------|--------|--------|--------|
D|--------|--------|--------|--------|--------|--------|--------|--------|--------|
A|--------|--------|--------|--------|--------|--------|--------|--------|--------|
D|--------|--------|--------|--------|--------|--------|--------|--------|--------|


E|--------|--------|--------|--------|--------|--------|--------|--------|-----------------------|
B|--------|--------|--------|--------|--------|--------|--------|--------|-------5---6---5---6---|
G|--------|--------|--------|--------|--------|--------|--------|--------|-----------------------|
D|--------|--------|--------|--------|--------|--------|--------|--------|-----------------------|
A|--------|--------|--------|--------|--------|--------|--------|--------|-------5---------------|
D|--------|--------|--------|--------|--------|--------|--------|--------|-----------------------|


E|-------------8---|-6---5-----------3---5---0---1---|-3-----3---------|---------------------------------|
B|-6-----6---------|---------8---6-------------------|-----------------|---------1---3---5---6---5---6---|
G|-----------------|---------------------------------|-------------0---|-2---4---------------------------|
D|-----------------|---------------------------------|-----------------|---------------------------------|
A|-------5---------|---------------------------------|-----------------|-----------------5---------------|
D|-----------------|---------------------------------|-----------------|---------------------------------|


E|-----------------|-------------|-------------|--------|--------|--------|--------|
B|-6-----6---------|-------------|-------------|--------|--------|--------|--------|
G|-----------------|-------------|-------------|--------|--------|--------|--------|
D|-----------------|-------------|-------------|--------|--------|--------|--------|
A|-------5---------|-------------|-------------|--------|--------|--------|--------|
D|-----------------|-------------|-------------|--------|--------|--------|--------|


E|--------|--------|--------|--------|--------|--------|--------|--------|--------|
B|--------|--------|--------|--------|--------|--------|--------|--------|--------|
G|--------|--------|--------|--------|--------|--------|--------|--------|--------|
D|--------|--------|--------|--------|--------|--------|--------|--------|--------|
A|--------|--------|--------|--------|--------|--------|--------|--------|--------|
D|--------|--------|--------|--------|--------|--------|--------|--------|--------|


E|--------|--------|--------|--------|--------|--------|--------|--------|--------|
B|--------|--------|--------|--------|--------|--------|--------|--------|--------|
G|--------|--------|--------|--------|--------|--------|--------|--------|--------|
D|--------|--------|--------|--------|--------|--------|--------|--------|--------|
A|--------|--------|--------|--------|--------|--------|--------|--------|--------|
D|--------|--------|--------|--------|--------|--------|--------|--------|--------|


E|--------|--------|--------|--------|--------|--------|--------|--------|--------|
B|--------|--------|--------|--------|--------|--------|--------|--------|--------|
G|--------|--------|--------|--------|--------|--------|--------|--------|--------|
D|--------|--------|--------|--------|--------|--------|--------|--------|--------|
A|--------|--------|--------|--------|--------|--------|--------|--------|--------|
D|--------|--------|--------|--------|--------|--------|--------|--------|--------|


E|--------|--------|--------|--------|--------|--------|--------|--------|--------|
B|--------|--------|--------|--------|--------|--------|--------|--------|--------|
G|--------|--------|--------|--------|--------|--------|--------|--------|--------|
D|--------|--------|--------|--------|--------|--------|--------|--------|--------|
A|--------|--------|--------|--------|--------|--------|--------|--------|--------|
D|--------|--------|--------|--------|--------|--------|--------|--------|--------|


E|--------|--------|--------|--------|--------|--------|--------|--------|--------|
B|--------|--------|--------|--------|--------|--------|--------|--------|--------|
G|--------|--------|--------|--------|--------|--------|--------|--------|--------|
D|--------|--------|--------|--------|--------|--------|--------|--------|--------|
A|--------|--------|--------|--------|--------|--------|--------|--------|--------|
D|--------|--------|--------|--------|--------|--------|--------|--------|--------|


E|--------|--------|--------|--------|--------|--------|--------|--------|--------|
B|--------|--------|--------|--------|--------|--------|--------|--------|--------|
G|--------|--------|--------|--------|--------|--------|--------|--------|--------|
D|--------|--------|--------|--------|--------|--------|--------|--------|--------|
A|--------|--------|--------|--------|--------|--------|--------|--------|--------|
D|--------|--------|--------|--------|--------|--------|--------|--------|--------|


E|--------|--------|--------|--------|--------|--------|--------|--------|--------|
B|--------|--------|--------|--------|--------|--------|--------|--------|--------|
G|--------|--------|--------|--------|--------|--------|--------|--------|--------|
D|--------|--------|--------|--------|--------|--------|--------|--------|--------|
A|--------|--------|--------|--------|--------|--------|--------|--------|--------|
D|--------|--------|--------|--------|--------|--------|--------|--------|--------|


E|--------|--------|--------|--------|--------|
B|--------|--------|--------|--------|--------|
G|--------|--------|--------|--------|--------|
D|--------|--------|--------|--------|--------|
A|--------|--------|--------|--------|--------|
D|--------|--------|--------|--------|--------|





Track 4: Untitled

E|--------|--------|--------|--------|--------|--------|--------|--------|--------|
B|--------|--------|--------|--------|--------|--------|--------|--------|--------|
G|--------|--------|--------|--------|--------|--------|--------|--------|--------|
D|--------|--------|--------|--------|--------|--------|--------|--------|--------|
A|--------|--------|--------|--------|--------|--------|--------|--------|--------|
E|--------|--------|--------|--------|--------|--------|--------|--------|--------|


E|--------|--------|--------|--------|--------|--------|--------|--------|--------|
B|--------|--------|--------|--------|--------|--------|--------|--------|--------|
G|--------|--------|--------|--------|--------|--------|--------|--------|--------|
D|--------|--------|--------|--------|--------|--------|--------|--------|--------|
A|--------|--------|--------|--------|--------|--------|--------|--------|--------|
E|--------|--------|--------|--------|--------|--------|--------|--------|--------|


E|--------|--------|--------|--------|--------|--------|--------|--------|--------|
B|--------|--------|--------|--------|--------|--------|--------|--------|--------|
G|--------|--------|--------|--------|--------|--------|--------|--------|--------|
D|--------|--------|--------|--------|--------|--------|--------|--------|--------|
A|--------|--------|--------|--------|--------|--------|--------|--------|--------|
E|--------|--------|--------|--------|--------|--------|--------|--------|--------|


E|--------|--------|--------|--------|--------|--------|--------|--------|--------|
B|--------|--------|--------|--------|--------|--------|--------|--------|--------|
G|--------|--------|--------|--------|--------|--------|--------|--------|--------|
D|--------|--------|--------|--------|--------|--------|--------|--------|--------|
A|--------|--------|--------|--------|--------|--------|--------|--------|--------|
E|--------|--------|--------|--------|--------|--------|--------|--------|--------|


E|--------|--------|--------|--------|--------|--------|--------|--------|--------|
B|--------|--------|--------|--------|--------|--------|--------|--------|--------|
G|--------|--------|--------|--------|--------|--------|--------|--------|--------|
D|--------|--------|--------|--------|--------|--------|--------|--------|--------|
A|--------|--------|--------|--------|--------|--------|--------|--------|--------|
E|--------|--------|--------|--------|--------|--------|--------|--------|--------|


E|--------|--------|--------|--------|--------|--------|--------|--------|--------|
B|--------|--------|--------|--------|--------|--------|--------|--------|--------|
G|--------|--------|--------|--------|--------|--------|--------|--------|--------|
D|--------|--------|--------|--------|--------|--------|--------|--------|--------|
A|--------|--------|--------|--------|--------|--------|--------|--------|--------|
E|--------|--------|--------|--------|--------|--------|--------|--------|--------|


E|--------|--------|--------|--------|--------|--------|--------|--------|--------|
B|--------|--------|--------|--------|--------|--------|--------|--------|--------|
G|--------|--------|--------|--------|--------|--------|--------|--------|--------|
D|--------|--------|--------|--------|--------|--------|--------|--------|--------|
A|--------|--------|--------|--------|--------|--------|--------|--------|--------|
E|--------|--------|--------|--------|--------|--------|--------|--------|--------|


E|--------|--------|--------|--------|--------|--------|--------|--------|--------|
B|--------|--------|--------|--------|--------|--------|--------|--------|--------|
G|--------|--------|--------|--------|--------|--------|--------|--------|--------|
D|--------|--------|--------|--------|--------|--------|--------|--------|--------|
A|--------|--------|--------|--------|--------|--------|--------|--------|--------|
E|--------|--------|--------|--------|--------|--------|--------|--------|--------|


E|--------|--------|--------|--------|--------|--------|--------|--------|--------|
B|--------|--------|--------|--------|--------|--------|--------|--------|--------|
G|--------|--------|--------|--------|--------|--------|--------|--------|--------|
D|--------|--------|--------|--------|--------|--------|--------|--------|--------|
A|--------|--------|--------|--------|--------|--------|--------|--------|--------|
E|--------|--------|--------|--------|--------|--------|--------|--------|--------|


E|--------|--------|--------|--------|--------|--------|--------|--------|--------|
B|--------|--------|--------|--------|--------|--------|--------|--------|--------|
G|--------|--------|--------|--------|--------|--------|--------|--------|--------|
D|--------|--------|--------|--------|--------|--------|--------|--------|--------|
A|--------|--------|--------|--------|--------|--------|--------|--------|--------|
E|--------|--------|--------|--------|--------|--------|--------|--------|--------|


E|--------|--------|--------|--------|--------|--------|--------|--------|--------|
B|--------|--------|--------|--------|--------|--------|--------|--------|--------|
G|--------|--------|--------|--------|--------|--------|--------|--------|--------|
D|--------|--------|--------|--------|--------|--------|--------|--------|--------|
A|--------|--------|--------|--------|--------|--------|--------|--------|--------|
E|--------|--------|--------|--------|--------|--------|--------|--------|--------|


E|--------|--------|--------|--------|--------|--------|--------|--------|--------|
B|--------|--------|--------|--------|--------|--------|--------|--------|--------|
G|--------|--------|--------|--------|--------|--------|--------|--------|--------|
D|--------|--------|--------|--------|--------|--------|--------|--------|--------|
A|--------|--------|--------|--------|--------|--------|--------|--------|--------|
E|--------|--------|--------|--------|--------|--------|--------|--------|--------|


E|--------|--------|--------|--------|--------|--------|--------|--------|--------|
B|--------|--------|--------|--------|--------|--------|--------|--------|--------|
G|--------|--------|--------|--------|--------|--------|--------|--------|--------|
D|--------|--------|--------|--------|--------|--------|--------|--------|--------|
A|--------|--------|--------|--------|--------|--------|--------|--------|--------|
E|--------|--------|--------|--------|--------|--------|--------|--------|--------|


E|--------|--------|--------|--------|--------|--------|--------|--------|--------|
B|--------|--------|--------|--------|--------|--------|--------|--------|--------|
G|--------|--------|--------|--------|--------|--------|--------|--------|--------|
D|--------|--------|--------|--------|--------|--------|--------|--------|--------|
A|--------|--------|--------|--------|--------|--------|--------|--------|--------|
E|--------|--------|--------|--------|--------|--------|--------|--------|--------|


E|--------|--------|--------|--------|--------|--------|--------|--------|--------|
B|--------|--------|--------|--------|--------|--------|--------|--------|--------|
G|--------|--------|--------|--------|--------|--------|--------|--------|--------|
D|--------|--------|--------|--------|--------|--------|--------|--------|--------|
A|--------|--------|--------|--------|--------|--------|--------|--------|--------|
E|--------|--------|--------|--------|--------|--------|--------|--------|--------|


E|--------|--------|--------|--------|--------|--------|--------|--------|--------|
B|--------|--------|--------|--------|--------|--------|--------|--------|--------|
G|--------|--------|--------|--------|--------|--------|--------|--------|--------|
D|--------|--------|--------|--------|--------|--------|--------|--------|--------|
A|--------|--------|--------|--------|--------|--------|--------|--------|--------|
E|--------|--------|--------|--------|--------|--------|--------|--------|--------|


E|--------|--------|--------|--------|--------|--------|--------|--------|--------|
B|--------|--------|--------|--------|--------|--------|--------|--------|--------|
G|--------|--------|--------|--------|--------|--------|--------|--------|--------|
D|--------|--------|--------|--------|--------|--------|--------|--------|--------|
A|--------|--------|--------|--------|--------|--------|--------|--------|--------|
E|--------|--------|--------|--------|--------|--------|--------|--------|--------|


E|--------|--------|-------5----3---5---|-5-----5-----5---|-3---1---0-------1---3---0---1---|
B|--------|--------|--------------------|-----------------|-------------3-------------------|
G|--------|--------|--------------------|-----------------|---------------------------------|
D|--------|--------|--------------------|-----------------|---------------------------------|
A|--------|--------|--------------------|-----------------|---------------------------------|
E|--------|--------|--------------------|-----------------|---------------------------------|


E|-3-----3---------|-----0---1---3---3---5---3---5---|-5-----5-----5---|-3---1---0-------1---3---0---1---|
B|-------------1---|-3-------------------------------|-----------------|-------------3-------------------|
G|-----------------|---------------------------------|-----------------|---------------------------------|
D|-----------------|---------------------------------|-----------------|---------------------------------|
A|-----------------|---------------------------------|-----------------|---------------------------------|
E|-----------------|---------------------------------|-----------------|---------------------------------|


E|-0-----0---------|-----0---1---3---3---5---3---5---|-5-----5-----8---|-6---5---------------5-----------|
B|-------------1---|-3-------------------------------|-----------------|---------8---6---8-------5---6---|
G|-----------------|---------------------------------|-----------------|---------------------------------|
D|-----------------|---------------------------------|-----------------|---------------------------------|
A|-----------------|---------------------------------|-----------------|---------------------------------|
E|-----------------|---------------------------------|-----------------|---------------------------------|


E|-----------------|-----------------3---5---3---5---|-5-----5-----8---|-6---5---------------5-----------|
B|-8-----8---------|-----5---6---8-------------------|-----------------|---------8---6---8-------5---6---|
G|-------------5---|-7-------------------------------|-----------------|---------------------------------|
D|-----------------|---------------------------------|-----------------|---------------------------------|
A|-----------------|---------------------------------|-----------------|---------------------------------|
E|-----------------|---------------------------------|-----------------|---------------------------------|


E|--------------------|-----------------|--------|--------|--------|--------|--------|
B|-5------------------|-----------------|--------|--------|--------|--------|--------|
G|------7---5---------|-----------------|--------|--------|--------|--------|--------|
D|--------------8-----|-5----8----------|--------|--------|--------|--------|--------|
A|--------------------|-----------------|--------|--------|--------|--------|--------|
E|--------------------|-----------------|--------|--------|--------|--------|--------|


E|--------|--------|--------|--------|--------|--------|--------|--------|--------|
B|--------|--------|--------|--------|--------|--------|--------|--------|--------|
G|--------|--------|--------|--------|--------|--------|--------|--------|--------|
D|--------|--------|--------|--------|--------|--------|--------|--------|--------|
A|--------|--------|--------|--------|--------|--------|--------|--------|--------|
E|--------|--------|--------|--------|--------|--------|--------|--------|--------|


E|--------|
B|--------|
G|--------|
D|--------|
A|--------|
E|--------|





Track 5: Untitled

G|--------|--------|--------|--------|--------|--------|--------|--------|--------|
D|--------|--------|--------|--------|--------|--------|--------|--------|--------|
A|--------|--------|--------|--------|--------|--------|--------|--------|--------|
E|--------|--------|--------|--------|--------|--------|--------|--------|--------|


G|--------|--------|--------|--------|--------|--------|--------|--------|--------|
D|--------|--------|--------|--------|--------|--------|--------|--------|--------|
A|--------|--------|--------|--------|--------|--------|--------|--------|--------|
E|--------|--------|--------|--------|--------|--------|--------|--------|--------|


G|--------|--------|--------|--------|--------|--------|--------|--------|--------|
D|--------|--------|--------|--------|--------|--------|--------|--------|--------|
A|--------|--------|--------|--------|--------|--------|--------|--------|--------|
E|--------|--------|--------|--------|--------|--------|--------|--------|--------|


G|--------|--------|--------|--------|--------|--------|--------|--------|--------|
D|--------|--------|--------|--------|--------|--------|--------|--------|--------|
A|--------|--------|--------|--------|--------|--------|--------|--------|--------|
E|--------|--------|--------|--------|--------|--------|--------|--------|--------|


G|--------|--------|--------|--------|--------|--------|--------|--------|--------|
D|--------|--------|--------|--------|--------|--------|--------|--------|--------|
A|--------|--------|--------|--------|--------|--------|--------|--------|--------|
E|--------|--------|--------|--------|--------|--------|--------|--------|--------|


G|--------|--------|--------|--------|--------|--------|--------|--------|--------|
D|--------|--------|--------|--------|--------|--------|--------|--------|--------|
A|--------|--------|--------|--------|--------|--------|--------|--------|--------|
E|--------|--------|--------|--------|--------|--------|--------|--------|--------|


G|--------|--------|--------|--------|--------|--------|--------|--------|--------|
D|--------|--------|--------|--------|--------|--------|--------|--------|--------|
A|--------|--------|--------|--------|--------|--------|--------|--------|--------|
E|--------|--------|--------|--------|--------|--------|--------|--------|--------|


G|--------|--------|--------|--------|--------|--------|--------|--------|--------|
D|--------|--------|--------|--------|--------|--------|--------|--------|--------|
A|--------|--------|--------|--------|--------|--------|--------|--------|--------|
E|--------|--------|--------|--------|--------|--------|--------|--------|--------|


G|--------|--------|--------|--------|--------|--------|--------|--------|--------|
D|--------|--------|--------|--------|--------|--------|--------|--------|--------|
A|--------|--------|--------|--------|--------|--------|--------|--------|--------|
E|--------|--------|--------|--------|--------|--------|--------|--------|--------|


G|--------|--------|--------|--------|--------|--------|--------|--------|--------|
D|--------|--------|--------|--------|--------|--------|--------|--------|--------|
A|--------|--------|--------|--------|--------|--------|--------|--------|--------|
E|--------|--------|--------|--------|--------|--------|--------|--------|--------|


G|--------|--------|--------|--------|--------|--------|--------|--------|--------|
D|--------|--------|--------|--------|--------|--------|--------|--------|--------|
A|--------|--------|--------|--------|--------|--------|--------|--------|--------|
E|--------|--------|--------|--------|--------|--------|--------|--------|--------|


G|--------|--------|--------|--------|--------|--------|--------|--------|--------|
D|--------|--------|--------|--------|--------|--------|--------|--------|--------|
A|--------|--------|--------|--------|--------|--------|--------|--------|--------|
E|--------|--------|--------|--------|--------|--------|--------|--------|--------|


G|--------|--------|--------|--------|--------|--------|--------|--------|--------|
D|--------|--------|--------|--------|--------|--------|--------|--------|--------|
A|--------|--------|--------|--------|--------|--------|--------|--------|--------|
E|--------|--------|--------|--------|--------|--------|--------|--------|--------|


G|--------|--------|--------|--------|--------|--------|--------|--------|--------|
D|--------|--------|--------|--------|--------|--------|--------|--------|--------|
A|--------|--------|--------|--------|--------|--------|--------|--------|--------|
E|--------|--------|--------|--------|--------|--------|--------|--------|--------|


G|--------|--------|--------|--------|--------|--------|--------|--------|--------|
D|--------|--------|--------|--------|--------|--------|--------|--------|--------|
A|--------|--------|--------|--------|--------|--------|--------|--------|--------|
E|--------|--------|--------|--------|--------|--------|--------|--------|--------|


G|--------|--------|--------|--------|--------|--------|--------|--------|--------|
D|--------|--------|--------|--------|--------|--------|--------|--------|--------|
A|--------|--------|--------|--------|--------|--------|--------|--------|--------|
E|--------|--------|--------|--------|--------|--------|--------|--------|--------|


G|--------|--------|--------|--------|--------|--------|--------|--------|--------|
D|--------|--------|--------|--------|--------|--------|--------|--------|--------|
A|--------|--------|--------|--------|--------|--------|--------|--------|--------|
E|--------|--------|--------|--------|--------|--------|--------|--------|--------|


G|--------|--------|--------|--------|--------|--------|--------|--------|--------|
D|--------|--------|--------|--------|--------|--------|--------|--------|--------|
A|--------|--------|--------|--------|--------|--------|--------|--------|--------|
E|--------|--------|--------|--------|--------|--------|--------|--------|--------|


G|--------|--------|--------|--------|--------|--------|--------|--------|--------|
D|--------|--------|--------|--------|--------|--------|--------|--------|--------|
A|--------|--------|--------|--------|--------|--------|--------|--------|--------|
E|--------|--------|--------|--------|--------|--------|--------|--------|--------|


G|--------|--------|--------|--------|--------|--------|--------|--------|--------|
D|--------|--------|--------|--------|--------|--------|--------|--------|--------|
A|--------|--------|--------|--------|--------|--------|--------|--------|--------|
E|--------|--------|--------|--------|--------|--------|--------|--------|--------|


G|--------|--------|--------|--------|--------|--------|--------|
D|--------|--------|--------|--------|--------|--------|--------|
A|--------|--------|--------|--------|--------|--------|--------|
E|--------|--------|--------|--------|--------|--------|--------|