Menu:

 

Search:

 

dream theater - regression:

 



Title: Regression
Artist: 
Album: Metropolis Part II: Scenes From A Memory
Author: 


Track 1: Clock 1

E|-0-----------|-----------0-----|-----------------|-0-----------|-----------0-----|
B|-------------|-----------------|-----------------|-------------|-----------------|
G|-------------|-----------------|-----------------|-------------|-----------------|
D|-------------|-----------------|-----------------|-------------|-----------------|
A|-------------|-----------------|-----------------|-------------|-----------------|
E|-------------|-----------------|-----------------|-------------|-----------------|


E|-----------------|-0-----------|-----------0-----|-----------------|-0-----------|
B|-----------------|-------------|-----------------|-----------------|-------------|
G|-----------------|-------------|-----------------|-----------------|-------------|
D|-----------------|-------------|-----------------|-----------------|-------------|
A|-----------------|-------------|-----------------|-----------------|-------------|
E|-----------------|-------------|-----------------|-----------------|-------------|


E|-----------0-----|-----------------|-0-----------|-----------0-----|-----------------|
B|-----------------|-----------------|-------------|-----------------|-----------------|
G|-----------------|-----------------|-------------|-----------------|-----------------|
D|-----------------|-----------------|-------------|-----------------|-----------------|
A|-----------------|-----------------|-------------|-----------------|-----------------|
E|-----------------|-----------------|-------------|-----------------|-----------------|


E|-0-----------|-----------0-----|-----------------|-0-----------|-----------0-----|
B|-------------|-----------------|-----------------|-------------|-----------------|
G|-------------|-----------------|-----------------|-------------|-----------------|
D|-------------|-----------------|-----------------|-------------|-----------------|
A|-------------|-----------------|-----------------|-------------|-----------------|
E|-------------|-----------------|-----------------|-------------|-----------------|


E|-----------------|-0-----------|-----------------|--------|--------|--------|--------|
B|-----------------|-------------|-----------------|--------|--------|--------|--------|
G|-----------------|-------------|-----------------|--------|--------|--------|--------|
D|-----------------|-------------|-----------------|--------|--------|--------|--------|
A|-----------------|-------------|-----------------|--------|--------|--------|--------|
E|-----------------|-------------|-----------------|--------|--------|--------|--------|


E|--------|--------|--------|--------|--------|--------|--------|--------|--------|
B|--------|--------|--------|--------|--------|--------|--------|--------|--------|
G|--------|--------|--------|--------|--------|--------|--------|--------|--------|
D|--------|--------|--------|--------|--------|--------|--------|--------|--------|
A|--------|--------|--------|--------|--------|--------|--------|--------|--------|
E|--------|--------|--------|--------|--------|--------|--------|--------|--------|


E|--------|--------|--------|--------|--------|--------|--------|--------|--------|
B|--------|--------|--------|--------|--------|--------|--------|--------|--------|
G|--------|--------|--------|--------|--------|--------|--------|--------|--------|
D|--------|--------|--------|--------|--------|--------|--------|--------|--------|
A|--------|--------|--------|--------|--------|--------|--------|--------|--------|
E|--------|--------|--------|--------|--------|--------|--------|--------|--------|


E|--------|--------|--------|--------|--------|--------|--------|--------|--------|
B|--------|--------|--------|--------|--------|--------|--------|--------|--------|
G|--------|--------|--------|--------|--------|--------|--------|--------|--------|
D|--------|--------|--------|--------|--------|--------|--------|--------|--------|
A|--------|--------|--------|--------|--------|--------|--------|--------|--------|
E|--------|--------|--------|--------|--------|--------|--------|--------|--------|


E|--------|--------|--------|--------|--------|--------|--------|
B|--------|--------|--------|--------|--------|--------|--------|
G|--------|--------|--------|--------|--------|--------|--------|
D|--------|--------|--------|--------|--------|--------|--------|
A|--------|--------|--------|--------|--------|--------|--------|
E|--------|--------|--------|--------|--------|--------|--------|





Track 2: Clock 2

E|------------0----|-------------|------0------|------------0----|-------------|------0------|
B|-----------------|-------------|-------------|-----------------|-------------|-------------|
G|-----------------|-------------|-------------|-----------------|-------------|-------------|
D|-----------------|-------------|-------------|-----------------|-------------|-------------|
A|-----------------|-------------|-------------|-----------------|-------------|-------------|
E|-----------------|-------------|-------------|-----------------|-------------|-------------|


E|------------0----|-------------|------0------|------------0----|-------------|------0------|
B|-----------------|-------------|-------------|-----------------|-------------|-------------|
G|-----------------|-------------|-------------|-----------------|-------------|-------------|
D|-----------------|-------------|-------------|-----------------|-------------|-------------|
A|-----------------|-------------|-------------|-----------------|-------------|-------------|
E|-----------------|-------------|-------------|-----------------|-------------|-------------|


E|------------0----|-------------|------0------|------------0----|-------------|------0------|
B|-----------------|-------------|-------------|-----------------|-------------|-------------|
G|-----------------|-------------|-------------|-----------------|-------------|-------------|
D|-----------------|-------------|-------------|-----------------|-------------|-------------|
A|-----------------|-------------|-------------|-----------------|-------------|-------------|
E|-----------------|-------------|-------------|-----------------|-------------|-------------|


E|------------0----|-------------|------0------|------------0----|-------0-----|-----------------|
B|-----------------|-------------|-------------|-----------------|-------------|-----------------|
G|-----------------|-------------|-------------|-----------------|-------------|-----------------|
D|-----------------|-------------|-------------|-----------------|-------------|-----------------|
A|-----------------|-------------|-------------|-----------------|-------------|-----------------|
E|-----------------|-------------|-------------|-----------------|-------------|-----------------|


E|-0-----------|-----------0-----|-----------------|-0-----------|-----------------|
B|-------------|-----------------|-----------------|-------------|-----------------|
G|-------------|-----------------|-----------------|-------------|-----------------|
D|-------------|-----------------|-----------------|-------------|-----------------|
A|-------------|-----------------|-----------------|-------------|-----------------|
E|-------------|-----------------|-----------------|-------------|-----------------|


E|--------|--------|--------|--------|--------|--------|--------|--------|--------|
B|--------|--------|--------|--------|--------|--------|--------|--------|--------|
G|--------|--------|--------|--------|--------|--------|--------|--------|--------|
D|--------|--------|--------|--------|--------|--------|--------|--------|--------|
A|--------|--------|--------|--------|--------|--------|--------|--------|--------|
E|--------|--------|--------|--------|--------|--------|--------|--------|--------|


E|--------|--------|--------|--------|--------|--------|--------|--------|--------|
B|--------|--------|--------|--------|--------|--------|--------|--------|--------|
G|--------|--------|--------|--------|--------|--------|--------|--------|--------|
D|--------|--------|--------|--------|--------|--------|--------|--------|--------|
A|--------|--------|--------|--------|--------|--------|--------|--------|--------|
E|--------|--------|--------|--------|--------|--------|--------|--------|--------|


E|--------|--------|--------|--------|--------|--------|--------|--------|--------|
B|--------|--------|--------|--------|--------|--------|--------|--------|--------|
G|--------|--------|--------|--------|--------|--------|--------|--------|--------|
D|--------|--------|--------|--------|--------|--------|--------|--------|--------|
A|--------|--------|--------|--------|--------|--------|--------|--------|--------|
E|--------|--------|--------|--------|--------|--------|--------|--------|--------|


E|--------|--------|--------|--------|--------|
B|--------|--------|--------|--------|--------|
G|--------|--------|--------|--------|--------|
D|--------|--------|--------|--------|--------|
A|--------|--------|--------|--------|--------|
E|--------|--------|--------|--------|--------|





Track 3: Acoustic Guitar

E|--------|--------|--------|--------|--------|--------|--------|--------|--------|
B|--------|--------|--------|--------|--------|--------|--------|--------|--------|
G|--------|--------|--------|--------|--------|--------|--------|--------|--------|
D|--------|--------|--------|--------|--------|--------|--------|--------|--------|
A|--------|--------|--------|--------|--------|--------|--------|--------|--------|
E|--------|--------|--------|--------|--------|--------|--------|--------|--------|


E|--------|--------|--------|--------|--------|--------|--------|--------|--------|
B|--------|--------|--------|--------|--------|--------|--------|--------|--------|
G|--------|--------|--------|--------|--------|--------|--------|--------|--------|
D|--------|--------|--------|--------|--------|--------|--------|--------|--------|
A|--------|--------|--------|--------|--------|--------|--------|--------|--------|
E|--------|--------|--------|--------|--------|--------|--------|--------|--------|


E|--------|--------|--------|--------|-------2-----2---|-2----2-----2---2---2---|-2-----2---2---2---2----|
B|--------|--------|--------|--------|-------3-----3---|-3----3-----3---3---3---|-3-----3---3---3---3----|
G|--------|--------|--------|--------|-------4-----4---|-4----4-----4---4---4---|-4-----4---4---4---4----|
D|--------|--------|--------|--------|-------4-----4---|-4----4-----4---4---4---|-4-----4---4---4---4----|
A|--------|--------|--------|--------|-------2-----2---|-2----2-----2---2---2---|-0-----0---0---0---0----|
E|--------|--------|--------|--------|-----------------|------------------------|------------------------|


E|-----2---2---2-------------|------------------------|-0-----0---0---0---0----|-----0---0---0---2-----2---|
B|-----3---3---3---5-----5---|-5----5-----5---5---5---|-3-----3---3---3---2----|-----2---2---2---3-----3---|
G|-----4---4---4---4-----4---|-4----4-----4---4---4---|-0-----0---0---0---0----|-----0---0---0---2-----2---|
D|-----4---4---4---2-----2---|-2----2-----2---2---2---|-2-----2---2---2---2----|-----2---2---2---0-----0---|
A|-----0---0---0---0-----0---|-0----0-----0---0---0---|-0-----0---0---0---0----|-----0---0---0-------------|
E|-----------------4-----4---|-4----4-----4---4---4---|------------------------|---------------------------|


E|-2---2---2-----2---2---2---|------------------------|-----------------3-----3---|
B|-3---3---3-----3---3---3---|-3-----3---3---3---3----|-----3---3---3---3-----3---|
G|-2---2---2-----2---2---2---|-2-----2---2---2---2----|-----2---2---2---0-----0---|
D|-0---0---0-----0---0---0---|-0-----0---0---0---0----|-----0---0---0---0-----0---|
A|---------------------------|-0-----0---0---0---0----|-----0---0---0---0-----0---|
E|---------------------------|-2-----2---2---2---2----|-----2---2---2---3-----3---|


E|-3---3---3-----3---3---3---|-2-----2---2---2---2----|-----2---2---2---2-----2---|
B|-3---3---3-----3---3---3---|-3-----3---3---3---3----|-----3---3---3---3-----3---|
G|-0---0---0-----0---0---0---|-2-----2---2---2---2----|-----2---2---2---4-----4---|
D|-0---0---0-----0---0---0---|-0-----0---0---0---0----|-----0---0---0---4-----4---|
A|-0---0---2-----2---2---2---|-------------------4----|-----4---4---4---2-----2---|
E|-3---3---------------------|------------------------|---------------------------|


E|-2----2-----2---2---2---|-2-----2---2---2---2----|-----2---2---2-------------|------------------------|
B|-3----3-----3---3---3---|-3-----3---3---3---3----|-----3---3---3---5-----5---|-5----5-----5---5---5---|
G|-4----4-----4---4---4---|-4-----4---4---4---4----|-----4---4---4---4-----4---|-4----4-----4---4---4---|
D|-4----4-----4---4---4---|-4-----4---4---4---4----|-----4---4---4---2-----2---|-2----2-----2---2---2---|
A|-2----2-----2---2---2---|-0-----0---0---0---0----|-----0---0---0---0-----0---|-0----0-----0---0---0---|
E|------------------------|------------------------|-----------------4-----4---|-4----4-----4---4---4---|


E|-0-----0---0---0---0----|-----0---0---0---2-----2---|-2---2---2-----2---2---2---|
B|-3-----3---3---3---2----|-----2---2---2---3-----3---|-3---3---3-----3---3---3---|
G|-0-----0---0---0---0----|-----0---0---0---2-----2---|-2---2---2-----2---2---2---|
D|-2-----2---2---2---2----|-----2---2---2---0-----0---|-0---0---0-----0---0---0---|
A|-0-----0---0---0---0----|-----0---0---0-------------|---------------------------|
E|------------------------|---------------------------|---------------------------|


E|------------------------|-----------------3-----3---|-3---3---3-----3---3---3---|
B|-3-----3---3---3---3----|-----3---3---3---3-----3---|-3---3---3-----3---3---3---|
G|-2-----2---2---2---2----|-----2---2---2---0-----0---|-0---0---0-----0---0---0---|
D|-0-----0---0---0---0----|-----0---0---0---0-----0---|-0---0---0-----0---0---0---|
A|-0-----0---0---0---0----|-----0---0---0---0-----0---|-0---0---2-----2---2---2---|
E|-2-----2---2---2---2----|-----2---2---2---3-----3---|-3---3---------------------|


E|-2-----2---2---2---2----|-----2---2---2---2-----2---|-2----2-----2---2---2---|-2-----2---2---2---2----|
B|-3-----3---3---3---3----|-----3---3---3---3-----3---|-3----3-----3---3---3---|-3-----3---3---3---3----|
G|-2-----2---2---2---2----|-----2---2---2---4-----4---|-4----4-----4---4---4---|-4-----4---4---4---4----|
D|-0-----0---0---0---0----|-----0---0---0---4-----4---|-4----4-----4---4---4---|-4-----4---4---4---4----|
A|-------------------4----|-----4---4---4---2-----2---|-2----2-----2---2---2---|-0-----0---0---0---0----|
E|------------------------|---------------------------|------------------------|------------------------|


E|-----2---2---2-------------|------------------------|-0-----0---0---0---0----|-----0---0---0---3-----3---|
B|-----3---3---3---5-----5---|-5----5-----5---5---5---|-3-----3---3---3---2----|-----2---2---2---3-----3---|
G|-----4---4---4---4-----4---|-4----4-----4---4---4---|-0-----0---0---0---0----|-----0---0---0---0-----0---|
D|-----4---4---4---2-----2---|-2----2-----2---2---2---|-2-----2---2---2---2----|-----2---2---2---0-----0---|
A|-----0---0---0---0-----0---|-0----0-----0---0---0---|-0-----0---0---0---0----|-----0---0---0---0-----0---|
E|-----------------4-----4---|-4----4-----4---4---4---|------------------------|-----------------3-----3---|


E|-3----3-----3---3---3---|-0-----0---0---0---0----|------0----2-----|------2------|
B|-3----3-----3---3---3---|-2-----2---2---2---3----|------3----3-----|------3------|
G|-0----0-----0---0---0---|-0-----0---0---0---0----|------0----2-----|------2------|
D|-0----0-----0---0---0---|-2-----2---2---2---2----|------2----0-----|------0------|
A|-0----2-----2---2---2---|-0-----0---0---0---0----|------0----------|-------------|
E|-3----------------------|------------------------|-----------------|-------------|


E|--------|--------|--------|--------|
B|--------|--------|--------|--------|
G|--------|--------|--------|--------|
D|--------|--------|--------|--------|
A|--------|--------|--------|--------|
E|--------|--------|--------|--------|





Track 4: Clock 2

E|--------|--------|--------|--------|--------|--------|--------|--------|--------|
B|--------|--------|--------|--------|--------|--------|--------|--------|--------|
G|--------|--------|--------|--------|--------|--------|--------|--------|--------|
D|--------|--------|--------|--------|--------|--------|--------|--------|--------|
A|--------|--------|--------|--------|--------|--------|--------|--------|--------|
E|--------|--------|--------|--------|--------|--------|--------|--------|--------|


E|--------|--------|--------|--------|--------|--------|--------|--------|--------|
B|--------|--------|--------|--------|--------|--------|--------|--------|--------|
G|--------|--------|--------|--------|--------|--------|--------|--------|--------|
D|--------|--------|--------|--------|--------|--------|--------|--------|--------|
A|--------|--------|--------|--------|--------|--------|--------|--------|--------|
E|--------|--------|--------|--------|--------|--------|--------|--------|--------|


E|--------|--------|--------|--------|-------------|------0------|------------0----|
B|--------|--------|--------|--------|-------------|-------------|-----------------|
G|--------|--------|--------|--------|-------------|-------------|-----------------|
D|--------|--------|--------|--------|-------------|-------------|-----------------|
A|--------|--------|--------|--------|-------------|-------------|-----------------|
E|--------|--------|--------|--------|-------------|-------------|-----------------|


E|-------------|------0------|------------0----|--------|--------|--------|--------|
B|-------------|-------------|-----------------|--------|--------|--------|--------|
G|-------------|-------------|-----------------|--------|--------|--------|--------|
D|-------------|-------------|-----------------|--------|--------|--------|--------|
A|-------------|-------------|-----------------|--------|--------|--------|--------|
E|-------------|-------------|-----------------|--------|--------|--------|--------|


E|--------|--------|--------|--------|--------|--------|--------|--------|--------|
B|--------|--------|--------|--------|--------|--------|--------|--------|--------|
G|--------|--------|--------|--------|--------|--------|--------|--------|--------|
D|--------|--------|--------|--------|--------|--------|--------|--------|--------|
A|--------|--------|--------|--------|--------|--------|--------|--------|--------|
E|--------|--------|--------|--------|--------|--------|--------|--------|--------|


E|--------|--------|--------|--------|--------|--------|--------|--------|--------|
B|--------|--------|--------|--------|--------|--------|--------|--------|--------|
G|--------|--------|--------|--------|--------|--------|--------|--------|--------|
D|--------|--------|--------|--------|--------|--------|--------|--------|--------|
A|--------|--------|--------|--------|--------|--------|--------|--------|--------|
E|--------|--------|--------|--------|--------|--------|--------|--------|--------|


E|--------|--------|--------|--------|--------|--------|--------|--------|--------|
B|--------|--------|--------|--------|--------|--------|--------|--------|--------|
G|--------|--------|--------|--------|--------|--------|--------|--------|--------|
D|--------|--------|--------|--------|--------|--------|--------|--------|--------|
A|--------|--------|--------|--------|--------|--------|--------|--------|--------|
E|--------|--------|--------|--------|--------|--------|--------|--------|--------|


E|--------|--------|
B|--------|--------|
G|--------|--------|
D|--------|--------|
A|--------|--------|
E|--------|--------|





Track 5: Voice

E|--------|--------|--------|--------|--------|--------|--------|--------|--------|
B|--------|--------|--------|--------|--------|--------|--------|--------|--------|
G|--------|--------|--------|--------|--------|--------|--------|--------|--------|
D|--------|--------|--------|--------|--------|--------|--------|--------|--------|
A|--------|--------|--------|--------|--------|--------|--------|--------|--------|
E|--------|--------|--------|--------|--------|--------|--------|--------|--------|


E|--------|--------|--------|--------|--------|--------|--------|--------|--------|
B|--------|--------|--------|--------|--------|--------|--------|--------|--------|
G|--------|--------|--------|--------|--------|--------|--------|--------|--------|
D|--------|--------|--------|--------|--------|--------|--------|--------|--------|
A|--------|--------|--------|--------|--------|--------|--------|--------|--------|
E|--------|--------|--------|--------|--------|--------|--------|--------|--------|


E|--------|--------|--------|--------|--------|--------|--------|--------|--------|
B|--------|--------|--------|--------|--------|--------|--------|--------|--------|
G|--------|--------|--------|--------|--------|--------|--------|--------|--------|
D|--------|--------|--------|--------|--------|--------|--------|--------|--------|
A|--------|--------|--------|--------|--------|--------|--------|--------|--------|
E|--------|--------|--------|--------|--------|--------|--------|--------|--------|


E|--------|-------2----2----|-2----2-------------2---|-2---2-----2---2----|--------------------|
B|--------|-----------------|-----------5----3-------|--------------------|-------3---3----3---|
G|--------|-----------------|------------------------|--------------------|--------------------|
D|--------|-----------------|------------------------|--------------------|--------------------|
A|--------|-----------------|------------------------|--------------------|--------------------|
E|--------|-----------------|------------------------|--------------------|--------------------|


E|-----------------------2---|-2------2----|-2---------2----2----|-3---2---2----------|
B|-----3---3----5----3-------|-------------|---------------------|--------------------|
G|---------------------------|-------------|------4--------------|---------------4----|
D|---------------------------|-------------|---------------------|--------------------|
A|---------------------------|-------------|---------------------|--------------------|
E|---------------------------|-------------|---------------------|--------------------|


E|-2---2----3----2---2----|------2-------2---------|------------------------|-------------|
B|------------------------|-------------------5----|-5----7----5----3---5---|-5------5----|
G|------------------------|----------4-------------|------------------------|-------------|
D|------------------------|------------------------|------------------------|-------------|
A|------------------------|------------------------|------------------------|-------------|
E|------------------------|------------------------|------------------------|-------------|


E|-----------5---5----5---|-----5---5----------|-5----5----7----5----|-------5----3----|
B|-5----------------------|---------------3----|---------------------|-----------------|
G|------------------------|--------------------|---------------------|-----------------|
D|------------------------|--------------------|---------------------|-----------------|
A|------------------------|--------------------|---------------------|-----------------|
E|------------------------|--------------------|---------------------|-----------------|


E|-3----3----2------------|-------------|------------------------|--------------------|
B|----------------5---7---|-7------7----|-7---------7---7----8---|-----7---7----------|
G|------------------------|-------------|------------------------|--------------------|
D|------------------------|-------------|------9-----------------|---------------9----|
A|------------------------|-------------|------------------------|--------------------|
E|------------------------|-------------|------------------------|--------------------|


E|------------------------|------------------------|------------------------|-------------|
B|-7----7---8----7---7----|-----------7---5----5---|-----5---5----3----5----|-5------5----|
G|------------------------|------------------------|------------------------|-------------|
D|------------------------|------9-----------------|------------------------|-------------|
A|------------------------|------------------------|------------------------|-------------|
E|------------------------|------------------------|------------------------|-------------|


E|-------3---3----3---|------3----2---------|------------------------|-----------------|
B|--------------------|---------------5-----|-7----5----5---5---5----|-3----2----3-----|
G|--------------------|---------------------|------------------------|-----------------|
D|--------------------|---------------------|------------------------|-----------------|
A|--------------------|---------------------|------------------------|-----------------|
E|--------------------|---------------------|------------------------|-----------------|


E|-------------|--------|--------|--------|--------|
B|------3------|--------|--------|--------|--------|
G|-------------|--------|--------|--------|--------|
D|-------------|--------|--------|--------|--------|
A|-------------|--------|--------|--------|--------|
E|-------------|--------|--------|--------|--------|





Track 6: Synth (Overture)

E|--------|--------|--------|--------|--------|--------|--------|--------|--------|
B|--------|--------|--------|--------|--------|--------|--------|--------|--------|
G|--------|--------|--------|--------|--------|--------|--------|--------|--------|
D|--------|--------|--------|--------|--------|--------|--------|--------|--------|
A|--------|--------|--------|--------|--------|--------|--------|--------|--------|
E|--------|--------|--------|--------|--------|--------|--------|--------|--------|


E|--------|--------|--------|--------|--------|--------|--------|--------|--------|
B|--------|--------|--------|--------|--------|--------|--------|--------|--------|
G|--------|--------|--------|--------|--------|--------|--------|--------|--------|
D|--------|--------|--------|--------|--------|--------|--------|--------|--------|
A|--------|--------|--------|--------|--------|--------|--------|--------|--------|
E|--------|--------|--------|--------|--------|--------|--------|--------|--------|


E|--------|--------|--------|--------|--------|--------|--------|--------|--------|
B|--------|--------|--------|--------|--------|--------|--------|--------|--------|
G|--------|--------|--------|--------|--------|--------|--------|--------|--------|
D|--------|--------|--------|--------|--------|--------|--------|--------|--------|
A|--------|--------|--------|--------|--------|--------|--------|--------|--------|
E|--------|--------|--------|--------|--------|--------|--------|--------|--------|


E|--------|--------|--------|--------|--------|--------|--------|--------|--------|
B|--------|--------|--------|--------|--------|--------|--------|--------|--------|
G|--------|--------|--------|--------|--------|--------|--------|--------|--------|
D|--------|--------|--------|--------|--------|--------|--------|--------|--------|
A|--------|--------|--------|--------|--------|--------|--------|--------|--------|
E|--------|--------|--------|--------|--------|--------|--------|--------|--------|


E|--------|--------|--------|--------|--------|--------|--------|--------|--------|
B|--------|--------|--------|--------|--------|--------|--------|--------|--------|
G|--------|--------|--------|--------|--------|--------|--------|--------|--------|
D|--------|--------|--------|--------|--------|--------|--------|--------|--------|
A|--------|--------|--------|--------|--------|--------|--------|--------|--------|
E|--------|--------|--------|--------|--------|--------|--------|--------|--------|


E|--------|--------|--------|--------|--------|--------|--------|--------|--------|
B|--------|--------|--------|--------|--------|--------|--------|--------|--------|
G|--------|--------|--------|--------|--------|--------|--------|--------|--------|
D|--------|--------|--------|--------|--------|--------|--------|--------|--------|
A|--------|--------|--------|--------|--------|--------|--------|--------|--------|
E|--------|--------|--------|--------|--------|--------|--------|--------|--------|


E|--------|-------------|-------------|--------|-------12---13-13------|--------|--------|
B|--------|-------------|-------------|--------|-------13---13-13--15--|-15-----|-15-----|
G|--------|-------------|-------------|--------|-------12---12-12--14--|-14-----|-14-----|
D|--------|-------------|-------------|--------|-------------------14--|-14-----|-14-----|
A|--------|-------------|-------------|--------|-----------------------|--------|--------|
E|--------|-------0-----|------0------|-0------|-0-----0----0--0---0---|-0------|-0------|





Track 7: Cello

E|--------|--------|--------|--------|--------|--------|--------|--------|--------|
B|--------|--------|--------|--------|--------|--------|--------|--------|--------|
G|--------|--------|--------|--------|--------|--------|--------|--------|--------|
D|--------|--------|--------|--------|--------|--------|--------|--------|--------|
A|--------|--------|--------|--------|--------|--------|--------|--------|--------|
E|--------|--------|--------|--------|--------|--------|--------|--------|--------|


E|--------|--------|--------|--------|--------|--------|--------|--------|--------|
B|--------|--------|--------|--------|--------|--------|--------|--------|--------|
G|--------|--------|--------|--------|--------|--------|--------|--------|--------|
D|--------|--------|--------|--------|--------|--------|--------|--------|--------|
A|--------|--------|--------|--------|--------|--------|--------|--------|--------|
E|--------|--------|--------|--------|--------|--------|--------|--------|--------|


E|--------|--------|--------|--------|--------|--------|--------|--------|--------|
B|--------|--------|--------|--------|--------|--------|--------|--------|--------|
G|--------|--------|--------|--------|--------|--------|--------|--------|--------|
D|--------|--------|--------|--------|--------|--------|--------|--------|--------|
A|--------|--------|--------|--------|--------|--------|--------|--------|--------|
E|--------|--------|--------|--------|--------|--------|--------|--------|--------|


E|--------|-------------|-------------|-------------|-------------|-------------|-------------|
B|--------|-------------|-------------|-------------|-------------|-------------|-------------|
G|--------|-------------|-------------|-------------|-------------|-------------|-------------|
D|--------|-------0-----|------0------|-4------4----|-------5-----|------5------|-------------|
A|--------|-------------|-------------|-------------|-------------|-------------|-5------4----|
E|--------|-------------|-------------|-------------|-------------|-------------|-------------|


E|-------------|-------------|-------------|-------------|-------------|-------------|
B|-------------|-------------|-------------|-------------|-------------|-------------|
G|-------------|-------------|-------------|-------------|-------------|-------------|
D|-------------|-------------|-------------|-------------|-------------|-------------|
A|-------2-----|------2------|-0------0----|-------------|-------------|-------------|
E|-------------|-------------|-------------|-------4-----|------4------|-5------5----|


E|-------------|-------------|-------------|-------------|-------------|-------------|
B|-------------|-------------|-------------|-------------|-------------|-------------|
G|-------------|-------------|-------------|-------------|-------------|-------------|
D|-------------|-------------|-4------4----|-------5-----|------5------|-------------|
A|-------5-----|------5------|-------------|-------------|-------------|-5------4----|
E|-------------|-------------|-------------|-------------|-------------|-------------|


E|-------------|-------------|-------------|-------------|-------------|-------------|
B|-------------|-------------|-------------|-------------|-------------|-------------|
G|-------------|-------------|-------------|-------------|-------------|-------------|
D|-------------|-------------|-------------|-------------|-------------|-------------|
A|-------2-----|------2------|-0------0----|-------------|-------------|-------------|
E|-------------|-------------|-------------|-------4-----|------4------|-5------5----|


E|-------------|-------------|-------------|-------------|-------------|--------|--------|
B|-------------|-------------|-------------|-------------|-------------|--------|--------|
G|-------------|-------------|-------------|-------------|-------------|--------|--------|
D|-------------|-------------|-------------|-------------|-------------|--------|--------|
A|-------------|-------------|-0------0----|-------5-----|------5------|-5------|-5------|
E|-------3-----|------3------|-------------|-------------|-------------|--------|--------|


E|--------|--------|
B|--------|--------|
G|--------|--------|
D|--------|--------|
A|--------|--------|
E|--------|--------|





Track 8: Synth

E|--------|--------|--------|--------|--------|--------|--------|--------|--------|
B|--------|--------|--------|--------|--------|--------|--------|--------|--------|
G|--------|--------|--------|--------|--------|--------|--------|--------|--------|
D|--------|--------|--------|--------|--------|--------|--------|--------|--------|
A|--------|--------|--------|--------|--------|--------|--------|--------|--------|
E|--------|--------|--------|--------|--------|--------|--------|--------|--------|


E|--------|--------|--------|--------|--------|--------|--------|--------|--------|
B|--------|--------|--------|--------|--------|--------|--------|--------|--------|
G|--------|--------|--------|--------|--------|--------|--------|--------|--------|
D|--------|--------|--------|--------|--------|--------|--------|--------|--------|
A|--------|--------|--------|--------|--------|--------|--------|--------|--------|
E|--------|--------|--------|--------|--------|--------|--------|--------|--------|


E|--------|--------|--------|--------|--------|--------|--------|--------|--------|
B|--------|--------|--------|--------|--------|--------|--------|--------|--------|
G|--------|--------|--------|--------|--------|--------|--------|--------|--------|
D|--------|--------|--------|--------|--------|--------|--------|--------|--------|
A|--------|--------|--------|--------|--------|--------|--------|--------|--------|
E|--------|--------|--------|--------|--------|--------|--------|--------|--------|


E|--------|-------2-----|------2------|-2------2----|-------------|-------------|-2------2----|
B|--------|-------3-----|------3------|-3------3----|-------0-----|------0------|-3------3----|
G|--------|-------2-----|------2------|-2------2----|-------0-----|------0------|-2------2----|
D|--------|-------0-----|------0------|-4------4----|-------0-----|------0------|-0-----------|
A|--------|-------------|-------------|-------------|-------2-----|------2------|--------4----|
E|--------|-------------|-------------|-------------|-------------|-------------|-------------|


E|-------------|-------------|-------------|-------------|-------------|--------0----|
B|-------3-----|------3------|-3------3----|-------0-----|------0------|-5------2----|
G|-------4-----|------4------|-4------4----|-------1-----|------1------|-2------2----|
D|-------4-----|------4------|-4------4----|-------2-----|------2------|-2------2----|
A|-------2-----|------2------|-0------0----|-------2-----|------2------|-5------4----|
E|-------------|-------------|-------------|-------------|-------------|-------------|


E|-------2-----|------2------|-2------2----|-------------|-------------|-2------2----|
B|-------3-----|------3------|-3------3----|-------0-----|------0------|-3------3----|
G|-------2-----|------2------|-2------2----|-------0-----|------0------|-2------2----|
D|-------0-----|------0------|-4------4----|-------0-----|------0------|-0-----------|
A|-------------|-------------|-------------|-------2-----|------2------|--------4----|
E|-------------|-------------|-------------|-------------|-------------|-------------|


E|-------------|-------------|-------------|-------------|-------------|--------0----|
B|-------3-----|------3------|-3------3----|-------0-----|------0------|-5------2----|
G|-------4-----|------4------|-4------4----|-------1-----|------1------|-7------2----|
D|-------4-----|------4------|-4------4----|-------2-----|------2------|-0------2----|
A|-------2-----|------2------|-0------0----|-------2-----|------2------|-7------4----|
E|-------------|-------------|-------------|-------------|-------------|-------------|


E|-------------|-------------|-------------|-------------|-------------|--------|--------|
B|-------3-----|------3------|-------------|-------3-----|------3------|-3------|-3------|
G|-------4-----|------4------|-2------2----|-------2-----|------2------|-2------|-2------|
D|-------5-----|------5------|-2------2----|-------4-----|------4------|-4------|-4------|
A|-------5-----|------5------|-4------4----|-------5-----|------5------|-5------|-5------|
E|-------7-----|------7------|-5------5----|-------5-----|------5------|-5------|-5------|


E|--------|--------|
B|--------|--------|
G|--------|--------|
D|--------|--------|
A|--------|--------|
E|--------|--------|