Menu:

 

Search:

 

dream theater - regression:

 



/---------------------------------------------------------------------------
/ The following is the author's own interpretation of the song, to be used -
/ for studying or private use only, removal of any part of this ten line   -
/ header is illegal!!!  Removal of the transcribers name or anything       -
/ relevant to the transcriber is also illegal, as so is the removal of the -
/ place inwhich the tab was downloaded. Publishing as well as printing of  -
/ the tab is illegal without permission of the transcriber and copyright   -
/ owner of the song. Failure to apply to these laws result will in legal   -
/ action from the appropriate parties.                                     -
/---------------------------------------------------------------------------

downloaded from Displacer's Tablature Site at
        http://www.dsrmusic.com/metaltab
join the death/black tab emailing list by filling out the free
subscription form at http://www.dsrmusic.com/metaltab/join.htm


Regression chords - Guitar Tab


Author - Marcello Mascia


Dream Theater
"Regression"

Chords by - Marcello Mascia (kishnel@tin.it)


  D   D/F# D/G  D/B  D/C#  B   B/A   E   E/G# Asus4 A    G
--2----0----0----0----2----2----0----0----0----0----0----3--
--3----3----3----3----3----3----3----0----0----3----2----3--
--2----2----2----2----2----4----4----1----1----2----2----0--
--0----0----0----0----x----4----4----2----2----2----2----0--
--x----x----x----2----4----2----0----2----2----0----0----2--
--x----2----3----x----x----2----x----0----4----x----x----3--



D                         D/F#
Safe in the light that surrounds me

D/G         D/B          D   D/C#
Free of the fear and the pain

   B
My subconcious mind

       B/A
Starts spinning through time

   E          E/G#       Asus4   A 
To rejoin the past once again

D
Nothing seems real

    D/G
I'm starting to feel

D/F#        D/B       D    D/C#
Lost in the haze of a dream

    B
And as I draw near

    B/A     
The scene becomes clear

     E           E/G#      Asus4   A
Like watching my life on a screen

G              A
Hello Victoria so glad to see you

   D
My friend.