Menu:

 

Search:

 

dream theater - pull me under:

 



Title: Pull Me Under
Artist: 
Album: Images and Words
Author: Dream Theater


Track 1: Clean guitar

E|--------------------|--------------------|--------------------|------------------------------|
B|--------------------|--------------------|--------------------|--------------------------0---|
G|----------0---0-----|----------0---0-----|----------0---0-----|----------0---0-------2-------|
D|------7-------------|------4-------------|--------------------|------------------0-----------|
A|--------------------|--------------------|------4-------------|------3-----------------------|
E|-0------------------|-0------------------|-0------------------|-0----------------------------|


E|--------------------|--------------------|--------------------|------------------------------|
B|--------------------|--------------------|--------------------|--------------------------0---|
G|----------0---0-----|----------0---0-----|----------0---0-----|----------0---0-------2-------|
D|------7-------------|------4-------------|--------------------|------------------------------|
A|--------------------|--------------------|------4-------------|------3-----------------------|
E|-0------------------|-0------------------|-0------------------|-0----------------1-----------|


E|--------------------|--------------------|--------------------|------------------------------|
B|--------------------|--------------------|--------------------|--------------------------0---|
G|----------0---0-----|----------0---0-----|----------0---0-----|----------0---0-------2-------|
D|------7-------------|------4-------------|--------------------|------------------0-----------|
A|--------------------|--------------------|------4-------------|------3-----------------------|
E|-0------------------|-0------------------|-0------------------|-0----------------------------|


E|--------------------|--------------------|--------------------|------------------------------|
B|--------------------|--------------------|--------------------|--------------------------0---|
G|----------0---0-----|----------0---0-----|----------0---0-----|----------0---0-------2-------|
D|------7-------------|------4-------------|--------------------|------------------------------|
A|--------------------|--------------------|------4-------------|------3-----------------------|
E|-0------------------|-0------------------|-0------------------|-0----------------1-----------|


E|------------------0--------|------------------0--------|------------------0--------|
B|-----------------------0---|-----------------------0---|-----------------------0---|
G|----------0----------------|----------0----------------|----------0----------------|
D|------7--------------------|------4--------------------|---------------------------|
A|---------------------------|---------------------------|------4--------------------|
E|-0------------0------------|-0------------0------------|-0------------0------------|


E|------------------------------|------------------0--------|------------------0--------|
B|--------------------------0---|-----------------------0---|-----------------------0---|
G|----------0---0-------2-------|----------0----------------|----------0----------------|
D|------------------0-----------|------7--------------------|------4--------------------|
A|------3-----------------------|---------------------------|---------------------------|
E|-0----------------------------|-0------------0------------|-0------------0------------|


E|------------------0--------|------------------------------|--------------------|
B|-----------------------0---|--------------------------0---|--------------------|
G|----------0----------------|----------0---0-------2-------|----------0---0-----|
D|---------------------------|------------------------------|------7-------------|
A|------4--------------------|------3-----------------------|--------------------|
E|-0------------0------------|-0----------------1-----------|-0------------------|


E|--------------------|--------------------|------------------------------|--------------------|
B|--------------------|--------------------|--------------------------0---|--------------------|
G|----------0---0-----|----------0---0-----|----------0---0-------2-------|----------0---0-----|
D|------4-------------|--------------------|------------------0-----------|------7-------------|
A|--------------------|------4-------------|------3-----------------------|--------------------|
E|-0------------------|-0------------------|-0----------------------------|-0------------------|


E|--------------------|--------------------|------------------------------|--------|
B|--------------------|--------------------|--------------------------0---|--------|
G|----------0---0-----|----------0---0-----|----------0---0-------2-------|--------|
D|------4-------------|--------------------|------------------------------|--------|
A|--------------------|------4-------------|------3-----------------------|--------|
E|-0------------------|-0------------------|-0----------------1-----------|--------|


E|--------|--------|--------|--------|--------|--------|--------|--------|--------|
B|--------|--------|--------|--------|--------|--------|--------|--------|--------|
G|--------|--------|--------|--------|--------|--------|--------|--------|--------|
D|--------|--------|--------|--------|--------|--------|--------|--------|--------|
A|--------|--------|--------|--------|--------|--------|--------|--------|--------|
E|--------|--------|--------|--------|--------|--------|--------|--------|--------|


E|--------|--------|--------|--------|--------|--------|--------|--------|--------|
B|--------|--------|--------|--------|--------|--------|--------|--------|--------|
G|--------|--------|--------|--------|--------|--------|--------|--------|--------|
D|--------|--------|--------|--------|--------|--------|--------|--------|--------|
A|--------|--------|--------|--------|--------|--------|--------|--------|--------|
E|--------|--------|--------|--------|--------|--------|--------|--------|--------|


E|--------|--------|--------|--------|--------|--------|--------|--------|----------2---2------------|
B|--------|--------|--------|--------|--------|--------|--------|--------|------------------5--------|
G|--------|--------|--------|--------|--------|--------|--------|--------|----------------------4----|
D|--------|--------|--------|--------|--------|--------|--------|--------|---------------------------|
A|--------|--------|--------|--------|--------|--------|--------|--------|---------------------------|
E|--------|--------|--------|--------|--------|--------|--------|--------|---------------------------|


E|-------------3---3------------|-------------4---4--------------------|------------------0-----------|
B|---------------------3--------|---------------------5---4--5--4------|----------------------4-------|
G|---------5--------------------|---------6------------------------6---|------2---0---------------4---|
D|-----5------------------------|-----6--------------------------------|------------------------------|
A|------------------------------|--------------------------------------|--------------2---------------|
E|------------------------------|--------------------------------------|-0----------------------------|


E|------------------------------|------------------------------|-------------4---4--------------------|
B|---------------------8--------|---------------------8--------|---------------------5---4--5--4------|
G|-------------11--11------11---|-------------11--11------11---|---------6------------------------6---|
D|---------9--------------------|---------12-------------------|-----6--------------------------------|
A|-----7------------------------|-----10-----------------------|-4------------------------------------|
E|-0----------------------------|-8----------------------------|--------------------------------------|


E|-------------------------0-------|--------|--------|--------|--------|--------|--------|
B|-----------------------------4---|--------|--------|--------|--------|--------|--------|
G|-------------0-------------------|--------|--------|--------|--------|--------|--------|
D|---------7-----------4-----------|--------|--------|--------|--------|--------|--------|
A|-----5-----------2---------------|--------|--------|--------|--------|--------|--------|
E|-3-------------------------------|--------|--------|--------|--------|--------|--------|


E|--------|--------|--------|--------|--------|--------|--------|--------|--------|
B|--------|--------|--------|--------|--------|--------|--------|--------|--------|
G|--------|--------|--------|--------|--------|--------|--------|--------|--------|
D|--------|--------|--------|--------|--------|--------|--------|--------|--------|
A|--------|--------|--------|--------|--------|--------|--------|--------|--------|
E|--------|--------|--------|--------|--------|--------|--------|--------|--------|


E|--------|--------|--------|--------|--------|--------|--------|--------|--------|
B|--------|--------|--------|--------|--------|--------|--------|--------|--------|
G|--------|--------|--------|--------|--------|--------|--------|--------|--------|
D|--------|--------|--------|--------|--------|--------|--------|--------|--------|
A|--------|--------|--------|--------|--------|--------|--------|--------|--------|
E|--------|--------|--------|--------|--------|--------|--------|--------|--------|


E|--------|--------|--------|--------|------------------------|------------------------|
B|--------|--------|--------|--------|------------3-----------|----------------1---1---|
G|--------|--------|--------|--------|----------------5---5---|------------4-----------|
D|--------|--------|--------|--------|------------------------|------------------------|
A|--------|--------|--------|--------|-------0----------------|-------0----------------|
E|--------|--------|--------|--------|------------------------|------------------------|


E|------------------------|---------------------|---------------------------|---------------------------|
B|------------------------|-------10---6----6---|-8---8---------3-----------|-------------------1---1---|
G|----------------5---5---|-------9----5----5---|-7---7-------------5---5---|---------------4-----------|
D|------------4-----------|-------7----3----3---|-5---5---------------------|---------------------------|
A|-------0----------------|---------------------|----------0------------0---|-2----3---3----------------|
E|------------------------|---------------------|---------------------------|---------------------------|


E|------------------------|-----------------------|-----------------|--------|--------|
B|------------------------|-----1---0---1-----1---|-1---------------|--------|--------|
G|----------------5---5---|-----------------------|-3---------------|--------|--------|
D|------------4-----------|-2-----------3-----3---|-3---------------|--------|--------|
A|-------5------------5---|-----------------------|-1---------------|--------|--------|
E|------------------------|-----------------------|-----------------|--------|--------|


E|--------|--------|--------|--------|--------|--------|--------|--------|--------|
B|--------|--------|--------|--------|--------|--------|--------|--------|--------|
G|--------|--------|--------|--------|--------|--------|--------|--------|--------|
D|--------|--------|--------|--------|--------|--------|--------|--------|--------|
A|--------|--------|--------|--------|--------|--------|--------|--------|--------|
E|--------|--------|--------|--------|--------|--------|--------|--------|--------|


E|----------------2---2---|----------------------3---3---|----------------------4---4---|
B|------------------------|-5----------------------------|-3----------------------------|
G|------------------------|-----4------------5-----------|------------------6-----------|
D|------------------------|--------------5---------------|--------------6---------------|
A|------------------------|------------------------------|------------------------------|
E|------------------------|------------------------------|------------------------------|


E|-----------------------------------|-0-------------------------------|------------------------------|
B|-5---4--5--4-----------------------|-----4---------------------------|-8----------------------------|
G|--------------6--------2---0-------|---------4---------------11--11--|-----11---------------11--11--|
D|-----------------------------------|---------------------9-----------|------------------12----------|
A|-------------------------------2---|-----------------7---------------|--------------10--------------|
E|------------------0----------------|-------------0-------------------|----------8-------------------|


E|----------------------4---4---|--------------------------------------|-----0-----------------|
B|-8----------------------------|-5---4--5--4--------------------------|---------4-------------|
G|-----11-----------6-----------|--------------6---------------0-------|-----------------------|
D|--------------6---------------|--------------------------7-----------|-4---------------------|
A|----------4-------------------|----------------------5-----------2---|-----------------------|
E|------------------------------|------------------3-------------------|-----------------------|


E|--------|--------|--------|--------|--------|--------|--------|-------------|--------------------|
B|--------|--------|--------|--------|--------|--------|--------|-------------|-3------------------|
G|--------|--------|--------|--------|--------|--------|--------|-------------|-----5---5----------|
D|--------|--------|--------|--------|--------|--------|--------|-------------|--------------------|
A|--------|--------|--------|--------|--------|--------|--------|--------0----|---------------0----|
E|--------|--------|--------|--------|--------|--------|--------|-------------|--------------------|


E|--------------------|--------------------|------------------------|---------------------------|
B|-----1---1----------|---------------10---|-6----6---8---8---------|-3-------------------------|
G|-4------------------|-----5---5-----9----|-5----5---7---7---------|-----5---5-----------------|
D|--------------------|-4-------------7----|-3----3---5---5---------|---------------------------|
A|---------------0----|--------------------|-------------------0----|---------0---2----3---3----|
E|--------------------|--------------------|------------------------|---------------------------|


E|--------------------|------------------------------|-----------------------------|
B|-----1---1----------|-----------------1---0---1----|-----------------------------|
G|-4------------------|-----5---5--------------------|------------3---3--3---------|
D|--------------------|-4-----------2-----------3----|------------3---3--3---------|
A|---------------5----|---------5--------------------|------------1---1--1---------|
E|--------------------|------------------------------|------0--0--------------0----|


E|--------------------|--------------------|--------------------|------------------------------|
B|--------------------|--------------------|--------------------|---------------------0--------|
G|-----0---0----------|-----0---0----------|-----0---0----------|-----0---0-------2------------|
D|-7------------------|-4------------------|--------------------|-------------0----------------|
A|--------------------|--------------------|-4------------------|-3----------------------------|
E|---------------0----|---------------0----|---------------0----|-------------------------0----|


E|-------------0-------------|-------------0-------------|-------------0-------------|
B|------------------0--------|------------------0--------|------------------0--------|
G|-----0---------------------|-----0---------------------|-----0---------------------|
D|-7-------------------------|-4-------------------------|---------------------------|
A|---------------------------|---------------------------|-4-------------------------|
E|---------0------------0----|---------0------------0----|---------0------------0----|


E|---------------------------------|-----0---0-------------|-----0---0-------------|
B|---------------------0-----------|-----8---8-------------|-----10--10------------|
G|-----0---0-------2---------------|-----11--11------------|-----0---0-------------|
D|---------------------------------|-9---------------------|-7---------------------|
A|-3---------------------------7---|-------------------9---|-------------------4---|
E|-------------1-----------0-------|---------------0-------|---------------0-------|


E|-----0---0-------------|-----8---8-------------|-------------------------------------|
B|-----7---7-------------|-----8---8-------------|-----12--12-12-12--12-12-12----------|
G|-----0---0-------------|-----11--11------------|-----11--11-11-11--11-11-11----------|
D|-5---------------------|-12--------------------|-----9---9--9--9---9--9--9-----------|
A|-------------------10--|-----------------------|-----10--10-10-10--10-10-10----------|
E|---------------0-------|---------------0----0--|-0---------------------------0----0--|


E|-------------------------------------|-------------------------------------|----------------------------------|
B|-----15--15-15-15--15-15-15----------|-----12--12-12-12--12-12-12----------|-----15--15-15-15--15-15-15-------|
G|-----14--14-14-14--14-14-14----------|-----9---9--9--9---9--9--9-----------|-----14--14-14-14--14-14-14-------|
D|-----12--12-12-12--12-12-12----------|-----11--11-11-11--11-11-11----------|-----12--12-12-12--12-12-12-------|
A|-----14--14-14-14--14-14-14----------|-----10--10-10-10--10-10-10----------|-----14--14-14-14--14-14-14-------|
E|-0---------------------------0----0--|-0---------------------------0----0--|-0--------------------------------|


E|--------|--------|--------|--------|--------|--------|--------|--------|--------|
B|--------|--------|--------|--------|--------|--------|--------|--------|--------|
G|--------|--------|--------|--------|--------|--------|--------|--------|--------|
D|--------|--------|--------|--------|--------|--------|--------|--------|--------|
A|--------|--------|--------|--------|--------|--------|--------|--------|--------|
E|--------|--------|--------|--------|--------|--------|--------|--------|--------|


E|--------|--------|-------------|--------------------|--------------------|--------------------|
B|--------|--------|-------------|-3------------------|-----1---1----------|---------------10---|
G|--------|--------|-------------|-----5---5----------|-4------------------|-----5---5-----9----|
D|--------|--------|-------------|--------------------|--------------------|-4-------------7----|
A|--------|--------|--------0----|---------------0----|---------------0----|--------------------|
E|--------|--------|-------------|--------------------|--------------------|--------------------|


E|------------------------|---------------------------|--------------------|------------------------------|
B|-6----6---8---8---------|-3-------------------------|-----1---1----------|-----------------1---0---1----|
G|-5----5---7---7---------|-----5---5-----------------|-4------------------|-----5---5--------------------|
D|-3----3---5---5---------|---------------------------|--------------------|-4-----------2-----------3----|
A|-------------------0----|---------0---2----3---3----|---------------5----|---------5--------------------|
E|------------------------|---------------------------|--------------------|------------------------------|


E|-----------------------------|--------|--------|--------|-------------|---------------------------|
B|-----------------------------|--------|--------|--------|-------------|-3-------------------------|
G|------------3---3--3---------|--------|--------|--------|-------------|-----5---5-----------------|
D|------------3---3--3---------|--------|--------|--------|-------------|---------------------------|
A|------------1---1--1---------|--------|--------|--------|--------0----|---------0---2----3---3----|
E|------0--0-------------------|--------|--------|--------|-------------|---------------------------|


E|--------------------|------------------------------|---------------------|--------|
B|-----1---1----------|-----------------1---0---1----|------1---1----------|--------|
G|-4------------------|-----5---5--------------------|----------3----------|--------|
D|--------------------|-4-----------2-----------3----|------3---3----------|--------|
A|---------------5----|---------5--------------------|----------1----------|--------|
E|--------------------|------------------------------|---------------------|--------|


E|--------|--------|--------|--------|--------|--------|--------|--------|--------|
B|--------|--------|--------|--------|--------|--------|--------|--------|--------|
G|--------|--------|--------|--------|--------|--------|--------|--------|--------|
D|--------|--------|--------|--------|--------|--------|--------|--------|--------|
A|--------|--------|--------|--------|--------|--------|--------|--------|--------|
E|--------|--------|--------|--------|--------|--------|--------|--------|--------|


E|--------|--------|--------|--------|--------|--------|--------|--------|--------|
B|--------|--------|--------|--------|--------|--------|--------|--------|--------|
G|--------|--------|--------|--------|--------|--------|--------|--------|--------|
D|--------|--------|--------|--------|--------|--------|--------|--------|--------|
A|--------|--------|--------|--------|--------|--------|--------|--------|--------|
E|--------|--------|--------|--------|--------|--------|--------|--------|--------|


E|--------|--------|--------|--------|--------|--------|--------|
B|--------|--------|--------|--------|--------|--------|--------|
G|--------|--------|--------|--------|--------|--------|--------|
D|--------|--------|--------|--------|--------|--------|--------|
A|--------|--------|--------|--------|--------|--------|--------|
E|--------|--------|--------|--------|--------|--------|--------|





Track 2: Distorted guitar (rhythm)

E|--------|--------|--------|--------|--------|--------|--------|--------|--------|
B|--------|--------|--------|--------|--------|--------|--------|--------|--------|
G|--------|--------|--------|--------|--------|--------|--------|--------|--------|
D|--------|--------|--------|--------|--------|--------|--------|--------|--------|
A|--------|--------|--------|--------|--------|--------|--------|--------|--------|
E|--------|--------|--------|--------|--------|--------|--------|--------|--------|


E|--------|--------|--------|--------|--------|--------|--------|--------|--------|
B|--------|--------|--------|--------|--------|--------|--------|--------|--------|
G|--------|--------|--------|--------|--------|--------|--------|--------|--------|
D|--------|--------|--------|--------|--------|--------|--------|--------|--------|
A|--------|--------|--------|--------|--------|--------|--------|--------|--------|
E|--------|--------|--------|--------|--------|--------|--------|--------|--------|


E|--------|--------|--------|--------|--------|--------|-0------|-0------|-0------|
B|--------|--------|--------|--------|--------|--------|-0------|-0------|-0------|
G|--------|--------|--------|--------|--------|--------|-9------|-9------|-9------|
D|--------|--------|--------|--------|--------|--------|-9------|-9------|-9------|
A|--------|--------|--------|--------|--------|--------|-7------|-7------|-7------|
E|--------|--------|--------|--------|--------|--------|-0------|-0------|-0------|


E|-0----------------------|-0------|-0------|-0------|-0----------------------|-----------------------------------|
B|-0----------------------|-0------|-0------|-0------|-0----------------------|-----------------------------------|
G|-9----5----5---7---7----|-9------|-9------|-9------|-9----5----5------------|-----------------------------------|
D|-9----5----5---7---7----|-9------|-9------|-9------|-9----5----5---3---3----|-----------7---5---2---2---2---2---|
A|-7----3----3---5---5----|-7------|-7------|-7------|-7----3----3---3---3----|-----------7---5---2---2---2---2---|
E|-0----------------------|-0------|-0------|-0------|-0-------------1---1----|-0--0--0-----------0---0---0---0---|


E|-----------------------------------|-----------------------------------|----------------------------------|
B|-----------------------------------|-----------------------------------|----------------------------------|
G|-----------------------------------|-----------------------------------|----------------------------------|
D|-----------4---5---2---2---2---2---|-----------6---5---2---2---2---2---|-----------4---5---------7---7----|
A|-----------4---5---2---2---2---2---|-----------4---5---2---2---2---2---|-----------2---5---------5---5----|
E|-0--0--0-----------0---0---0---0---|-0--0--0-----------0---0---0---0---|-0--0--0---2---3---0--0--5---5----|


E|-----------------------------------|-----------------------------------|-----------------------------------|
B|-----------------------------------|-----------------------------------|-----------------------------------|
G|-----------------------------------|-----------------------------------|-----------------------------------|
D|-----------7---5---2---2---2---2---|-----------4---5---2---2---2---2---|-----------6---5---2---2---2---2---|
A|-----------7---5---2---2---2---2---|-----------4---5---2---2---2---2---|-----------4---5---2---2---2---2---|
E|-0--0--0-----------0---0---0---0---|-0--0--0-----------0---0---0---0---|-0--0--0-----------0---0---0---0---|


E|----------------------------------|---------------------------------------|---------------------------------------|
B|----------------------------------|---------------------------------------|---------------------------------------|
G|----------------------------------|---------------------------------------|---------------------------------------|
D|-----------4---5---------3---3----|-----------7---5---------2---------2---|-----------4---5---------2---------2---|
A|-----------2---3---------3---3----|-----------7---5---------2---------2---|-----------4---5---------2---------2---|
E|-0--0--0---2---3---0--0--1---1----|-0--0--0-----------0--0--0---0--0--0---|-0--0--0-----------0--0--0---0--0--0---|


E|---------------------------------------|----------------------------------|---------------------------------------|
B|---------------------------------------|----------------------------------|---------------------------------------|
G|---------------------------------------|----------------------------------|---------------------------------------|
D|-----------6---5---------2---------2---|-----------4---5---------7---7----|-----------7---5---------2---------2---|
A|-----------4---5---------2---------2---|-----------2---3---------5---5----|-----------7---5---------2---------2---|
E|-0--0--0-----------0--0--0---0--0--0---|-0--0--0---2---3---0--0--5---5----|-0--0--0-----------0--0--0---0--0--0---|


E|---------------------------------------|---------------------------------------|
B|---------------------------------------|---------------------------------------|
G|---------------------------------------|---------------------------------------|
D|-----------4---5---------2---------2---|-----------6---5---------2---------2---|
A|-----------4---5---------2---------2---|-----------4---5---------2---------2---|
E|-0--0--0-----------0--0--0---0--0--0---|-0--0--0-----------0--0--0---0--0--0---|


E|----------------------------------|-----------------------------------------|-----------------------------------------|
B|----------------------------------|-----------------------------------------|-----------------------------------------|
G|----------------------------------|-----------------------------------------|-----------------------------------------|
D|-----------4---5---------3---3----|-----------------------------------------|-----------------------------------------|
A|-----------2---3---------3---3----|-2--2------2--2------2--2------2--2------|-2--2------2--2------2--2------2--2------|
E|-0--0--0---2---3---0--0--1---1----|-0--0------0--0------0--0------0--0------|-0--0------0--0------0--0------0--0------|


E|-----------------------------------------|-------------------------------------------------|
B|-----------------------------------------|-------------------------------------------------|
G|-----------------------------------------|-11-11-------11-11-------11-11-------11-11-------|
D|-----------------------------------------|-9--9--------9--9--------9--9--------9--9--------|
A|-2--2------2--2------2--2------2--2------|-7--7--------7--7--------7--7--------7--7--------|
E|-0--0------0--0------0--0------0--0------|-------0--0--------0--0--------0--0--------0--0--|


E|-------------------------------------------------|-------------------------------------------------|
B|-------------------------------------------------|-10-10-------10-10-------10-10-------10-10-------|
G|-12-12-------12-12-------12-12-------12-12-------|-9--9--------9--9--------9--9--------9--9--------|
D|-10-10-------10-10-------10-10-------10-10-------|-9--9--------9--9--------9--9--------9--9--------|
A|-9--9--------9--9--------9--9--------9--9--------|-------------------------------------------------|
E|-------0--0--------0--0--------0--0--------0--0--|-------0--0--------0--0--------0--0--------0--0--|


E|-------------------------------------------------|-------------------------------------------------|
B|-13-13-------13-13-------13-13-------13-13-------|-------------------------------------------------|
G|-12-12-------12-12-------11-11-------11-11-------|-11-11-------11-11-------11-11-------11-11-------|
D|-10-10-------10-10-------10-10-------10-10-------|-9--9--------9--9--------9--9--------9--9--------|
A|-------------------------------------------------|-7--7--------7--7--------7--7--------7--7--------|
E|-------0--0--------0--0--------0--0--------0--0--|-------0--0--------0--0--------0--0--------0--0--|


E|-------------------------------------------------|-------------------------------------------------|
B|-------------------------------------------------|-10-10-------10-10-------10-10-------10-10-------|
G|-12-12-------12-12-------12-12-------12-12-------|-9--9--------9--9--------9--9--------9--9--------|
D|-10-10-------10-10-------10-10-------10-10-------|-9--9--------9--9--------9--9--------9--9--------|
A|-9--9--------9--9--------9--9--------9--9--------|-------------------------------------------------|
E|-------0--0--------0--0--------0--0--------0--0--|-------0--0--------0--0--------0--0--------0--0--|


E|-------------------------------------------------|--------|-3------|-4------|-3-----------|
B|-13-13-------13-13-------------------------------|-8------|-3------|-4------|-3-----4-----|
G|-12-12-------12-12-------12-12-------10-10-------|-9------|-5------|-6------|-0-----4-----|
D|-10-10-------10-10-------10-10-------9--9--------|-9------|-5------|-6------|-0-----4-----|
A|-------------------------8--8--------8--8--------|-7------|-3------|-4------|-------2-----|
E|-------0--0--------0--0--------0--0--------0--0--|-0------|-3------|-4------|-3-----------|


E|--------|-3------|-4------|-3-----------|--------|--------|--------|--------|--------|
B|-8------|-3------|-4------|-3-----4-----|--------|--------|--------|--------|--------|
G|-9------|-5------|-6------|-0-----4-----|--------|--------|--------|--------|--------|
D|-9------|-5------|-6------|-0-----4-----|--------|--------|--------|--------|--------|
A|-7------|-3------|-4------|-------2-----|--------|--------|--------|--------|--------|
E|-0------|-3------|-4------|-3-----------|--------|--------|--------|--------|--------|


E|--------|--------|--------|-----------------------------|-------------------------------------------------|
B|--------|--------|--------|-----------------------------|-------------------------------------------------|
G|--------|--------|--------|-----------------------------|-------------------------------------------------|
D|--------|--------|--------|-------------------------5---|-------------------------------------------------|
A|--------|--------|--------|-2-----------------------5---|-------------------------------------------------|
E|--------|--------|--------|-0--0--------------------3---|-0--0--2--0--3--0--0--6--0--5--0--0--3--0--1--0--|


E|-------------------------------------------------|-------------------------------------------------|
B|-------------------------------------------------|-------------------------------------------------|
G|-------------------------------------------------|-------------------------------------------------|
D|-------------------------------------------------|-------------------------------------------------|
A|-------------------------------------------------|-------------------------------------------------|
E|-0--0--2--0--3--0--0--6--0--5--0--0--3--0--1--0--|-0--0--2--0--3--0--0--6--0--5--0--0--3--0--1--0--|


E|-------------------------------------------------|-------------------------------------------------|
B|-------------------------------------------------|-------------------------------------------------|
G|-------------------------------------------------|-------------------------------------------------|
D|-------------------------------------------------|-------------------------------------------------|
A|-------------------------------------------------|-------------------------------------------------|
E|-0--0--2--0--3--0--0--6--0--5--0--0--3--0--1--0--|-0--0--2--0--3--0--0--6--0--5--0--0--3--0--1--0--|


E|-------------------------------------------------|-------------------------------------------------|
B|-------------------------------------------------|-------------------------------------------------|
G|-------------------------------------------------|----------------------------------5--4--2--------|
D|-------------------------------------------------|-------------------------5--4--2-----------------|
A|-------------------------------------------------|----------------3--2--0--------------------------|
E|-0--0--2--0--3--0--0--6--0--5--0--0--3--0--1--0--|-0--2--3--2--0-----------------------------3--1--|


E|----------------------------------------------------|----------------------------------------------------|
B|----------------------------------------------------|----------------------------------------------------|
G|----------------------------------------------------|----------------------------------------------------|
D|----------------------------------------------------|----------------------------------------------------|
A|-------------2--3--2--3--2-----2--------------------|-------------3--5--3--5--3-----3--------------------|
E|-0--2--3--5-----------------5-----3--5--2--5--3--2--|-0--3--5--7-----------------7-----5--7--3--7--5--3--|


E|----------------------------------------------------|-------------------------------------------------------|
B|----------------------------------------------------|-------------------------------------------------------|
G|----------------------------------------------------|-------------------------------------------------------|
D|----------------------------------------------------|-------------------------------------------------------|
A|-------------5--7--5--7--5-----5--------------------|-------------7--10-7-107----------------9--12-9-129----|
E|-0--5--7--9-----------------9-----7--9--5--9--7--5--|-0--7--8--10-------------8--0--8--10-12-------------10-|


E|----------------------------------------------------|----------------------------------------------------|
B|----------------------------------------------------|----------------------------------------------------|
G|----------------------------------------------------|----------------------------------------------------|
D|----------------------------------------------------|----------------------------------------------------|
A|-------------10-12-10-12-10----10-------------------|-------------12-14-12-14-12----12-------------------|
E|-0--10-12-14----------------14----12-14-10-14-12-10-|-0--12-14-15----------------15----14-15-12-15-14-12-|


E|----------------------------------------------------|----------------------------------------------------|
B|----------------------------------------------------|----------------------------------------------------|
G|----------------------------------------------------|----------------------------------------------------|
D|----------------------------------------------------|----------------------------------3--------2--5--4--|
A|-------------14-15-14-15-14----14-------------------|-------------15-17-151915------------2--3-----------|
E|-0--14-15-17----------------17----15-17-14-17-15-14-|-0--15-17-19-------------17-0--1--------------------|


E|---------------------------------------|---------------------------------------|
B|---------------------------------------|---------------------------------------|
G|---------------------------------------|---------------------------------------|
D|---------------------------------------|-----------------------------------4---|
A|-2---------2---------2---------2---3---|-3---------3---------3---------3---2---|
E|-0---0--0--0---0--0--0---0--0--0---1---|-1---1--1--1---1--1--1---1--1--1-------|


E|--------------------5---|-----3----------------------------|--------|--------|--------|
B|---------------10---8---|-----3----------------------------|--------|--------|--------|
G|---------------9----7---|-----5-----------------7----------|--------|--------|--------|
D|-----5----4----7----5---|-----5----9---9--7--9-----9---9---|--------|--------|--------|
A|-----3----2----7----5---|-----3----------------------------|--------|--------|--------|
E|------------------------|----------------------------------|--------|--------|--------|


E|--------|--------|--------|--------|--------|-----------------------------|---------------------------------------|
B|--------|--------|--------|--------|--------|-----------------------------|---------------------------------------|
G|--------|--------|--------|--------|--------|-----------------------------|---------------------------------------|
D|--------|--------|--------|--------|--------|-------0--2------------------|-----------------0--2------------------|
A|--------|--------|--------|--------|--------|-------0--2--2---2---2---2---|-2--2--2---2--2--0--2--2---2---2---2---|
E|--------|--------|--------|--------|--------|-------------0---0---0---0---|-0--0--0---0--0--------0---0---0---0---|


E|---------------------------------------|---------------------------------------|
B|---------------------------------------|---------------------------------------|
G|---------------------------------------|---------------------------------------|
D|-----------------0--2------------------|-----------------0--2------------------|
A|-2--2--2---2--2--0--2--2---2---2---2---|-2--2--2---2--2--0--2--2---2---2---2---|
E|-0--0--0---0--0--------0---0---0---0---|-0--0--0---0--0--------0---0---0---0---|


E|-------------------------------|-------------------------------|--------------------------------|
B|-------------------------------|-------------------------------|--------------------------------|
G|-------------------------------|-------------------------------|--------------------------------|
D|-------------------------------|-------------------------------|--------------------------------|
A|-2--2--2---2--2----------------|-----5--5--5---5---7--5--7-----|-----5--7--5--------------------|
E|-0--0--0---0--0--0----3----5---|-7-----------------------------|--------------7---0----3----5---|


E|------------------------------------|-----------------------------|----------------------------------|
B|------------------------------------|-----------------------------|----------------------------------|
G|------------------------------------|-----------------------------|----------------------------------|
D|------------------------------7--7--|-7---7--7--7-----------------|----------------------------------|
A|-----5--5--5---5---7--5-------5--5--|-5---5--5--5-----------------|-----5--5--5---5---7--5--7----5---|
E|-7-----------------------8----5--5--|-5---5--5--5---0----3----5---|-7--------------------------------|


E|---------------------|------------------------------------|----------------------|
B|---------------------|------------------------------------|---------------8------|
G|---------------------|------------------------------------|---------------9------|
D|---------------------|------------------------------3--3--|-3---3--3--3---9------|
A|---------------------|-----5--5--5---5---7--5-------3--3--|-3---3--3--3---7------|
E|-------0----3----5---|-7-----------------------8----1--1--|-1---1--1--1---0------|


E|-------3------|-------4------|-------3---------|--------------|-------3------|-------4------|
B|-------3------|-------4------|-------3-----4---|-------8------|-------3------|-------4------|
G|-------5------|-------6------|-------0-----4---|-------9------|-------5------|-------6------|
D|-------5------|-------6------|-------0-----4---|-------9------|-------5------|-------6------|
A|-------3------|-------4------|-------------2---|-------7------|-------3------|-------4------|
E|-------3------|-------4------|-------3---------|-------0------|-------3------|-------4------|


E|-------3---------|--------|--------|--------|--------|--------|--------|--------|
B|-------3-----4---|--------|--------|--------|--------|--------|--------|--------|
G|-------0-----4---|--------|--------|--------|--------|--------|--------|--------|
D|-------0-----4---|--------|--------|--------|--------|--------|--------|--------|
A|-------------2---|--------|--------|--------|--------|--------|--------|--------|
E|-------3---------|--------|--------|--------|--------|--------|--------|--------|


E|--------|--------|--------|--------|--------|--------|--------|--------|--------|
B|--------|--------|--------|--------|--------|--------|--------|--------|--------|
G|--------|--------|--------|--------|--------|--------|--------|--------|--------|
D|--------|--------|--------|--------|--------|--------|--------|--------|--------|
A|--------|--------|--------|--------|--------|--------|--------|--------|--------|
E|--------|--------|--------|--------|--------|--------|--------|--------|--------|


E|--------|--------|--------|--------|--------|--------|--------|--------|--------|
B|--------|--------|--------|--------|--------|--------|--------|--------|--------|
G|--------|--------|--------|--------|--------|--------|--------|--------|--------|
D|--------|--------|--------|--------|--------|--------|--------|--------|--------|
A|--------|--------|--------|--------|--------|--------|--------|--------|--------|
E|--------|--------|--------|--------|--------|--------|--------|--------|--------|


E|--------|--------|--------|--------|--------|--------|--------|--------|--------|
B|--------|--------|--------|--------|--------|--------|--------|--------|--------|
G|--------|--------|--------|--------|--------|--------|--------|--------|--------|
D|--------|--------|--------|--------|--------|--------|--------|--------|--------|
A|--------|--------|--------|--------|--------|--------|--------|--------|--------|
E|--------|--------|--------|--------|--------|--------|--------|--------|--------|


E|--------|--------|--------|--------|--------|--------|----------------|---------------------------------|
B|--------|--------|--------|--------|--------|--------|----------------|-7-------------------------------|
G|--------|--------|--------|--------|--------|--------|----------------|-----7---------------------------|
D|--------|--------|--------|--------|--------|--------|------------5---|---------------------------------|
A|--------|--------|--------|--------|--------|--------|--------3-------|---------0---3---2---------------|
E|--------|--------|--------|--------|--------|--------|----------------|---------------------0---0---7---|


E|--------------------------------|---------------------|-----------------|--------|
B|--------------------------------|---------------------|-----------------|--------|
G|-----------------7--9--7--------|---------------------|-----------------|--------|
D|-----------------7--9--7---10---|------9-----7---7----|------5----------|--------|
A|-9---10------5-------------8----|------8-----8---8----|------5----------|--------|
E|---------3----------------------|---------------------|-----------------|--------|


E|--------|--------|--------|--------|--------|--------|------------------|---------------------------------------|
B|--------|--------|--------|--------|--------|--------|------------------|---------------------------------------|
G|--------|--------|--------|--------|--------|--------|------------------|-7---5---------2---------2-------------|
D|--------|--------|--------|--------|--------|--------|------------------|-7---7---------2---------2-------------|
A|--------|--------|--------|--------|--------|--------|--------0--0--0---|---------0--0--0---0--0--0---0--0--0---|
E|--------|--------|--------|--------|--------|--------|------------------|---------------------------------------|


E|---------------------------------------|---------------------------------------|
B|---------------------------------------|---------------------------------------|
G|-4---5---------2---------2-------------|-4---5---------2---------2-------------|
D|-5---5---------2---------2-------------|-4---4---------2---------2-------------|
A|---------0--0--0---0--0--0---0--0--0---|---------0--0--0---0--0--0---0--0--0---|
E|---------------------------------------|---------------------------------------|


E|-----------------------------|--------------------------------|-------------|------------------------|
B|-6----6---8---8--------------|--------------------------------|-------------|------------------------|
G|-5----5---7---7--------------|-7---5-----------------5---5----|--------7----|------7---9----10--10---|
D|-3----3---5---5--------------|-7---7---------5---5---5---5----|--------7----|------7---9----10--10---|
A|-------------------0--0--0---|---------0--0--2---2---3---3----|--------5----|------5---7----8---8----|
E|-----------------------------|--------------------------------|-------------|------------------------|


E|--------------------------------|---------------------------------------|---------------------------------------|
B|--------------------------------|---------------------------------------|---------------------------------------|
G|------10--3------3--------------|---------------------------------------|---------------------------------------|
D|------10--3------3----0--2------|-----------------------------0--2------|-----------------------------0--2------|
A|------8---1------1----0--2--2---|-2---2---2---2--2--2---2--2--0--2--2---|-2---2---2---2--2--2---2--2--0--2--2---|
E|----------1------1----------0---|-0---0---0---0--0--0---0--0--------0---|-0---0---0---0--0--0---0--0--------0---|


E|---------------------------------------|-----------------------------|---------------------------------------|
B|---------------------------------------|-----------------------------|---------------------------------------|
G|---------------------------------------|--------------9--------------|---------------------------------------|
D|-----------------------------0--2------|--------------9----0--2------|-----------------------------0--2------|
A|-2---2---2---2--2--2---2--2--0--2--2---|-2---2---2----7----0--2--2---|-2---2---2---2--2--2---2--2--0--2--2---|
E|-0---0---0---0--0--0---0--0--------0---|-0---0---0----0----------0---|-0---0---0---0--0--0---0--0--------0---|


E|---------------------------------------|---------------------------------------|
B|---------------------------------------|---------------------------------------|
G|---------------------------------------|---------------------------------------|
D|-----------------------------0--2------|-----------------------------0--2------|
A|-2---2---2---2--2--2---2--2--0--2--2---|-2---2---2---2--2--2---2--2--0--2--2---|
E|-0---0---0---0--0--0---0--0--------0---|-0---0---0---0--0--0---0--0--------0---|


E|-----------------------------|---------------------------------------|---------------------------------------|
B|-----------------------------|---------------------------------------|---------------------------------------|
G|--------------9--------------|---------------------------------------|---------------------------------------|
D|--------------9----0--2------|-----------------------------2--3------|-----------------------------3--4------|
A|-2---2---2----7----0--2--2---|-2---2---2--2--2---2--2--2---2--3--2---|-2---2---2--2--2---2--2--2---3--3--2---|
E|-0---0---0----0----------0---|-0---0---0--0--0---0--0--0---------0---|-0---0---0--0--0---0--0--0---------0---|


E|---------------------------------------|-------------------------------|---------------------------------------|
B|---------------------------------------|-------------------------------|---------------------------------------|
G|---------------------------------------|-------------------------------|---------------------------------------|
D|-----------------------------4--5------|-----------5----3----0--2------|-----------------------------2--3------|
A|-2---2---2--2--2---2--2--2---4--5--2---|-2---2--2--3----1----0--2--2---|-2---2---2--2--2---2--2--2---2--3--2---|
E|-0---0---0--0--0---0--0--0---------0---|-0---0--0--0----1----------0---|-0---0---0--0--0---0--0--0---------0---|


E|---------------------------------------|---------------------------------------|
B|---------------------------------------|---------------------------------------|
G|---------------------------------------|---------------------------------------|
D|-----------------------------3--4------|-----------------------------4--5------|
A|-2---2---2--2--2---2--2--2---3--3--2---|-2---2---2--2--2---2--2--2---4--5--2---|
E|-0---0---0--0--0---0--0--0---------0---|-0---0---0--0--0---0--0--0---------0---|


E|-------------------------------|-------------------------------------|-------------------------------------|
B|-------------------------------|-------------------------------------|-------------------------------------|
G|-------------------------------|-------------------9-----------------|-------------------10----------------|
D|-----------5----3----0--2------|-------------------9----0--0--2--3---|-------------------10---0--0--3--4---|
A|-2---2--2--3----1----0--2--2---|-2---2---2---------7----0--0--2--3---|-2---2---2---------8----0--0--3--3---|
E|-0---0--0--0----1----------0---|-0---0---0---0--0--------------------|-0---0---0---0--0--------------------|


E|-------------------------------------|-------------------------------------------|
B|-------------------------------------|-------------------------------------------|
G|-------------------11----------------|-------------------------------------------|
D|-------------------10---0--0--4--5---|-5----------2--5--------2--------0--2------|
A|-2---2---2---------9----0--0--4--5---|-5----0--3--------0--1-----------0--2--2---|
E|-0---0---0---0--0--------------------|---------------------------3--1--------0---|


E|-------------------------------------|-------------------------------------|-------------------------------------|
B|-------------------------------------|-------------------------------------|-------------------------------------|
G|-------------------9-----------------|-------------------10----------------|-------------------11----------------|
D|-------------------9----0--0--2--3---|-------------------10---0--0--3--4---|-------------------10---0--0--4--5---|
A|-2---2---2---------7----0--0--2--3---|-2---2---2---------8----0--0--3--3---|-2---2---2---------9----0--0--4--5---|
E|-0---0---0---0--0--------------------|-0---0---0---0--0--------------------|-0---0---0---0--0--------------------|


E|-------------------------------------------|-------------------------------------|
B|-------------------------------------------|-------------------------------------|
G|-------------------------------------------|-------------------9-----------------|
D|-5----------2--5--------2--------0--2------|-------------------9----0--0--2--3---|
A|-5----0--3--------0--1-----------0--2--2---|-2---2---2---------7----0--0--2--3---|
E|---------------------------3--1--------0---|-0---0---0---0--0--------------------|


E|--------------------|
B|--------------------|
G|--------------------|
D|--------------------|
A|-2---2--------------|
E|-0---0--------------|





Track 3: Distorted guitar (lead)

E|--------|--------|--------|--------|--------|--------|--------|--------|--------|
B|--------|--------|--------|--------|--------|--------|--------|--------|--------|
G|--------|--------|--------|--------|--------|--------|--------|--------|--------|
D|--------|--------|--------|--------|--------|--------|--------|--------|--------|
A|--------|--------|--------|--------|--------|--------|--------|--------|--------|
E|--------|--------|--------|--------|--------|--------|--------|--------|--------|


E|--------|--------|--------|--------|--------|--------|--------|--------|--------|
B|--------|--------|--------|--------|--------|--------|--------|--------|--------|
G|--------|--------|--------|--------|--------|--------|--------|--------|--------|
D|--------|--------|--------|--------|--------|--------|--------|--------|--------|
A|--------|--------|--------|--------|--------|--------|--------|--------|--------|
E|--------|--------|--------|--------|--------|--------|--------|--------|--------|


E|--------|--------|--------|--------|--------|--------|--------|--------|--------|
B|--------|--------|--------|--------|--------|--------|--------|--------|--------|
G|--------|--------|--------|--------|--------|--------|--------|--------|--------|
D|--------|--------|--------|--------|--------|--------|--------|--------|--------|
A|--------|--------|--------|--------|--------|--------|--------|--------|--------|
E|--------|--------|--------|--------|--------|--------|--------|--------|--------|


E|--------|--------|--------|--------|--------|--------|--------|--------|--------|
B|--------|--------|--------|--------|--------|--------|--------|--------|--------|
G|--------|--------|--------|--------|--------|--------|--------|--------|--------|
D|--------|--------|--------|--------|--------|--------|--------|--------|--------|
A|--------|--------|--------|--------|--------|--------|--------|--------|--------|
E|--------|--------|--------|--------|--------|--------|--------|--------|--------|


E|--------|--------|--------|--------|--------|--------|--------|--------|--------|
B|--------|--------|--------|--------|--------|--------|--------|--------|--------|
G|--------|--------|--------|--------|--------|--------|--------|--------|--------|
D|--------|--------|--------|--------|--------|--------|--------|--------|--------|
A|--------|--------|--------|--------|--------|--------|--------|--------|--------|
E|--------|--------|--------|--------|--------|--------|--------|--------|--------|


E|--------|--------|--------|--------|--------|--------|--------|--------|--------|
B|--------|--------|--------|--------|--------|--------|--------|--------|--------|
G|--------|--------|--------|--------|--------|--------|--------|--------|--------|
D|--------|--------|--------|--------|--------|--------|--------|--------|--------|
A|--------|--------|--------|--------|--------|--------|--------|--------|--------|
E|--------|--------|--------|--------|--------|--------|--------|--------|--------|


E|--------|--------|--------|--------|--------|--------|--------|--------|--------|
B|--------|--------|--------|--------|--------|--------|--------|--------|--------|
G|--------|--------|--------|--------|--------|--------|--------|--------|--------|
D|--------|--------|--------|--------|--------|--------|--------|--------|--------|
A|--------|--------|--------|--------|--------|--------|--------|--------|--------|
E|--------|--------|--------|--------|--------|--------|--------|--------|--------|


E|--------|--------|--------|--------|----------7--------------7--------------7--------|
B|--------|--------|--------|--------|----5--------5--7--5-----------7--5--------5-----|
G|--------|--------|--------|--------|-4-----4--------------4-----4--------4--------4--|
D|--------|--------|--------|--------|-------------------------------------------------|
A|--------|--------|--------|--------|-------------------------------------------------|
E|--------|--------|--------|--------|-------------------------------------------------|


E|----------8--------------8--------------8--------|----------12-------------12-------------12-------|
B|-7--5-----------7--5-----------7--5--------5-----|-12-10----------12-10----------12-10-------10----|
G|-------5-----5--------5-----5--------5--------5--|-------9-----9--------9-----9--------9--------9--|
D|-------------------------------------------------|-------------------------------------------------|
A|-------------------------------------------------|-------------------------------------------------|
E|-------------------------------------------------|-------------------------------------------------|


E|-------------------------8--------7--5-----------|----------7--------------7--------------7--------|
B|-8-----7--5-----7--8--------7-----------5--8--7--|-7--5--------5--7--5-----------7--5--------5-----|
G|----5--------5--------5--------5-----------------|-------4--------------4-----4--------4--------4--|
D|-------------------------------------------------|-------------------------------------------------|
A|-------------------------------------------------|-------------------------------------------------|
E|-------------------------------------------------|-------------------------------------------------|


E|----------8--------------8--------------8--------|----------12-------------12-------------12-------|
B|-7--5-----------7--5-----------7--5--------5-----|-12-10----------12-10----------12-10-------10----|
G|-------5-----5--------5-----5--------5--------5--|-------9-----9--------9-----9--------9--------9--|
D|-------------------------------------------------|-------------------------------------------------|
A|-------------------------------------------------|-------------------------------------------------|
E|-------------------------------------------------|-------------------------------------------------|


E|-------------------------14----12-10----12-14----|--------|--------|--------|--------|
B|----------------------------10-------10-------10-|--------|--------|--------|--------|
G|-12----11-9-----11-12----------------------------|--------|--------|--------|--------|
D|----10-------10-------10-------------------------|--------|--------|--------|--------|
A|-------------------------------------------------|--------|--------|--------|--------|
E|-------------------------------------------------|--------|--------|--------|--------|


E|--------|--------|--------|--------|--------|--------|--------|--------|--------|
B|--------|--------|--------|--------|--------|--------|--------|--------|--------|
G|--------|--------|--------|--------|--------|--------|--------|--------|--------|
D|--------|--------|--------|--------|--------|--------|--------|--------|--------|
A|--------|--------|--------|--------|--------|--------|--------|--------|--------|
E|--------|--------|--------|--------|--------|--------|--------|--------|--------|


E|--------|--------|-------------------------------|----------------------------|-----------------------------------------------17181919--|
B|--------|--------|-------------------------13-12-|-12----12-13-15---13-12-----|-------------------------------1617181918191819----------|
G|--------|--------|-------------10-------9--------|------------------------14--|-14------------1416171917161719--------------------------|
D|--------|--------|----------------9--10----------|----------------------------|-----1715141517------------------------------------------|
A|--------|--------|-------7--8--------------------|----------------------------|---------------------------------------------------------|
E|--------|--------|-------------------------------|----------------------------|---------------------------------------------------------|


E|----------------|--------------|--------|--------|--------|--------|--------|--------|
B|----------------|--------------|--------|--------|--------|--------|--------|--------|
G|----------------|--------------|--------|--------|--------|--------|--------|--------|
D|----------------|--------------|--------|--------|--------|--------|--------|--------|
A|----------------|--------------|--------|--------|--------|--------|--------|--------|
E|----------------|--------------|--------|--------|--------|--------|--------|--------|


E|--------|--------|--------|--------|--------|--------|--------|--------|--------|
B|--------|--------|--------|--------|--------|--------|--------|--------|--------|
G|--------|--------|--------|--------|--------|--------|--------|--------|--------|
D|--------|--------|--------|--------|--------|--------|--------|--------|--------|
A|--------|--------|--------|--------|--------|--------|--------|--------|--------|
E|--------|--------|--------|--------|--------|--------|--------|--------|--------|


E|--------|--------|--------|--------|--------|--------|--------|--------|--------|
B|--------|--------|--------|--------|--------|--------|--------|--------|--------|
G|--------|--------|--------|--------|--------|--------|--------|--------|--------|
D|--------|--------|--------|--------|--------|--------|--------|--------|--------|
A|--------|--------|--------|--------|--------|--------|--------|--------|--------|
E|--------|--------|--------|--------|--------|--------|--------|--------|--------|


E|--------|--------|--------|--------|----------------7--------------7-----|----------7-----------------8--------------8-----|
B|--------|--------|--------|--------|----------5--------5--7--5-----------|-7--5--------5-----7--5-----------7--5-----------|
G|--------|--------|--------|--------|-------4-----4--------------4-----4--|-------4--------4--------5-----5--------5-----5--|
D|--------|--------|--------|--------|-------------------------------------|-------------------------------------------------|
A|--------|--------|--------|--------|-------------------------------------|-------------------------------------------------|
E|--------|--------|--------|--------|-------------------------------------|-------------------------------------------------|


E|----------8-----------------12-------------12----|----------12-------------------------------------|
B|-7--5--------5-----12-10----------12-10----------|-12-10-------10----8-----7--5-----7--8-----------|
G|-------5--------5--------9-----9--------9-----9--|-------9--------9-----5--------5--------5--------|
D|-------------------------------------------------|-------------------------------------------------|
A|-------------------------------------------------|-------------------------------------------7--8--|
E|-------------------------------------------------|-------------------------------------------------|


E|-----------------------------------|---------------------------------------------------|
B|-------------13-12-12----------15--|---------------------------------------------161718|
G|-10-------9--------------16-17-----|-----17-16-17--17------------1416171917161719------|
D|----9--11--------------------------|-------------------1715141517----------------------|
A|-----------------------------------|---------------------------------------------------|
E|-----------------------------------|---------------------------------------------------|


E|-----------17181919-----|----------------------|----------------------|--------|
B|-1918171819-------------|----------------------|-------10--10---------|--------|
G|------------------------|----------------------|----7-----------------|--------|
D|------------------------|------------9---9--7--|-9--------------------|--------|
A|------------------------|----------------------|----------------------|--------|
E|------------------------|----------------------|----------------------|--------|


E|--------|--------|--------|--------|--------|--------|--------|--------|--------|
B|--------|--------|--------|--------|--------|--------|--------|--------|--------|
G|--------|--------|--------|--------|--------|--------|--------|--------|--------|
D|--------|--------|--------|--------|--------|--------|--------|--------|--------|
A|--------|--------|--------|--------|--------|--------|--------|--------|--------|
E|--------|--------|--------|--------|--------|--------|--------|--------|--------|


E|--------|--------|--------|--------|--------|--------|--------|--------|--------|
B|--------|--------|--------|--------|--------|--------|--------|--------|--------|
G|--------|--------|--------|--------|--------|--------|--------|--------|--------|
D|--------|--------|--------|--------|--------|--------|--------|--------|--------|
A|--------|--------|--------|--------|--------|--------|--------|--------|--------|
E|--------|--------|--------|--------|--------|--------|--------|--------|--------|


E|--------|--------|--------|--------|----------------|------------------------|------------------------|
B|--------|--------|--------|--------|--------7----7--|-7---5---5---------7----|-7---5---5--------------|
G|--------|--------|--------|--------|----------------|-------------4----------|-------------5-----9----|
D|--------|--------|--------|--------|----------------|------------------------|------------------------|
A|--------|--------|--------|--------|----------------|------------------------|------------------------|
E|--------|--------|--------|--------|----------------|------------------------|------------------------|


E|-----9---9-----10--10-9--7-----------|-------------------------14---14-|-14--12--12--------14---|
B|----------------------------10-8--7--|---------------------------------|-------------12---------|
G|-9-----------------------------------|-9--7--6-------------------------|------------------------|
D|-------------------------------------|----------9--7--5----------------|------------------------|
A|-------------------------------------|-------------------9-------------|------------------------|
E|-------------------------------------|---------------------------------|------------------------|


E|-14--12--12--------16-12-16-12----12-|-16-12-16-12----12-17-12-17-12----12-16-12-16-12----12-14151412--------|
B|-------------13----------------14----|-------------14----------------14----------------14------------15131210|
G|-------------------------------------|-----------------------------------------------------------------------|
D|-------------------------------------|-----------------------------------------------------------------------|
A|-------------------------------------|-----------------------------------------------------------------------|
E|-------------------------------------|-----------------------------------------------------------------------|


E|------------------------------------------------------|-------------|-------------|
B|-12131210---------------------------------------------|-------------|-------------|
G|---------12119-8-9-119-8------------------------------|-------------|-------------|
D|-------------------------109-7-5-7-9-7-5--------------|-------------|-------------|
A|-----------------------------------------9-7-6-7-7----|-------------|-------------|
E|------------------------------------------------------|-------------|-------------|


E|-------------|--------|--------|--------|--------|--------|--------|--------|--------|
B|-------------|--------|--------|--------|--------|--------|--------|--------|--------|
G|-------------|--------|--------|--------|--------|--------|--------|--------|--------|
D|-------------|--------|--------|--------|--------|--------|--------|--------|--------|
A|-------------|--------|--------|--------|--------|--------|--------|--------|--------|
E|-------------|--------|--------|--------|--------|--------|--------|--------|--------|


E|--------|--------|--------|--------|--------5----|----------7-------8---8----|------8---------10---|
B|--------|--------|--------|--------|--------8----|----------10------11--11---|------11--------13---|
G|--------|--------|--------|--------|-------------|---------------------------|---------------------|
D|--------|--------|--------|--------|-------------|---------------------------|---------------------|
A|--------|--------|--------|--------|-------------|---------------------------|---------------------|
E|--------|--------|--------|--------|-------------|---------------------------|---------------------|


E|----------12------13--13---|---------------------------|--------|--------|--------|
B|----------15------16--16---|----------11-----11--------|--------|--------|--------|
G|---------------------------|----------13-----13--------|--------|--------|--------|
D|---------------------------|---------------------------|--------|--------|--------|
A|---------------------------|---------------------------|--------|--------|--------|
E|---------------------------|---------------------------|--------|--------|--------|


E|--------|--------|--------|--------|--------|--------|--------|--------|--------|
B|--------|--------|--------|--------|--------|--------|--------|--------|--------|
G|--------|--------|--------|--------|--------|--------|--------|--------|--------|
D|--------|--------|--------|--------|--------|--------|--------|--------|--------|
A|--------|--------|--------|--------|--------|--------|--------|--------|--------|
E|--------|--------|--------|--------|--------|--------|--------|--------|--------|


E|--------|--------|--------|--------|--------|--------|--------|--------|--------|
B|--------|--------|--------|--------|--------|--------|--------|--------|--------|
G|--------|--------|--------|--------|--------|--------|--------|--------|--------|
D|--------|--------|--------|--------|--------|--------|--------|--------|--------|
A|--------|--------|--------|--------|--------|--------|--------|--------|--------|
E|--------|--------|--------|--------|--------|--------|--------|--------|--------|


E|--------|--------|--------|--------|--------|
B|--------|--------|--------|--------|--------|
G|--------|--------|--------|--------|--------|
D|--------|--------|--------|--------|--------|
A|--------|--------|--------|--------|--------|
E|--------|--------|--------|--------|--------|





Track 4: Clean guitar

E|--------|--------|--------|--------|--------|--------|--------|--------|--------|
B|--------|--------|--------|--------|--------|--------|--------|--------|--------|
G|--------|--------|--------|--------|--------|--------|--------|--------|--------|
D|--------|--------|--------|--------|--------|--------|--------|--------|--------|
A|--------|--------|--------|--------|--------|--------|--------|--------|--------|
E|--------|--------|--------|--------|--------|--------|--------|--------|--------|


E|--------|--------|--------|--------|--------|--------|--------|--------|--------|
B|--------|--------|--------|--------|--------|--------|--------|--------|--------|
G|--------|--------|--------|--------|--------|--------|--------|--------|--------|
D|--------|--------|--------|--------|--------|--------|--------|--------|--------|
A|--------|--------|--------|--------|--------|--------|--------|--------|--------|
E|--------|--------|--------|--------|--------|--------|--------|--------|--------|


E|--------|--------|--------|--------|--------|--------|--------|--------|--------|
B|--------|--------|--------|--------|--------|--------|--------|--------|--------|
G|--------|--------|--------|--------|--------|--------|--------|--------|--------|
D|--------|--------|--------|--------|--------|--------|--------|--------|--------|
A|--------|--------|--------|--------|--------|--------|--------|--------|--------|
E|--------|--------|--------|--------|--------|--------|--------|--------|--------|


E|--------|--------|--------|--------|--------|--------|--------|--------|--------|
B|--------|--------|--------|--------|--------|--------|--------|--------|--------|
G|--------|--------|--------|--------|--------|--------|--------|--------|--------|
D|--------|--------|--------|--------|--------|--------|--------|--------|--------|
A|--------|--------|--------|--------|--------|--------|--------|--------|--------|
E|--------|--------|--------|--------|--------|--------|--------|--------|--------|


E|--------|--------|--------|--------|--------|--------|--------|--------|--------|
B|--------|--------|--------|--------|--------|--------|--------|--------|--------|
G|--------|--------|--------|--------|--------|--------|--------|--------|--------|
D|--------|--------|--------|--------|--------|--------|--------|--------|--------|
A|--------|--------|--------|--------|--------|--------|--------|--------|--------|
E|--------|--------|--------|--------|--------|--------|--------|--------|--------|


E|--------|--------|--------|--------|--------|--------|--------|--------|--------|
B|--------|--------|--------|--------|--------|--------|--------|--------|--------|
G|--------|--------|--------|--------|--------|--------|--------|--------|--------|
D|--------|--------|--------|--------|--------|--------|--------|--------|--------|
A|--------|--------|--------|--------|--------|--------|--------|--------|--------|
E|--------|--------|--------|--------|--------|--------|--------|--------|--------|


E|--------|--------|--------|--------|--------|--------|--------|--------|--------|
B|--------|--------|--------|--------|--------|--------|--------|--------|--------|
G|--------|--------|--------|--------|--------|--------|--------|--------|--------|
D|--------|--------|--------|--------|--------|--------|--------|--------|--------|
A|--------|--------|--------|--------|--------|--------|--------|--------|--------|
E|--------|--------|--------|--------|--------|--------|--------|--------|--------|


E|--------|--------|--------|--------|-------------------------------------------------|
B|--------|--------|--------|--------|-------------------------------------------------|
G|--------|--------|--------|--------|-------------------------------------------------|
D|--------|--------|--------|--------|-------------------------------------------------|
A|--------|--------|--------|--------|-2--2--2--2--2--2--2--2--2--2--2--2--2--2--2--2--|
E|--------|--------|--------|--------|-0--0--0--0--0--0--0--0--0--0--0--0--0--0--0--0--|


E|-------------------------------------------------|-------------------------------------------------|
B|-------------------------------------------------|-------------------------------------------------|
G|-------------------------------------------------|-------------------------------------------------|
D|-7--7--7--7--7--7--7--7--7--7--7--7--7--7--7--7--|-7--7--7--7--7--7--7--7--7--7--7--7--7--7--7--7--|
A|-5--5--5--5--5--5--5--5--5--5--5--5--5--5--5--5--|-4--4--4--4--4--4--4--4--4--4--4--4--4--4--4--4--|
E|-5--5--5--5--5--5--5--5--5--5--5--5--5--5--5--5--|-------------------------------------------------|


E|-------------------------------------------------|-------------------------------------------------|
B|-------------------------------------------------|-------------------------------------------------|
G|-------------------------------------------------|-------------------------------------------------|
D|-5--5--5--5--5--5--5--5--5--5--5--5--5--5--5--5--|-------------------------------------------------|
A|-3--3--3--3--3--3--3--3--3--3--3--3--3--3--3--3--|-2--2--2--2--2--2--2--2--2--2--2--2--2--2--2--2--|
E|-------------------------------------------------|-0--0--0--0--0--0--0--0--0--0--0--0--0--0--0--0--|


E|-------------------------------------------------|-------------------------------------------------|
B|-------------------------------------------------|-------------------------------------------------|
G|-------------------------------------------------|-------------------------------------------------|
D|-------------------------------------------------|-5--5--5--5--5--5--5--5--5--5--5--5--5--5--5--5--|
A|-4--4--4--4--4--4--4--4--4--4--4--4--4--4--4--4--|-4--4--4--4--4--4--4--4--4--4--4--4--4--4--4--4--|
E|-2--2--2--2--2--2--2--2--2--2--2--2--2--2--2--2--|-------------------------------------------------|


E|-------------------------------------------------|--------|--------|--------|--------|
B|-------------------------------------------------|--------|--------|--------|--------|
G|-------------------------------------------------|--------|--------|--------|--------|
D|-5--5--5--5--5--5--5--5--------------------------|--------|--------|--------|--------|
A|-3--3--3--3--3--3--3--3--3--3--3--3--3--3--3--3--|--------|--------|--------|--------|
E|-------------------------1--1--1--1--1--1--1--1--|--------|--------|--------|--------|


E|--------|--------|--------|--------|--------|--------|--------|--------|--------|
B|--------|--------|--------|--------|--------|--------|--------|--------|--------|
G|--------|--------|--------|--------|--------|--------|--------|--------|--------|
D|--------|--------|--------|--------|--------|--------|--------|--------|--------|
A|--------|--------|--------|--------|--------|--------|--------|--------|--------|
E|--------|--------|--------|--------|--------|--------|--------|--------|--------|


E|--------|--------|--------|--------|--------|--------|--------|--------|--------|
B|--------|--------|--------|--------|--------|--------|--------|--------|--------|
G|--------|--------|--------|--------|--------|--------|--------|--------|--------|
D|--------|--------|--------|--------|--------|--------|--------|--------|--------|
A|--------|--------|--------|--------|--------|--------|--------|--------|--------|
E|--------|--------|--------|--------|--------|--------|--------|--------|--------|


E|--------|--------|--------|--------|--------|--------|--------|--------|--------|
B|--------|--------|--------|--------|--------|--------|--------|--------|--------|
G|--------|--------|--------|--------|--------|--------|--------|--------|--------|
D|--------|--------|--------|--------|--------|--------|--------|--------|--------|
A|--------|--------|--------|--------|--------|--------|--------|--------|--------|
E|--------|--------|--------|--------|--------|--------|--------|--------|--------|


E|--------|--------|--------|--------|--------|--------|--------|--------|--------|
B|--------|--------|--------|--------|--------|--------|--------|--------|--------|
G|--------|--------|--------|--------|--------|--------|--------|--------|--------|
D|--------|--------|--------|--------|--------|--------|--------|--------|--------|
A|--------|--------|--------|--------|--------|--------|--------|--------|--------|
E|--------|--------|--------|--------|--------|--------|--------|--------|--------|


E|--------|--------|--------|--------|--------|--------|--------|--------|--------|
B|--------|--------|--------|--------|--------|--------|--------|--------|--------|
G|--------|--------|--------|--------|--------|--------|--------|--------|--------|
D|--------|--------|--------|--------|--------|--------|--------|--------|--------|
A|--------|--------|--------|--------|--------|--------|--------|--------|--------|
E|--------|--------|--------|--------|--------|--------|--------|--------|--------|


E|--------|--------|--------|--------|--------|--------|--------|--------|--------|
B|--------|--------|--------|--------|--------|--------|--------|--------|--------|
G|--------|--------|--------|--------|--------|--------|--------|--------|--------|
D|--------|--------|--------|--------|--------|--------|--------|--------|--------|
A|--------|--------|--------|--------|--------|--------|--------|--------|--------|
E|--------|--------|--------|--------|--------|--------|--------|--------|--------|


E|--------|--------|--------|--------|--------|--------|--------|--------|--------|
B|--------|--------|--------|--------|--------|--------|--------|--------|--------|
G|--------|--------|--------|--------|--------|--------|--------|--------|--------|
D|--------|--------|--------|--------|--------|--------|--------|--------|--------|
A|--------|--------|--------|--------|--------|--------|--------|--------|--------|
E|--------|--------|--------|--------|--------|--------|--------|--------|--------|


E|--------|--------|--------|--------|--------|--------|--------|--------|--------|
B|--------|--------|--------|--------|--------|--------|--------|--------|--------|
G|--------|--------|--------|--------|--------|--------|--------|--------|--------|
D|--------|--------|--------|--------|--------|--------|--------|--------|--------|
A|--------|--------|--------|--------|--------|--------|--------|--------|--------|
E|--------|--------|--------|--------|--------|--------|--------|--------|--------|


E|--------|--------|--------|--------|--------|--------|--------|--------|--------|
B|--------|--------|--------|--------|--------|--------|--------|--------|--------|
G|--------|--------|--------|--------|--------|--------|--------|--------|--------|
D|--------|--------|--------|--------|--------|--------|--------|--------|--------|
A|--------|--------|--------|--------|--------|--------|--------|--------|--------|
E|--------|--------|--------|--------|--------|--------|--------|--------|--------|


E|--------|--------|--------|--------|--------|--------|--------|--------|--------|
B|--------|--------|--------|--------|--------|--------|--------|--------|--------|
G|--------|--------|--------|--------|--------|--------|--------|--------|--------|
D|--------|--------|--------|--------|--------|--------|--------|--------|--------|
A|--------|--------|--------|--------|--------|--------|--------|--------|--------|
E|--------|--------|--------|--------|--------|--------|--------|--------|--------|


E|--------|--------|--------|--------|--------|--------|--------|--------|--------|
B|--------|--------|--------|--------|--------|--------|--------|--------|--------|
G|--------|--------|--------|--------|--------|--------|--------|--------|--------|
D|--------|--------|--------|--------|--------|--------|--------|--------|--------|
A|--------|--------|--------|--------|--------|--------|--------|--------|--------|
E|--------|--------|--------|--------|--------|--------|--------|--------|--------|


E|--------|--------|--------|--------|--------|--------|--------|--------|--------|
B|--------|--------|--------|--------|--------|--------|--------|--------|--------|
G|--------|--------|--------|--------|--------|--------|--------|--------|--------|
D|--------|--------|--------|--------|--------|--------|--------|--------|--------|
A|--------|--------|--------|--------|--------|--------|--------|--------|--------|
E|--------|--------|--------|--------|--------|--------|--------|--------|--------|


E|--------|--------|--------|--------|--------|--------|--------|--------|--------|
B|--------|--------|--------|--------|--------|--------|--------|--------|--------|
G|--------|--------|--------|--------|--------|--------|--------|--------|--------|
D|--------|--------|--------|--------|--------|--------|--------|--------|--------|
A|--------|--------|--------|--------|--------|--------|--------|--------|--------|
E|--------|--------|--------|--------|--------|--------|--------|--------|--------|


E|--------|--------|--------|--------|--------|--------|--------|--------|--------|
B|--------|--------|--------|--------|--------|--------|--------|--------|--------|
G|--------|--------|--------|--------|--------|--------|--------|--------|--------|
D|--------|--------|--------|--------|--------|--------|--------|--------|--------|
A|--------|--------|--------|--------|--------|--------|--------|--------|--------|
E|--------|--------|--------|--------|--------|--------|--------|--------|--------|


E|--------|--------|--------|--------|--------|
B|--------|--------|--------|--------|--------|
G|--------|--------|--------|--------|--------|
D|--------|--------|--------|--------|--------|
A|--------|--------|--------|--------|--------|
E|--------|--------|--------|--------|--------|





Track 5: Clean guitar

E|--------|--------|--------|--------|--------|--------|--------|--------|--------|
B|--------|--------|--------|--------|--------|--------|--------|--------|--------|
G|--------|--------|--------|--------|--------|--------|--------|--------|--------|
D|--------|--------|--------|--------|--------|--------|--------|--------|--------|
A|--------|--------|--------|--------|--------|--------|--------|--------|--------|
E|--------|--------|--------|--------|--------|--------|--------|--------|--------|


E|--------|--------|--------|--------|--------|--------|--------|--------|--------|
B|--------|--------|--------|--------|--------|--------|--------|--------|--------|
G|--------|--------|--------|--------|--------|--------|--------|--------|--------|
D|--------|--------|--------|--------|--------|--------|--------|--------|--------|
A|--------|--------|--------|--------|--------|--------|--------|--------|--------|
E|--------|--------|--------|--------|--------|--------|--------|--------|--------|


E|--------|--------|--------|--------|--------|--------|--------|--------|--------|
B|--------|--------|--------|--------|--------|--------|--------|--------|--------|
G|--------|--------|--------|--------|--------|--------|--------|--------|--------|
D|--------|--------|--------|--------|--------|--------|--------|--------|--------|
A|--------|--------|--------|--------|--------|--------|--------|--------|--------|
E|--------|--------|--------|--------|--------|--------|--------|--------|--------|


E|--------|--------|--------|--------|--------|--------|--------|--------|--------|
B|--------|--------|--------|--------|--------|--------|--------|--------|--------|
G|--------|--------|--------|--------|--------|--------|--------|--------|--------|
D|--------|--------|--------|--------|--------|--------|--------|--------|--------|
A|--------|--------|--------|--------|--------|--------|--------|--------|--------|
E|--------|--------|--------|--------|--------|--------|--------|--------|--------|


E|--------|--------|--------|--------|--------|--------|--------|--------|--------|
B|--------|--------|--------|--------|--------|--------|--------|--------|--------|
G|--------|--------|--------|--------|--------|--------|--------|--------|--------|
D|--------|--------|--------|--------|--------|--------|--------|--------|--------|
A|--------|--------|--------|--------|--------|--------|--------|--------|--------|
E|--------|--------|--------|--------|--------|--------|--------|--------|--------|


E|--------|--------|--------|--------|--------|--------|--------|--------|--------|
B|--------|--------|--------|--------|--------|--------|--------|--------|--------|
G|--------|--------|--------|--------|--------|--------|--------|--------|--------|
D|--------|--------|--------|--------|--------|--------|--------|--------|--------|
A|--------|--------|--------|--------|--------|--------|--------|--------|--------|
E|--------|--------|--------|--------|--------|--------|--------|--------|--------|


E|--------|--------|--------|--------|--------|--------|--------|--------|--------|
B|--------|--------|--------|--------|--------|--------|--------|--------|--------|
G|--------|--------|--------|--------|--------|--------|--------|--------|--------|
D|--------|--------|--------|--------|--------|--------|--------|--------|--------|
A|--------|--------|--------|--------|--------|--------|--------|--------|--------|
E|--------|--------|--------|--------|--------|--------|--------|--------|--------|


E|--------|--------|--------|--------|--------|--------|--------|--------|--------|
B|--------|--------|--------|--------|--------|--------|--------|--------|--------|
G|--------|--------|--------|--------|--------|--------|--------|--------|--------|
D|--------|--------|--------|--------|--------|--------|--------|--------|--------|
A|--------|--------|--------|--------|--------|--------|--------|--------|--------|
E|--------|--------|--------|--------|--------|--------|--------|--------|--------|


E|--------|--------|--------|--------|--------|--------|--------|--------|--------|
B|--------|--------|--------|--------|--------|--------|--------|--------|--------|
G|--------|--------|--------|--------|--------|--------|--------|--------|--------|
D|--------|--------|--------|--------|--------|--------|--------|--------|--------|
A|--------|--------|--------|--------|--------|--------|--------|--------|--------|
E|--------|--------|--------|--------|--------|--------|--------|--------|--------|


E|--------|--------|--------|--------|--------|--------|--------|--------|--------|
B|--------|--------|--------|--------|--------|--------|--------|--------|--------|
G|--------|--------|--------|--------|--------|--------|--------|--------|--------|
D|--------|--------|--------|--------|--------|--------|--------|--------|--------|
A|--------|--------|--------|--------|--------|--------|--------|--------|--------|
E|--------|--------|--------|--------|--------|--------|--------|--------|--------|


E|--------|--------|--------|--------|--------|--------|--------|--------|--------|
B|--------|--------|--------|--------|--------|--------|--------|--------|--------|
G|--------|--------|--------|--------|--------|--------|--------|--------|--------|
D|--------|--------|--------|--------|--------|--------|--------|--------|--------|
A|--------|--------|--------|--------|--------|--------|--------|--------|--------|
E|--------|--------|--------|--------|--------|--------|--------|--------|--------|


E|--------|--------|--------|--------|--------|--------|--------|--------|--------|
B|--------|--------|--------|--------|--------|--------|--------|--------|--------|
G|--------|--------|--------|--------|--------|--------|--------|--------|--------|
D|--------|--------|--------|--------|--------|--------|--------|--------|--------|
A|--------|--------|--------|--------|--------|--------|--------|--------|--------|
E|--------|--------|--------|--------|--------|--------|--------|--------|--------|


E|--------|--------|--------|--------|--------|--------|--------|--------|--------|
B|--------|--------|--------|--------|--------|--------|--------|--------|--------|
G|--------|--------|--------|--------|--------|--------|--------|--------|--------|
D|--------|--------|--------|--------|--------|--------|--------|--------|--------|
A|--------|--------|--------|--------|--------|--------|--------|--------|--------|
E|--------|--------|--------|--------|--------|--------|--------|--------|--------|


E|--------|--------|--------|--------|--------|--------|-------------------------------------|
B|--------|--------|--------|--------|--------|--------|-------------------------------------|
G|--------|--------|--------|--------|--------|--------|-------------------------------------|
D|--------|--------|--------|--------|--------|--------|-------------------------------------|
A|--------|--------|--------|--------|--------|--------|-------2--2--2--2--2--2--2--2--2--2--|
E|--------|--------|--------|--------|--------|--------|-------0--0--0--0--0--0--0--0--0--0--|


E|-------------------------------------------------|-------------------------------------------------|
B|-------------------------------------------------|-------------------------------------------------|
G|-------------------------------------------------|-------------------------------------------------|
D|-------------------------------------------------|-------------------5--5--5--5--5--5--5--5--5--5--|
A|-2--2--2--2--2--2--4--4--4--4--4--4--4--4--4--4--|-4--4--4--4--4--4--4--4--4--4--4--4--4--4--4--4--|
E|-0--0--0--0--0--0--2--2--2--2--2--2--2--2--2--2--|-2--2--2--2--2--2--------------------------------|


E|-------------------------------------------------|-------------------------------------------|
B|-------------------------------------------------|-------------------------------------------|
G|-------------------------------------------------|-------------5--4--------------------------|
D|-5--5--5--5--5--5--5--5--5--5--5--5--5--5--------|-3--------2--------------------------------|
A|-4--4--4--4--4--4--5--5--5--5--5--5--5--5--------|----2--3-----------2---------2---------2---|
E|-------------------------------------------0--1--|-------------------0---0--0--0---0--0--0---|


E|---------------------------------------|--------------------------|------5----3--------------|
B|---------------------------------------|--------------------------|-10---8----3--------------|
G|---------------------------------------|--------------------------|-9----7----5--------------|
D|---------------------------------------|-----------4----5----4----|-7----5----5----9---9--7--|
A|-------2---3---3---------3---------3---|-------3---2----3----2----|-7----5----3--------------|
E|-0--0--0---1---1---1--1--1---1--1--1---|-1--1--1------------------|--------------------------|


E|----------------------|--------|--------|--------|--------|--------|--------|--------|
B|----------------------|--------|--------|--------|--------|--------|--------|--------|
G|----7-----------------|--------|--------|--------|--------|--------|--------|--------|
D|-9-----9---9----------|--------|--------|--------|--------|--------|--------|--------|
A|----------------------|--------|--------|--------|--------|--------|--------|--------|
E|----------------------|--------|--------|--------|--------|--------|--------|--------|


E|--------|--------|--------|--------|--------|--------|--------|--------|--------|
B|--------|--------|--------|--------|--------|--------|--------|--------|--------|
G|--------|--------|--------|--------|--------|--------|--------|--------|--------|
D|--------|--------|--------|--------|--------|--------|--------|--------|--------|
A|--------|--------|--------|--------|--------|--------|--------|--------|--------|
E|--------|--------|--------|--------|--------|--------|--------|--------|--------|


E|--------|--------|--------|--------|--------|--------|--------|--------|--------|
B|--------|--------|--------|--------|--------|--------|--------|--------|--------|
G|--------|--------|--------|--------|--------|--------|--------|--------|--------|
D|--------|--------|--------|--------|--------|--------|--------|--------|--------|
A|--------|--------|--------|--------|--------|--------|--------|--------|--------|
E|--------|--------|--------|--------|--------|--------|--------|--------|--------|


E|--------|--------|--------|--------|--------|--------|--------|--------|--------|
B|--------|--------|--------|--------|--------|--------|--------|--------|--------|
G|--------|--------|--------|--------|--------|--------|--------|--------|--------|
D|--------|--------|--------|--------|--------|--------|--------|--------|--------|
A|--------|--------|--------|--------|--------|--------|--------|--------|--------|
E|--------|--------|--------|--------|--------|--------|--------|--------|--------|


E|--------|--------|--------|--------|--------|--------|--------|--------|--------|
B|--------|--------|--------|--------|--------|--------|--------|--------|--------|
G|--------|--------|--------|--------|--------|--------|--------|--------|--------|
D|--------|--------|--------|--------|--------|--------|--------|--------|--------|
A|--------|--------|--------|--------|--------|--------|--------|--------|--------|
E|--------|--------|--------|--------|--------|--------|--------|--------|--------|


E|--------|--------|--------|--------|--------|--------|--------|--------|--------|
B|--------|--------|--------|--------|--------|--------|--------|--------|--------|
G|--------|--------|--------|--------|--------|--------|--------|--------|--------|
D|--------|--------|--------|--------|--------|--------|--------|--------|--------|
A|--------|--------|--------|--------|--------|--------|--------|--------|--------|
E|--------|--------|--------|--------|--------|--------|--------|--------|--------|


E|--------|--------|--------|--------|--------|--------|--------|--------|--------|
B|--------|--------|--------|--------|--------|--------|--------|--------|--------|
G|--------|--------|--------|--------|--------|--------|--------|--------|--------|
D|--------|--------|--------|--------|--------|--------|--------|--------|--------|
A|--------|--------|--------|--------|--------|--------|--------|--------|--------|
E|--------|--------|--------|--------|--------|--------|--------|--------|--------|


E|--------|--------|--------|--------|--------|--------|--------|--------|--------|
B|--------|--------|--------|--------|--------|--------|--------|--------|--------|
G|--------|--------|--------|--------|--------|--------|--------|--------|--------|
D|--------|--------|--------|--------|--------|--------|--------|--------|--------|
A|--------|--------|--------|--------|--------|--------|--------|--------|--------|
E|--------|--------|--------|--------|--------|--------|--------|--------|--------|


E|--------|--------|--------|--------|--------|--------|--------|--------|
B|--------|--------|--------|--------|--------|--------|--------|--------|
G|--------|--------|--------|--------|--------|--------|--------|--------|
D|--------|--------|--------|--------|--------|--------|--------|--------|
A|--------|--------|--------|--------|--------|--------|--------|--------|
E|--------|--------|--------|--------|--------|--------|--------|--------|





Track 6: Untitled

G|--------|--------|--------|--------|--------|--------|--------|--------|--------|
D|--------|--------|--------|--------|--------|--------|--------|--------|--------|
A|--------|--------|--------|--------|--------|--------|--------|--------|--------|
E|--------|--------|--------|--------|--------|--------|--------|--------|--------|


G|--------|--------|--------|--------|--------|--------|--------|--------|--------|
D|--------|--------|--------|--------|--------|--------|--------|--------|--------|
A|--------|--------|--------|--------|--------|--------|--------|--------|--------|
E|--------|--------|--------|--------|--------|--------|--------|--------|--------|


G|--------|--------|--------|--------|--------|--------|--------|--------|--------|
D|--------|--------|--------|--------|--------|--------|--------|--------|--------|
A|--------|--------|--------|--------|--------|--------|--------|--------|--------|
E|--------|--------|--------|--------|--------|--------|--------|--------|--------|


G|--------|--------|--------|--------|--------|--------|--------|--------|--------|
D|--------|--------|--------|--------|--------|--------|--------|--------|--------|
A|--------|--------|--------|--------|--------|--------|--------|--------|--------|
E|--------|--------|--------|--------|--------|--------|--------|--------|--------|


G|--------|--------|--------|--------|--------|--------|--------|--------|--------|
D|--------|--------|--------|--------|--------|--------|--------|--------|--------|
A|--------|--------|--------|--------|--------|--------|--------|--------|--------|
E|--------|--------|--------|--------|--------|--------|--------|--------|--------|


G|--------|--------|--------|--------|--------|--------|--------|--------|--------|
D|--------|--------|--------|--------|--------|--------|--------|--------|--------|
A|--------|--------|--------|--------|--------|--------|--------|--------|--------|
E|--------|--------|--------|--------|--------|--------|--------|--------|--------|


G|--------|--------|--------|--------|--------|--------|--------|--------|--------|
D|--------|--------|--------|--------|--------|--------|--------|--------|--------|
A|--------|--------|--------|--------|--------|--------|--------|--------|--------|
E|--------|--------|--------|--------|--------|--------|--------|--------|--------|


G|--------|--------|--------|--------|--------|--------|--------|--------|--------|
D|--------|--------|--------|--------|--------|--------|--------|--------|--------|
A|--------|--------|--------|--------|--------|--------|--------|--------|--------|
E|--------|--------|--------|--------|--------|--------|--------|--------|--------|


G|--------|--------|--------|--------|--------|--------|--------|--------|--------|
D|--------|--------|--------|--------|--------|--------|--------|--------|--------|
A|--------|--------|--------|--------|--------|--------|--------|--------|--------|
E|--------|--------|--------|--------|--------|--------|--------|--------|--------|


G|--------|--------|--------|--------|--------|--------|--------|--------|--------|
D|--------|--------|--------|--------|--------|--------|--------|--------|--------|
A|--------|--------|--------|--------|--------|--------|--------|--------|--------|
E|--------|--------|--------|--------|--------|--------|--------|--------|--------|


G|--------|--------|--------|--------|--------|--------|--------|--------|--------|
D|--------|--------|--------|--------|--------|--------|--------|--------|--------|
A|--------|--------|--------|--------|--------|--------|--------|--------|--------|
E|--------|--------|--------|--------|--------|--------|--------|--------|--------|


G|--------|--------|--------|--------|--------|--------|--------|--------|--------|
D|--------|--------|--------|--------|--------|--------|--------|--------|--------|
A|--------|--------|--------|--------|--------|--------|--------|--------|--------|
E|--------|--------|--------|--------|--------|--------|--------|--------|--------|


G|--------|--------|--------|--------|--------|--------|--------|--------|--------|
D|--------|--------|--------|--------|--------|--------|--------|--------|--------|
A|--------|--------|--------|--------|--------|--------|--------|--------|--------|
E|--------|--------|--------|--------|--------|--------|--------|--------|--------|


G|--------|--------|--------|--------|--------|--------|--------|--------|--------|
D|--------|--------|--------|--------|--------|--------|--------|--------|--------|
A|--------|--------|--------|--------|--------|--------|--------|--------|--------|
E|--------|--------|--------|--------|--------|--------|--------|--------|--------|


G|--------|--------|--------|--------|--------|--------|--------|--------|--------|
D|--------|--------|--------|--------|--------|--------|--------|--------|--------|
A|--------|--------|--------|--------|--------|--------|--------|--------|--------|
E|--------|--------|--------|--------|--------|--------|--------|--------|--------|


G|--------|--------|--------|--------|--------|--------|--------|--------|--------|
D|--------|--------|--------|--------|--------|--------|--------|--------|--------|
A|--------|--------|--------|--------|--------|--------|--------|--------|--------|
E|--------|--------|--------|--------|--------|--------|--------|--------|--------|


G|--------|--------|--------|--------|--------|--------|--------|--------|--------|
D|--------|--------|--------|--------|--------|--------|--------|--------|--------|
A|--------|--------|--------|--------|--------|--------|--------|--------|--------|
E|--------|--------|--------|--------|--------|--------|--------|--------|--------|


G|--------|--------|--------|--------|--------|--------|--------|--------|--------|
D|--------|--------|--------|--------|--------|--------|--------|--------|--------|
A|--------|--------|--------|--------|--------|--------|--------|--------|--------|
E|--------|--------|--------|--------|--------|--------|--------|--------|--------|


G|--------|--------|--------|--------|--------|--------|--------|--------|--------|
D|--------|--------|--------|--------|--------|--------|--------|--------|--------|
A|--------|--------|--------|--------|--------|--------|--------|--------|--------|
E|--------|--------|--------|--------|--------|--------|--------|--------|--------|


G|--------|--------|--------|--------|--------|--------|--------|--------|--------|
D|--------|--------|--------|--------|--------|--------|--------|--------|--------|
A|--------|--------|--------|--------|--------|--------|--------|--------|--------|
E|--------|--------|--------|--------|--------|--------|--------|--------|--------|


G|--------|--------|--------|--------|--------|--------|--------|--------|--------|
D|--------|--------|--------|--------|--------|--------|--------|--------|--------|
A|--------|--------|--------|--------|--------|--------|--------|--------|--------|
E|--------|--------|--------|--------|--------|--------|--------|--------|--------|


G|--------|--------|--------|--------|--------|--------|--------|--------|--------|
D|--------|--------|--------|--------|--------|--------|--------|--------|--------|
A|--------|--------|--------|--------|--------|--------|--------|--------|--------|
E|--------|--------|--------|--------|--------|--------|--------|--------|--------|


G|--------|--------|--------|--------|--------|--------|--------|--------|--------|
D|--------|--------|--------|--------|--------|--------|--------|--------|--------|
A|--------|--------|--------|--------|--------|--------|--------|--------|--------|
E|--------|--------|--------|--------|--------|--------|--------|--------|--------|


G|--------|--------|--------|
D|--------|--------|--------|
A|--------|--------|--------|
E|--------|--------|--------|