Menu:

 

Search:

 

dream theater - pull me under:

 



Title: PULL ME UNDER
Artist: 
Album: Images And Words
Author: 


Track 1: Untitled

C|--------|--------|--------|--------|--------|--------|--------|--------|--------|
G|--------|--------|--------|--------|--------|--------|--------|--------|--------|
D|--------|--------|--------|--------|--------|--------|--------|--------|--------|
A|--------|--------|--------|--------|--------|--------|--------|--------|--------|
E|--------|--------|--------|--------|--------|--------|--------|--------|--------|
B|--------|--------|--------|--------|--------|--------|--------|--------|--------|


C|--------|--------|--------|--------|--------|--------|--------|--------|--------|
G|--------|--------|--------|--------|--------|--------|--------|--------|--------|
D|--------|--------|--------|--------|--------|--------|--------|--------|--------|
A|--------|--------|--------|--------|--------|--------|--------|--------|--------|
E|--------|--------|--------|--------|--------|--------|--------|--------|--------|
B|--------|--------|--------|--------|--------|--------|--------|--------|--------|


C|--------|--------|--------|--------|--------|--------|--------|--------|--------|
G|--------|--------|--------|--------|--------|--------|--------|--------|--------|
D|--------|--------|--------|--------|--------|--------|--------|--------|--------|
A|--------|--------|--------|--------|--------|--------|--------|--------|--------|
E|--------|--------|--------|--------|--------|--------|--------|--------|--------|
B|--------|--------|--------|--------|--------|--------|--------|--------|--------|


C|--------|--------|--------|--------|--------|--------|--------|--------|--------|
G|--------|--------|--------|--------|--------|--------|--------|--------|--------|
D|--------|--------|--------|--------|--------|--------|--------|--------|--------|
A|--------|--------|--------|--------|--------|--------|--------|--------|--------|
E|--------|--------|--------|--------|--------|--------|--------|--------|--------|
B|--------|--------|--------|--------|--------|--------|--------|--------|--------|


C|--------|--------|--------|--------|--------|--------|--------|--------|--------|
G|--------|--------|--------|--------|--------|--------|--------|--------|--------|
D|--------|--------|--------|--------|--------|--------|--------|--------|--------|
A|--------|--------|--------|--------|--------|--------|--------|--------|--------|
E|--------|--------|--------|--------|--------|--------|--------|--------|--------|
B|--------|--------|--------|--------|--------|--------|--------|--------|--------|


C|--------|--------|--------|--------|--------|--------|--------|--------|--------|
G|--------|--------|--------|--------|--------|--------|--------|--------|--------|
D|--------|--------|--------|--------|--------|--------|--------|--------|--------|
A|--------|--------|--------|--------|--------|--------|--------|--------|--------|
E|--------|--------|--------|--------|--------|--------|--------|--------|--------|
B|--------|--------|--------|--------|--------|--------|--------|--------|--------|


C|--------|--------|--------|--------|--------|--------|--------|--------|--------|
G|--------|--------|--------|--------|--------|--------|--------|--------|--------|
D|--------|--------|--------|--------|--------|--------|--------|--------|--------|
A|--------|--------|--------|--------|--------|--------|--------|--------|--------|
E|--------|--------|--------|--------|--------|--------|--------|--------|--------|
B|--------|--------|--------|--------|--------|--------|--------|--------|--------|


C|--------|--------|--------|--------|--------|--------|--------|--------|--------|
G|--------|--------|--------|--------|--------|--------|--------|--------|--------|
D|--------|--------|--------|--------|--------|--------|--------|--------|--------|
A|--------|--------|--------|--------|--------|--------|--------|--------|--------|
E|--------|--------|--------|--------|--------|--------|--------|--------|--------|
B|--------|--------|--------|--------|--------|--------|--------|--------|--------|


C|--------|--------|--------|--------|--------|--------|--------|--------|--------|
G|--------|--------|--------|--------|--------|--------|--------|--------|--------|
D|--------|--------|--------|--------|--------|--------|--------|--------|--------|
A|--------|--------|--------|--------|--------|--------|--------|--------|--------|
E|--------|--------|--------|--------|--------|--------|--------|--------|--------|
B|--------|--------|--------|--------|--------|--------|--------|--------|--------|


C|--------|--------|--------|--------|--------|--------|--------|--------|--------|
G|--------|--------|--------|--------|--------|--------|--------|--------|--------|
D|--------|--------|--------|--------|--------|--------|--------|--------|--------|
A|--------|--------|--------|--------|--------|--------|--------|--------|--------|
E|--------|--------|--------|--------|--------|--------|--------|--------|--------|
B|--------|--------|--------|--------|--------|--------|--------|--------|--------|


C|--------|--------|--------|--------|--------|--------|--------|--------|--------|
G|--------|--------|--------|--------|--------|--------|--------|--------|--------|
D|--------|--------|--------|--------|--------|--------|--------|--------|--------|
A|--------|--------|--------|--------|--------|--------|--------|--------|--------|
E|--------|--------|--------|--------|--------|--------|--------|--------|--------|
B|--------|--------|--------|--------|--------|--------|--------|--------|--------|


C|--------|--------|--------|--------|--------|--------|--------|--------|--------|
G|--------|--------|--------|--------|--------|--------|--------|--------|--------|
D|--------|--------|--------|--------|--------|--------|--------|--------|--------|
A|--------|--------|--------|--------|--------|--------|--------|--------|--------|
E|--------|--------|--------|--------|--------|--------|--------|--------|--------|
B|--------|--------|--------|--------|--------|--------|--------|--------|--------|


C|--------|--------|--------|--------|--------|--------|--------|--------|--------|
G|--------|--------|--------|--------|--------|--------|--------|--------|--------|
D|--------|--------|--------|--------|--------|--------|--------|--------|--------|
A|--------|--------|--------|--------|--------|--------|--------|--------|--------|
E|--------|--------|--------|--------|--------|--------|--------|--------|--------|
B|--------|--------|--------|--------|--------|--------|--------|--------|--------|


C|--------|--------|--------|--------|--------|--------|--------|--------|--------|
G|--------|--------|--------|--------|--------|--------|--------|--------|--------|
D|--------|--------|--------|--------|--------|--------|--------|--------|--------|
A|--------|--------|--------|--------|--------|--------|--------|--------|--------|
E|--------|--------|--------|--------|--------|--------|--------|--------|--------|
B|--------|--------|--------|--------|--------|--------|--------|--------|--------|


C|--------|--------|--------|--------|--------|--------|--------|--------|--------|
G|--------|--------|--------|--------|--------|--------|--------|--------|--------|
D|--------|--------|--------|--------|--------|--------|--------|--------|--------|
A|--------|--------|--------|--------|--------|--------|--------|--------|--------|
E|--------|--------|--------|--------|--------|--------|--------|--------|--------|
B|--------|--------|--------|--------|--------|--------|--------|--------|--------|


C|--------|--------|--------|--------|--------|--------|--------|--------|--------|
G|--------|--------|--------|--------|--------|--------|--------|--------|--------|
D|--------|--------|--------|--------|--------|--------|--------|--------|--------|
A|--------|--------|--------|--------|--------|--------|--------|--------|--------|
E|--------|--------|--------|--------|--------|--------|--------|--------|--------|
B|--------|--------|--------|--------|--------|--------|--------|--------|--------|


C|--------|--------|--------|--------|--------|--------|--------|--------|--------|
G|--------|--------|--------|--------|--------|--------|--------|--------|--------|
D|--------|--------|--------|--------|--------|--------|--------|--------|--------|
A|--------|--------|--------|--------|--------|--------|--------|--------|--------|
E|--------|--------|--------|--------|--------|--------|--------|--------|--------|
B|--------|--------|--------|--------|--------|--------|--------|--------|--------|


C|--------|--------|--------|--------|--------|--------|--------|--------|--------|
G|--------|--------|--------|--------|--------|--------|--------|--------|--------|
D|--------|--------|--------|--------|--------|--------|--------|--------|--------|
A|--------|--------|--------|--------|--------|--------|--------|--------|--------|
E|--------|--------|--------|--------|--------|--------|--------|--------|--------|
B|--------|--------|--------|--------|--------|--------|--------|--------|--------|


C|--------|--------|--------|--------|--------|--------|--------|--------|--------|
G|--------|--------|--------|--------|--------|--------|--------|--------|--------|
D|--------|--------|--------|--------|--------|--------|--------|--------|--------|
A|--------|--------|--------|--------|--------|--------|--------|--------|--------|
E|--------|--------|--------|--------|--------|--------|--------|--------|--------|
B|--------|--------|--------|--------|--------|--------|--------|--------|--------|


C|--------|--------|--------|--------|--------|--------|--------|--------|--------|
G|--------|--------|--------|--------|--------|--------|--------|--------|--------|
D|--------|--------|--------|--------|--------|--------|--------|--------|--------|
A|--------|--------|--------|--------|--------|--------|--------|--------|--------|
E|--------|--------|--------|--------|--------|--------|--------|--------|--------|
B|--------|--------|--------|--------|--------|--------|--------|--------|--------|


C|--------|--------|--------|--------|--------|--------|--------|--------|--------|
G|--------|--------|--------|--------|--------|--------|--------|--------|--------|
D|--------|--------|--------|--------|--------|--------|--------|--------|--------|
A|--------|--------|--------|--------|--------|--------|--------|--------|--------|
E|--------|--------|--------|--------|--------|--------|--------|--------|--------|
B|--------|--------|--------|--------|--------|--------|--------|--------|--------|


C|--------|--------|--------|--------|--------|--------|--------|--------|--------|
G|--------|--------|--------|--------|--------|--------|--------|--------|--------|
D|--------|--------|--------|--------|--------|--------|--------|--------|--------|
A|--------|--------|--------|--------|--------|--------|--------|--------|--------|
E|--------|--------|--------|--------|--------|--------|--------|--------|--------|
B|--------|--------|--------|--------|--------|--------|--------|--------|--------|


C|--------|--------|--------|--------|--------|--------|--------|--------|--------|
G|--------|--------|--------|--------|--------|--------|--------|--------|--------|
D|--------|--------|--------|--------|--------|--------|--------|--------|--------|
A|--------|--------|--------|--------|--------|--------|--------|--------|--------|
E|--------|--------|--------|--------|--------|--------|--------|--------|--------|
B|--------|--------|--------|--------|--------|--------|--------|--------|--------|


C|--------|--------|
G|--------|--------|
D|--------|--------|
A|--------|--------|
E|--------|--------|
B|--------|--------|





Track 2: Bass

C|--------|--------|--------|--------|--------|--------|--------|--------|--------|
G|--------|--------|--------|--------|--------|--------|--------|--------|--------|
D|--------|--------|--------|--------|--------|--------|--------|--------|--------|
A|--------|--------|--------|--------|--------|--------|--------|--------|--------|
E|--------|--------|--------|--------|--------|--------|--------|--------|--------|
B|--------|--------|--------|--------|--------|--------|--------|--------|--------|


C|--------|--------|--------|--------|--------|--------|--------|----------------|
G|--------|--------|--------|--------|--------|--------|--------|-14--12--12-----|
D|--------|--------|--------|--------|--------|--------|--------|----------------|
A|--------|--------|--------|--------|--------|--------|--------|----------------|
E|--------|--------|--------|--------|--------|--------|--------|----------------|
B|--------|--------|--------|--------|--------|--------|--------|----------------|


C|----------------|----------------|---------------------------|----------------|----------------|
G|-11--12--12-----|-----12--12-----|-----12--12--------14--16--|-14--12--12-----|-11--12--12-----|
D|----------------|-11-------------|-10------------12----------|----------------|----------------|
A|----------------|----------------|---------------------------|----------------|----------------|
E|----------------|----------------|---------------------------|----------------|----------------|
B|----------------|----------------|---------------------------|----------------|----------------|


C|----------------|---------------------------|---------------------------------------|
G|-----12--12-----|-----12--12--------14--16--|---------------------------------------|
D|-11-------------|-10------------12----------|-0--2----------------------------------|
A|----------------|---------------------------|---------------------------------------|
E|----------------|---------------------------|-------0---0---0---0---0--0--0---0--0--|
B|----------------|---------------------------|---------------------------------------|


C|---------------------------------------|---------------------------------------|
G|---------------------------------------|---------------------------------------|
D|-0--2----------------------------------|-0--2----------------------------------|
A|---------------------------------------|---------------------------------------|
E|-------0---0---0---0---0--0--0---0--0--|-------0---0---0---0---0--0--0---0--0--|
B|---------------------------------------|---------------------------------------|


C|--------------------------------|---------------------------------------|---------------------------------------|
G|--------------------------------|---------------------------------------|---------------------------------------|
D|-0--2---------------------------|-0--2----------------------------------|-0--2----------------------------------|
A|-----------3---3---3---5---5----|---------------------------------------|---------------------------------------|
E|-------0------------------------|-------0---0---0---0---0--0--0---0--0--|-------0---0---0---0---0--0--0---0--0--|
B|--------------------------------|---------------------------------------|---------------------------------------|


C|---------------------------------------|-------------------------------------|-----------------------------------|
G|---------------------------------------|-------------------------------------|-----------------------------------|
D|-0--2----------------------------------|-0--2--------------------------------|-----------------------------------|
A|---------------------------------------|-----------3---3---3-----------------|-----------------------------------|
E|-------0---0---0---0---0--0--0---0--0--|-------0---------------1---1--1--1---|-0--0--0---5---3---0---0---0---0---|
B|---------------------------------------|-------------------------------------|-----------------------------------|


C|-----------------------------------|-----------------------------------|--------------------------------|
G|-----------------------------------|-----------------------------------|--------------------------------|
D|-----------------------------------|-----------------------------------|--------------------------------|
A|-----------------------------------|-----------4-----------------------|-----------2---3-------5---5----|
E|-0--0--0---2---3---0---0---0---0---|-0--0--0-------3---0---0---0---0---|-0--0--0-----------0------------|
B|-----------------------------------|-----------------------------------|--------------------------------|


C|-----------------------------------|-----------------------------------|-----------------------------------|
G|-----------------------------------|-----------------------------------|-----------------------------------|
D|-----------------------------------|-----------------------------------|-----------------------------------|
A|-----------------------------------|-----------------------------------|-----------4-----------------------|
E|-0--0--0---5---3---0---0---0---0---|-0--0--0---2---3---0---0---0---0---|-0--0--0-------3---0---0---0---0---|
B|-----------------------------------|-----------------------------------|-----------------------------------|


C|--------------------------------|---------------------------------------|---------------------------------------|
G|--------------------------------|---------------------------------------|---------------------------------------|
D|--------------------------------|---------------------------------------|---------------------------------------|
A|-----------2---3----------------|-----------0---------------------------|---------------------------------------|
E|-0--0--0-----------0---1---1----|-0--0--0-------3---0--0--0---0--0--0---|-0--0--0---2---3---0--0--0---0--0--0---|
B|--------------------------------|---------------------------------------|---------------------------------------|


C|---------------------------------------|----------------------------------|---------------------------------------|
G|---------------------------------------|----------------------------------|---------------------------------------|
D|---------------------------------------|----------------------------------|---------------------------------------|
A|-----------4---------------------------|-----------2---3---------5---5----|-----------0---------------------------|
E|-0--0--0-------3---0--0--0---0--0--0---|-0--0--0-----------0--0-----------|-0--0--0-------3---0--0--0---0--0--0---|
B|---------------------------------------|----------------------------------|---------------------------------------|


C|---------------------------------------|---------------------------------------|
G|---------------------------------------|---------------------------------------|
D|---------------------------------------|---------------------------------------|
A|---------------------------------------|-----------4---------------------------|
E|-0--0--0---2---3---0--0--0---0--0--0---|-0--0--0-------3---0--0--0---0--0--0---|
B|---------------------------------------|---------------------------------------|


C|----------------------------------|-----------------------------------------|-----------------------------------------|
G|----------------------------------|-----------------------------------------|-----------------------------------------|
D|----------------------------------|-----------------------------------------|-----------------------------------------|
A|-----------2---3------------------|-----------------------------------------|-----------------------------------------|
E|-0--0--0-----------0--0--1---1----|-----0--0------0--0------0--0------0--0--|-----0--0------0--0------0--0------0--0--|
B|----------------------------------|-----------------------------------------|-----------------------------------------|


C|-----------------------------------------|-----------------------------------------|
G|-----------------------------------------|-----------------------------------------|
D|-----------------------------------------|-----------------------------------------|
A|-----------------------------------------|-----------------------------------------|
E|-----0--0------0--0------0--0------0--0--|-----0--0--0---0--0------0--0--0---0--0--|
B|-----------------------------------------|-----------------------------------------|


C|-----------------------------------------|-----------------------------------------|
G|-----------------------------------------|-----------------------------------------|
D|-----------------------------------------|-----------------------------------------|
A|-----------------------------------------|-----------------------------------------|
E|-----0--0--0---0--0------0--0--0---0--0--|-----0--0--0---0--0------0--0--0---0--0--|
B|-----------------------------------------|-----------------------------------------|


C|-----------------------------------------|-----------------------------------------|
G|-----------------------------------------|-----------------------------------------|
D|-----------------------------------------|-----------------------------------------|
A|-----------------------------------------|-----------------------------------------|
E|-----0--0--0---0--0------0--0--0---0--0--|-----0--0--0---0--0------0--0--0---0--0--|
B|-----------------------------------------|-----------------------------------------|


C|-----------------------------------------|-----------------------------------------|
G|-----------------------------------------|-----------------------------------------|
D|-----------------------------------------|-----------------------------------------|
A|-----------------------------------------|-----------------------------------------|
E|-----0--0--0---0--0------0--0--0---0--0--|-----0--0--0---0--0------0--0--0---0--0--|
B|-----------------------------------------|-----------------------------------------|


C|-----------------------------------------|-------------------------------------------------|
G|-----------------------------------------|-------------------------------------------------|
D|-----------------------------------------|-------------------------------------------------|
A|-----------------------------------------|-------------------------------------------------|
E|-----0--0--0---0--0------0--0--0---0--0--|-0--0--0--0--0--0--0--0--0--0--0--0--0--0--0--0--|
B|-----------------------------------------|-------------------------------------------------|


C|-------------------------------------------------|-------------------------------------------------|
G|-------------------------------------------------|-------------------------------------------------|
D|-------------------------------------------------|-------------------------------------------------|
A|-3--3--3--3--3--3--3--3--3--3--3--3--3--3--3--3--|-4--4--4--4--4--4--4--4--4--4--4--4--4--4--4--4--|
E|-------------------------------------------------|-------------------------------------------------|
B|-------------------------------------------------|-------------------------------------------------|


C|-------------------------------------------------|-------------------------------------|
G|-------------------------------------------------|-------------------------------------|
D|-------------------------------------------------|-------------2---2-------------------|
A|-------------------------2--2--2--2--2--2--2--2--|-------------------------------------|
E|-3--3--3--3--3--3--3--3--------------------------|-0----0--0-----------0--0--0---0--0--|
B|-------------------------------------------------|-------------------------------------|


C|------------------------------|-------------------------------------------------|
G|------------------------------|-------------------------------------------------|
D|------------------------------|-------------------------------------------------|
A|-3---3---3---3---3---3---3----|-4--4--4--4--4--4--4--4--4--4--4--4--4--4--4--4--|
E|------------------------------|-------------------------------------------------|
B|------------------------------|-------------------------------------------------|


C|-------------------------------------------------|-------------------------------------------------|
G|-------------------------------------------------|-------------------------------------------------|
D|-------------------------------------------------|-------------------------------------------------|
A|-------------------------2--2--2--2--2--2--2--2--|-------------------------------------------------|
E|-3--3--3--3--3--3--3--3--------------------------|-0--0--0--0--0--0--0--0--0--0--0--0--0--0--0--0--|
B|-------------------------------------------------|-------------------------------------------------|


C|-------------------------------------------------|-------------------------------------------------|
G|-------------------------------------------------|-------------------------------------------------|
D|-------------------------------------------------|-------------------------------------------------|
A|-5--5--5--5--5--5--5--5--5--5--5--5--5--5--5--5--|-4--4--4--4--4--4--4--4--4--4--4--4--4--4--4--4--|
E|-------------------------------------------------|-------------------------------------------------|
B|-------------------------------------------------|-------------------------------------------------|


C|-------------------------------------------------|-------------------------------------------------|
G|-------------------------------------------------|-------------------------------------------------|
D|-------------------------------------------------|-------------------------------------------------|
A|-3--3--3--3--3--3--3--3--3--3--3--3--3--3--3--3--|-------------------------------------------------|
E|-------------------------------------------------|-0--0--0--0--0--0--0--0--0--0--0--0--0--0--0--0--|
B|-------------------------------------------------|-------------------------------------------------|


C|-------------------------------------------------|-------------------------------------------------|
G|-------------------------------------------------|-------------------------------------------------|
D|-------------------------------------------------|-------------------------------------------------|
A|-------------------------------------------------|-4--4--4--4--4--4--4--4--4--4--4--4--4--4--4--4--|
E|-2--2--2--2--2--2--2--2--2--2--2--2--2--2--2--2--|-------------------------------------------------|
B|-------------------------------------------------|-------------------------------------------------|


C|-------------------------------------------------|-----------------------------|
G|-------------------------------------------------|-----------------------------|
D|-------------------------------------------------|-----------------------------|
A|-3--3--3--3--3--3--3--3--------------------------|-----------------------------|
E|-------------------------1--1--1--1--1--1--1--1--|-0--0--------------------3---|
B|-------------------------------------------------|-----------------------------|


C|-------------------------------------------------|-------------------------------------------------|
G|-------------------------------------------------|-------------------------------------------------|
D|-------------------------------------------------|-------------------------------------------------|
A|-------------------------------------------------|-------------------------------------------------|
E|-0--0--2--0--3--0--0--6--0--5--0--0--3--0--1--0--|-0--0--2--0--3--0--0--6--0--5--0--0--3--0--1--0--|
B|-------------------------------------------------|-------------------------------------------------|


C|-------------------------------------------------|-------------------------------------------------|
G|-------------------------------------------------|-------------------------------------------------|
D|-------------------------------------------------|-------------------------------------------------|
A|-------------------------------------------------|-------------------------------------------------|
E|-0--0--2--0--3--0--0--6--0--5--0--0--3--0--1--0--|-0--0--2--0--3--0--0--6--0--5--0--0--3--0--1--0--|
B|-------------------------------------------------|-------------------------------------------------|


C|-------------------------------------------------|-------------------------------------------------|
G|-------------------------------------------------|-------------------------------------------------|
D|-------------------------------------------------|-------------------------------------------------|
A|-------------------------------------------------|-------------------------------------------------|
E|-0--0--2--0--3--0--0--6--0--5--0--0--3--0--1--0--|-0--0--2--0--3--0--0--6--0--5--0--0--3--0--1--0--|
B|-------------------------------------------------|-------------------------------------------------|


C|-------------------------------------------------|----------------------------------------------------|
G|----------------------------------5--4--2--------|----------------------------------------------------|
D|-------------------------5--4--2-----------------|----------------------------------------------------|
A|----------------3--2--0--------------------------|-------------2--3--2--3--2-----2--------------------|
E|-0--2--3--2--0-----------------------------3--2--|-0--2--3--5-----------------5-----3--5--2--5--3--2--|
B|-------------------------------------------------|----------------------------------------------------|


C|----------------------------------------------------|----------------------------------------------------|
G|----------------------------------------------------|----------------------------------------------------|
D|----------------------------------------------------|----------------------------------------------------|
A|-------------3--5--3--5--3-----3--------------------|-------------5--7--5--7--5-----5--------------------|
E|-0--3--5--7-----------------7-----5--7--3--7--5--3--|-0--5--7--9-----------------9-----7--9--5--9--7--5--|
B|----------------------------------------------------|----------------------------------------------------|


C|-------------------------------------------------------|----------------------------------------------------|
G|-------------------------------------------------------|----------------------------------------------------|
D|-------------------------------------------------------|----------------------------------------------------|
A|-------------7--10-7-107----------------9--12-9-129----|-------------10-12-10-12-10----10-------------------|
E|-0--7--8--10-------------8--0--8--10-12-------------10-|-0--10-12-14----------------14----12-14-10-14-12-10-|
B|-------------------------------------------------------|----------------------------------------------------|


C|----------------------------------------------------|----------------------------------------------------|
G|----------------------------------------------------|----------------------------------------------------|
D|----------------------------------------------------|----------------------------------------------------|
A|-------------12-14-12-14-12----12-------------------|-------------14-16-14-16-14----14-------------------|
E|-0--12-14-15----------------15----14-15-12-15-14-12-|-0--14-15-17----------------17----15-17-14-17-15-14-|
B|----------------------------------------------------|----------------------------------------------------|


C|----------------------------------------------------|---------------------------------------|
G|----------------------------------------------17-16-|---------------------------------------|
D|----------------------------------15-------14-------|---------------------------------------|
A|-------------15-19-151915------------14-15----------|---------------------------------------|
E|-0--15-17-19-------------17-0--13-------------------|-0---0--0--0---0--0--0---0--0--0---1---|
B|----------------------------------------------------|---------------------------------------|


C|---------------------------------------|------------------------|----------------------------------|
G|---------------------------------------|------------------------|----------------------------------|
D|---------------------------------------|------------------------|----------------------------------|
A|-----------------------------------2---|-----3----2----0--------|-----3-----------------5----------|
E|-1---1--1--1---1--1--1---1--1--1-------|--------------------3---|----------7---7--5--7-----7---7---|
B|---------------------------------------|------------------------|----------------------------------|


C|-------------------------------|-----------------------------------------|------------------------------------|
G|-------------------------------|-----------------------------------------|------------------------------------|
D|-------------------------------|-----------------------------------------|------------------------------------|
A|-------0---0--0--0---0--0--0---|-0--0--0---0--0--0---0--0--0---0--0--0---|-0--0--0---0--0--0---0--0-----------|
E|-------------------------------|-----------------------------------------|---------------------------1----1---|
B|-------------------------------|-----------------------------------------|------------------------------------|


C|----------------------------------|-------------------------------------|-----------------------------------------|
G|----------------------------------|-------------------------------------|-----------------------------------------|
D|----------------------------------|-------------------------------------|-----------------------------------------|
A|----------------------------------|-2---2---3---3---3--3--3---3--3--3---|-3--3--3---3--3--5---5--5--5---5--5--5---|
E|-3---3----5---5--5--5---5--5--5---|-------------------------------------|-----------------------------------------|
B|----------------------------------|-------------------------------------|-----------------------------------------|


C|----------------------------------|--------------------------------|---------------------------------------|
G|----------------------------------|--------------------------------|---------------------------------------|
D|----------------------------------|--------------------------------|---------------------------------------|
A|-7---7---8---8---8--8--8----------|-1---1----0--2------------------|-----------------0--2------------------|
E|----------------------------1--1--|----------------0---0---0---0---|-0--0--0---0--0--------0---0---0---0---|
B|----------------------------------|--------------------------------|---------------------------------------|


C|---------------------------------------|---------------------------------------|
G|---------------------------------------|---------------------------------------|
D|---------------------------------------|---------------------------------------|
A|-----------------0--2------------------|-----------------0--2------------------|
E|-0--0--0---0--0--------0---0---0---0---|-0--0--0---0--0--------0---0---0---0---|
B|---------------------------------------|---------------------------------------|


C|-------------------------------|-----------------------------|-----------------------------------|
G|-------------------------------|-----------------------------|-----------------------------------|
D|-------------------------------|-----------------------------|-----------------------------------|
A|-------------------------------|---------5---5---7--5--7-----|-----5--7--5-----------------------|
E|-0--0--0---0--0--0----3----5---|-7---7-----------------------|--------------7---0----3---3---5---|
B|-------------------------------|-----------------------------|-----------------------------------|


C|----------------------------------|-----------------------------|--------------------------------|
G|----------------------------------|-----------------------------|--------------------------------|
D|----------------------------------|-----------------------------|--------------------------------|
A|---------5---5---7--5--3----------|-----------------------------|---------5---5---7--5--7----7---|
E|-7---7----------------------------|---------------0----3----5---|-7---7--------------------------|
B|----------------------------3--3--|-3---3--3--3-----------------|--------------------------------|


C|---------------------|----------------------------------|---------------------------------------------|
G|---------------------|----------------------------------|---------------------------------------------|
D|---------------------|----------------------------------|---------------------------------------------|
A|---------------------|---------5---5---7--5--3----------|---------------------------------------------|
E|-------0----3----5---|-7---7----------------------1--1--|-1---1--1--1---0--0--0--0--0--0--0--0--0--0--|
B|---------------------|----------------------------------|---------------------------------------------|


C|-------------------------------------------------|-------------------------------------------------|
G|-------------------------------------------------|-------------------------------------------------|
D|-------------------------------------------------|-------------------------------------------------|
A|-------------------3--3--3--3--3--3--3--3--3--3--|-3--3--3--3--3--3--4--4--4--4--4--4--4--4--4--4--|
E|-0--0--0--0--0--0--------------------------------|-------------------------------------------------|
B|-------------------------------------------------|-------------------------------------------------|


C|-------------------------------------------------|---------------------------------------|
G|-------------------------------------------------|---------------------------------------|
D|-------------------------------------------------|-------------------------------2---2---|
A|-4--4--4--4--4--4--------------------------2--2--|-2--2--2--2--2--2----------------------|
E|-------------------3--3--3--3--3--3--3--3--------|-------------------0----0--0-----------|
B|-------------------------------------------------|---------------------------------------|


C|-------------------------------------|----------------------------------------|-------------------------------------------------|
G|-------------------------------------|----------------------------------------|-------------------------------------------------|
D|-------------------------------------|----------------------------------------|-------------------------------------------------|
A|-----------------3---3---3---3---3---|-3---3----4--4--4--4--4--4--4--4--4--4--|-4--4--4--4--4--4--------------------------2--2--|
E|-0--0--0---0--0----------------------|----------------------------------------|-------------------3--3--3--3--3--3--3--3--------|
B|-------------------------------------|----------------------------------------|-------------------------------------------------|


C|-------------------------------------------------|-------------------------------------------------|
G|-------------------------------------------------|-------------------------------------------------|
D|-------------------------------------------------|-------------------------------------------------|
A|-2--2--2--2--2--2--------------------------------|-------------------------------------------------|
E|-------------------0--0--0--0--0--0--0--0--0--0--|-0--0--0--0--0--0--2--2--2--2--2--2--2--2--2--2--|
B|-------------------------------------------------|-------------------------------------------------|


C|-------------------------------------------------|-------------------------------------------------|
G|-------------------------------------------------|-------------------------------------------------|
D|-------------------------------------------------|-------------------------------------------------|
A|-------------------------------------------------|-------------------------------------------------|
E|-2--2--2--2--2--2--9--9--9--9--9--9--9--9--9--9--|-9--9--9--9--9--9--8--8--8--8--8--8--8--8--12-13-|
B|-------------------------------------------------|-------------------------------------------------|


C|-------------------------------------------|---------------------------------------|
G|-------------17-16-------------------------|---------------------------------------|
D|-15-------14-------------------------------|---------------------------------------|
A|----14-15----------------------------------|---------------------------------------|
E|-------------------0---0--0--0---0--0--0---|-0--0--0---1---1---1--1--1---1--1--1---|
B|-------------------------------------------|---------------------------------------|


C|--------------------------|--------------------------|---------------------------|
G|--------------------------|--------------------------|---------------------------|
D|--------------------------|--------------------------|---------------------------|
A|-----------2----3----2----|-----------3--------------|----5------------0---0--0--|
E|-1--1--1------------------|-5----3---------7---7--5--|-7-----7---7---------------|
B|--------------------------|--------------------------|---------------------------|


C|-----------------------------------------|-----------------------------------------|
G|-----------------------------------------|-----------------------------------------|
D|-----------------------------------------|-----------------------------------------|
A|-0---0--0--0---0--0--0---0--0--0---0--0--|-0---0--0--0---0--0--0---0--0--0---0--0--|
E|-----------------------------------------|-----------------------------------------|
B|-----------------------------------------|-----------------------------------------|


C|-----------------------------------------|-----------------------------|-------------------------------------|
G|-----------------------------------------|-----------------------------|-------------------------------------|
D|-----------------------------------------|-----------------------------|-------------------------------------|
A|-0---0--0--0---0--0--0---0--0--0---0--0--|-----------------------------|---------------2---2---3---3---3--3--|
E|-----------------------------------------|-1----1---3---3----5---5--5--|-5---5--5--5-------------------------|
B|-----------------------------------------|-----------------------------|-------------------------------------|


C|-----------------------------------------|-------------------------------------|
G|-----------------------------------------|-------------------------------------|
D|-----------------------------------------|-------------------------------------|
A|-3---3--3--3---3--3--3---3--3--5---5--5--|-5---5--5--5---7---7---8---8---8--8--|
E|-----------------------------------------|-------------------------------------|
B|-----------------------------------------|-------------------------------------|


C|-----------------------------|-------------|-------------|-------------|---------------------------|
G|-----------------------------|-------------|-------------|--------9----|---------------------------|
D|-----------------------------|-------------|-------------|-------------|---------------------------|
A|-8----------1---1--1---------|-------------|-------------|--------7----|-3---3---3---5---5---------|
E|------1--1--------------0----|--------0----|--------0----|-------------|----------------------0----|
B|-----------------------------|-------------|-------------|-------------|---------------------------|


C|-------------|-------------|-------------|------------------------|-------------|
G|-------------|-------------|-------------|------------------------|-------------|
D|-------------|-------------|-------------|------------------------|-------------|
A|-------------|-------------|-------------|-3---3---3---8----------|-------------|
E|--------0----|--------0----|--------0----|-------------------0----|--------0----|
B|-------------|-------------|-------------|------------------------|-------------|


C|-------------|----------------|-----------------|-------------|-------------|-------------|
G|-------------|----------------|-----------------|-------------|-------------|-------------|
D|-------------|----------------|-----------------|-------------|-------------|-------------|
A|-------------|------------3---|-3---------------|-------------|-------------|-------------|
E|--------0----|--------0-------|------------0----|--------0----|--------0----|--------0----|
B|-------------|----------------|-----------------|-------------|-------------|-------------|


C|-------------------------------------|---------------------------------|---------------------------------|
G|-------------------------------------|---------------------------------|---------------------------------|
D|-------------------------------------|---------------------------------|---------------------------------|
A|-------------------------------------|-------------------------3---3---|-3---3---3---3---3---3---4---4---|
E|-0---13--13-13-13--1--1--1---0---0---|-0---0---0---0---0---0-----------|---------------------------------|
B|-------------------------------------|---------------------------------|---------------------------------|


C|-------------------------------------|-----------------------------------------|
G|-------------------------------------|-----------------------------------------|
D|-------------------------------------|-----------------------------------------|
A|-4---4---4---4--4--4---4-------------|-----------2---2--2--2---2--2------------|
E|---------------------------3---3--3--|-3---3--3----------------------0---0--0--|
B|-------------------------------------|-----------------------------------------|


C|---------------------------------------|-------------------------------|-------------------------------------------------|
G|---------------------------------------|-------------------------------|-------------------------------------------------|
D|-----2---2-----------------------------|-------------------------------|-------------------------------------------------|
A|---------------------------------------|-------------------4--4--4--4--|-4--4--4--4--4--4--4--4--4--4--4--4--------------|
E|-0-----------0--0--0---0--0--2---2--2--|-2---2---2----2----------------|-------------------------------------3--3--3--3--|
B|---------------------------------------|-------------------------------|-------------------------------------------------|


C|---------------------------------------------|---------------------------------|
G|---------------------------------------------|-11------------------------------|
D|---------------------------------------------|-----12--7---10--9---------------|
A|-------------2--2--2--2--2--2--2--2----------|-----------------------------2---|
E|-3--3--3--3--------------------------8---8---|---------------------0---0-------|
B|---------------------------------------------|---------------------------------|


C|-----------------------------------|---------------------------------|-------------------------|
G|-----------------------------------|---------------------------------|-------------------------|
D|-4---5-----------------------------|---------------------------------|-------------------------|
A|-------------5---5--7--5-----------|---------------------------------|-------------------------|
E|---------3-----------------1---1---|-1---1---3---3---3---5---5---5---|-5---5---7-----5---5--5--|
B|-----------------------------------|---------------------------------|-------------------------|


C|-----------------------------------------|-----------------------------------------|
G|-----------------------------------------|-----------------------------------------|
D|-----------------------------------------|-----------------------------------------|
A|-----------------------------------------|-----------------------------------------|
E|-5---5--5--5---5--5--5---5--5--5---5--5--|-5---5--5--5---5--5--5---5--5--5---5--5--|
B|-----------------------------------------|-----------------------------------------|


C|-----------------------------------------|-----------------------------|-------------------------------------|
G|-----------------------------------------|-----------------------------|-------------------------------------|
D|-----------------------------------------|-----------------------------|-------------------------------------|
A|-------------------------------0---0--0--|-----------------------------|---------------2---2---3---3---3--3--|
E|-5---5--5--5---5--5--5---5--5------------|-1----1---3---3----5---5--5--|-5---5--5--5-------------------------|
B|-----------------------------------------|-----------------------------|-------------------------------------|


C|-----------------------------------------|-------------------------------------|
G|-----------------------------------------|-------------------------------------|
D|-----------------------------------------|-------------------------------------|
A|-3---3--3--3---3--3--3---3--3--5---5--5--|-5---5--5--5---7---7---8---8---8--8--|
E|-----------------------------------------|-------------------------------------|
B|-----------------------------------------|-------------------------------------|


C|----------------------------------|-----------------------------------------|-----------------------------------------|
G|----------------------------------|-----------------------------------------|-----------------------------------------|
D|----------------------------------|-----------------------------------------|-----------------------------------------|
A|-8----------1---1--1--------------|-----------------------------------------|-----------------------------------------|
E|------1--1--------------5---5--5--|-5---5--5--5---5--5--5---5--5--5---5--5--|-5---5--5--5---5--5--5---5--5--5---5--5--|
B|----------------------------------|-----------------------------------------|-----------------------------------------|


C|-----------------------------------------|-----------------------------|-------------------------------------|
G|-----------------------------------------|-----------------------------|-------------------------------------|
D|-----------------------------------------|-----------------------------|-------------------------------------|
A|-------------------------------0---0--0--|-----------------------------|---------------2---2---3---3---3--3--|
E|-5---5--5--5---5--5--5---5--5------------|-1----1---3---3----5---5--5--|-5---5--5--5-------------------------|
B|-----------------------------------------|-----------------------------|-------------------------------------|


C|-----------------------------------------|-------------------------------------|
G|-----------------------------------------|-------------------------------------|
D|-----------------------------------------|-------------------------------------|
A|-3---3--3--3---3--3--3---3--3--5---5--5--|-5---5--5--5---7---7---8---8---8--8--|
E|-----------------------------------------|-------------------------------------|
B|-----------------------------------------|-------------------------------------|


C|----------------------------------|---------------------------------------|---------------------------------------|
G|----------------------------------|---------------------------------------|---------------------------------------|
D|----------------------------------|---------------------------------------|---------------------------------------|
A|-8----------1---1--1----0--2------|-----------------------------0--2------|-----------------------------0--2------|
E|------1--1--------------------0---|-0---0---0---0--0--0---0--0--------0---|-0---0---0---0--0--0---0--0--------0---|
B|----------------------------------|---------------------------------------|---------------------------------------|


C|---------------------------------------|----------------------------------|---------------------------------------|
G|---------------------------------------|----------------------------------|---------------------------------------|
D|---------------------------------------|----------------------------------|---------------------------------------|
A|-----------------------------0--2------|-------------------7----0--2------|-----------------------------0--2------|
E|-0---0---0---0--0--0---0--0--------0---|-0---0---0---0--0-------------0---|-0---0---0---0--0--0---0--0--------0---|
B|---------------------------------------|----------------------------------|---------------------------------------|


C|---------------------------------------|---------------------------------------|
G|---------------------------------------|---------------------------------------|
D|---------------------------------------|---------------------------------------|
A|-----------------------------0--2------|-----------------------------0--2------|
E|-0---0---0---0--0--0---0--0--------0---|-0---0---0---0--0--0---0--0--------0---|
B|---------------------------------------|---------------------------------------|


C|----------------------------------|---------------------------------------|---------------------------------------|
G|----------------------------------|---------------------------------------|---------------------------------------|
D|----------------------------------|---------------------------------------|---------------------------------------|
A|-------------------7----5--7------|-----------------------------7--8------|-----------------------------8--9------|
E|-0---0---0---0--0-------------0---|-0---0---0---0--0--0---0--0--------0---|-0---0---0---0--0--0---0--0--------0---|
B|----------------------------------|---------------------------------------|---------------------------------------|


C|---------------------------------------|-----------------------------|---------------------------------------|
G|---------------------------------------|-----------------------------|---------------------------------------|
D|---------------------------------------|-----------------------------|---------------------------------------|
A|-----------------------------9--10-----|-------------------5--7------|-----------------------------7--8------|
E|-0---0---0---0--0--0---0--0--------0---|-0---0---8----6----------0---|-0---0---0---0--0--0---0--0--------0---|
B|---------------------------------------|-----------------------------|---------------------------------------|


C|---------------------------------------|---------------------------------------|
G|---------------------------------------|---------------------------------------|
D|---------------------------------------|---------------------------------------|
A|-----------------------------8--9------|-----------------------------9--10-----|
E|-0---0---0---0--0--0---0--0--------0---|-0---0---0---0--0--0---0--0--------0---|
B|---------------------------------------|---------------------------------------|


C|-----------------------------|-------------------------------------|-------------------------------------|
G|-----------------------------|-------------------------------------|-------------------------------------|
D|-----------------------------|-------------------------------------|-------------------------------------|
A|-------------------5--7------|-------------------7-------------8---|-------------------8-------------9---|
E|-0---0---8----6----------0---|-0---0---0---0--0-------0--0--0------|-0---0---0---0--0-------0--0--0------|
B|-----------------------------|-------------------------------------|-------------------------------------|


C|-------------------------------------|----------------------------------------|-------------------------------------|
G|-------------------------------------|----------------------------------------|-------------------------------------|
D|-------------------------------------|------------10----------8---------------|-------------------------------------|
A|-------------------9-------------10--|-10------10----10----8-----8--5--7------|-------------------7-------------8---|
E|-0---0---0---0--0-------0--0--0------|------8-----------6-----------------0---|-0---0---0---0--0-------0--0--0------|
B|-------------------------------------|----------------------------------------|-------------------------------------|


C|-------------------------------------|-------------------------------------|----------------------------------------|
G|-------------------------------------|-------------------------------------|----------------------------------------|
D|-------------------------------------|-------------------------------------|------------10----------8---------------|
A|-------------------8-------------9---|-------------------9-------------10--|-10------10----10----8-----8--5--7------|
E|-0---0---0---0--0-------0--0--0------|-0---0---0---0--0-------0--0--0------|------8-----------6-----------------0---|
B|-------------------------------------|-------------------------------------|----------------------------------------|


C|-------------------------------------|--------------------|
G|-------------------------------------|--------------------|
D|-------------------------------------|--------------------|
A|-------------------7-------------8---|--------------------|
E|-0---0---0---0--0-------0--0--0------|-0---0--------------|
B|-------------------------------------|--------------------|