Menu:

 

Search:

 

dream theater - peruvian skies:

 



Title: Peruvian Skies
Artist: 
Album: Falling Into Infinity
Author: John Petrucci, Mike Portnoy, John Myung & Derek Sherinian


Track 1: Clean1

E|-----------------------------------------|-------------------------------------------|
B|-----------------------------------------|-------------------------------------------|
G|-----------0-------------------2---------|-----------0-------------------------------|
D|--------------2--------------------------|--------------2----------------------------|
A|-----2--4---------1------2--4------------|-----2--4---------1------2--4--3--------2--|
E|-0-------------------0------------3--2---|-0-------------------0------------2--1-----|


E|-----------------------------------------|---------------------------------------------|
B|-----------------------------------------|---------------------------------------------|
G|-----------0-------------------2---------|-----------0---------------------------------|
D|--------------2--------------------------|---------------------3-----------------------|
A|-----2--4---------1------2--4------------|-----2--4---------3--------2--4--3--------2--|
E|-0-------------------0------------3--2---|-0------------1---------0-----------2--1-----|


E|-----------------------------------------|-------------------------------------------|
B|-----------------------------------------|-------------------------------------------|
G|-----------0-------------------2---------|-----------0-------------------------------|
D|--------------2--------------------------|--------------2----------------------------|
A|-----2--4---------1------2--4------------|-----2--4---------1------2--4--3--------2--|
E|-0-------------------0------------3--2---|-0-------------------0------------2--1-----|


E|-----------------------------------------|---------------------------------------------|
B|-----------------------------------------|---------------------------------------------|
G|-----------0-------------------2---------|-----------0---------------------------------|
D|--------------2--------------------------|---------------------3-----------------------|
A|-----2--4---------1------2--4------------|-----2--4---------3--------2--4--3--------2--|
E|-0-------------------0------------3--2---|-0------------1---------0-----------2--1-----|


E|------------------|-----------------------------------|---------------------------------0--|
B|------------------|-----------------------------------|-----------------------------0------|
G|-----------0------|-----------0-----------------------|-----------0----0------6--6---------|
D|------------------|--------------2--------------------|--------------------5---------------|
A|-----2--4---------|-----2--4--------------5-------5---|-----2--4---------------------------|
E|-0----------------|-0-----------------3-------2-------|-0----------------------------------|


E|-0-----------------------------------------|------------------|-----------------------------------|
B|-------------------------------------------|------------------|-----------------------------------|
G|-----------0-------------------------------|-----------0------|-----------0-----------------------|
D|--------------2----------0--------2--------|------------------|--------------2--------------------|
A|-----2--4-------------2--------2-----------|-----2--4---------|-----2--4--------------5-------5---|
E|-0-----------------3--------2--------0--2--|-0----------------|-0-----------------3-------2-------|


E|---------------------------------0--|-0-----------------------------------------|
B|-----------------------------0------|-------------------------------------------|
G|-----------0----0------6--6---------|-----------0-------------------------------|
D|--------------------5---------------|--------------2----------0--------2--------|
A|-----2--4---------------------------|-----2--4-------------2--------2-----------|
E|-0----------------------------------|-0-----------------3--------2--------0--2--|


E|-------------|---------------------------|------------2-3-2----------------|-------------|
B|-------------|---------3--5--3--0--------|-------------------3-5-3--3-5-3--|-------------|
G|-------------|---------2--4--2--0--------|--------------------------2-4-2--|-------------|
D|-------------|---------------------------|---------------------------------|-------------|
A|-------------|---------------------------|---------------------------------|-------------|
E|-------------|---------------------------|---------------------------------|-------------|


E|-0-----0-------------------|--------|---------------0---------------------|-----0-------------------------0---|
B|-3--5--3-------------------|--------|-----------1-------1-----------------|-1-------1-----------------1-------|
G|-----------2--0------------|--------|--------2--------------2----------2--|-------------2----------2----------|
D|-----------------2---------|--------|-----2-------------------------2-----|---------------------2-------------|
A|---------------------------|--------|-0-----------------------------------|-----------------------------------|
E|---------------------------|--------|---------------------------3---------|-----------------2-----------------|


E|---------1------|-----------------------------------------|-------------------------------------------|
B|-1-------1------|-----------------------------------------|-------------------------------------------|
G|-----2---2------|-----------0-------------------2---------|-----------0-------------------------------|
D|---------3------|--------------2--------------------------|--------------2----------------------------|
A|---------3------|-----2--4---------1------2--4------------|-----2--4---------1------2--4--3--------2--|
E|---------1------|-0-------------------0------------3--2---|-0-------------------0------------2--1-----|


E|-----------------------------------------|---------------------------------------------|
B|-----------------------------------------|---------------------------------------------|
G|-----------0-------------------2---------|-----------0---------------------------------|
D|--------------2--------------------------|---------------------3-----------------------|
A|-----2--4---------1------2--4------------|-----2--4---------3--------2--4--3--------2--|
E|-0-------------------0------------3--2---|-0------------1---------0-----------2--1-----|


E|---------------------------|-----------------------------------|---------------------------------0--|
B|----------------------12---|-----------------------------------|-----------------------------0------|
G|-----------0-----12--------|-----------0-----------------------|-----------0----0------6--6---------|
D|---------------------------|--------------2--------------------|--------------------5---------------|
A|-----2--4------------------|-----2--4--------------5-------5---|-----2--4---------------------------|
E|-0-------------------------|-0-----------------3-------2-------|-0----------------------------------|


E|-0-----------------------------------------|------------------|-----------------------------------|
B|-------------------------------------------|------------------|-----------------------------------|
G|-----------0-------------------------------|-----------0------|-----------0-----------------------|
D|--------------2----------0--------2--------|------------------|--------------2--------------------|
A|-----2--4-------------2--------2-----------|-----2--4---------|-----2--4--------------5-------5---|
E|-0-----------------3--------2--------0--2--|-0----------------|-0-----------------3-------2-------|


E|---------------------------------0--|-0-----------------------------------------|
B|-----------------------------0------|-------------------------------------------|
G|-----------0----0------6--6---------|-----------0-------------------------------|
D|--------------------5---------------|--------------2----------0--------2--------|
A|-----2--4---------------------------|-----2--4-------------2--------2-----------|
E|-0----------------------------------|-0-----------------3--------2--------0--2--|


E|-------------|---------------------------|------------------------|---------------12-------------|
B|-------------|---------3--5--3--0--------|----------------7-------|-----------------12-----------|
G|-------------|---------2--4--2--0--------|------------5-------7---|-------------------12---------|
D|-------------|---------------------------|------------------------|---------------------12-------|
A|-------------|---------------------------|------------------------|-----------------------12-----|
E|-------------|---------------------------|------------------------|-------------------------12---|


E|-----------------------------|--------|---------------0---------------------|-----0-------------------------0---|
B|-----------------------------|--------|-----------1-------1-----------------|-1-------1-----------------1-------|
G|-12-12----12-----------------|--------|--------2--------------2----------2--|-------------2----------2----------|
D|-14-12----12-----------------|--------|-----2-------------------------2-----|---------------------2-------------|
A|-------14----12-10-----------|--------|-0-----------------------------------|-----------------------------------|
E|-------------------12--------|--------|---------------------------3---------|-----------------2-----------------|


E|----------------|--------|--------|--------|--------|--------|--------|--------|
B|-1--------------|--------|--------|--------|--------|--------|--------|--------|
G|-----2----------|--------|--------|--------|--------|--------|--------|--------|
D|----------------|--------|--------|--------|--------|--------|--------|--------|
A|----------------|--------|--------|--------|--------|--------|--------|--------|
E|----------------|--------|--------|--------|--------|--------|--------|--------|


E|--------|--------|--------|--------|--------|--------|--------|--------|--------|
B|--------|--------|--------|--------|--------|--------|--------|--------|--------|
G|--------|--------|--------|--------|--------|--------|--------|--------|--------|
D|--------|--------|--------|--------|--------|--------|--------|--------|--------|
A|--------|--------|--------|--------|--------|--------|--------|--------|--------|
E|--------|--------|--------|--------|--------|--------|--------|--------|--------|


E|--------|--------|--------|--------|--------|--------|--------|--------|--------|
B|--------|--------|--------|--------|--------|--------|--------|--------|--------|
G|--------|--------|--------|--------|--------|--------|--------|--------|--------|
D|--------|--------|--------|--------|--------|--------|--------|--------|--------|
A|--------|--------|--------|--------|--------|--------|--------|--------|--------|
E|--------|--------|--------|--------|--------|--------|--------|--------|--------|


E|--------|--------|--------|--------|--------|--------|--------|--------|--------|
B|--------|--------|--------|--------|--------|--------|--------|--------|--------|
G|--------|--------|--------|--------|--------|--------|--------|--------|--------|
D|--------|--------|--------|--------|--------|--------|--------|--------|--------|
A|--------|--------|--------|--------|--------|--------|--------|--------|--------|
E|--------|--------|--------|--------|--------|--------|--------|--------|--------|


E|--------|--------|--------|--------|--------|--------|--------|--------|--------|
B|--------|--------|--------|--------|--------|--------|--------|--------|--------|
G|--------|--------|--------|--------|--------|--------|--------|--------|--------|
D|--------|--------|--------|--------|--------|--------|--------|--------|--------|
A|--------|--------|--------|--------|--------|--------|--------|--------|--------|
E|--------|--------|--------|--------|--------|--------|--------|--------|--------|


E|--------|--------|--------|--------|--------|--------|--------|--------|--------|
B|--------|--------|--------|--------|--------|--------|--------|--------|--------|
G|--------|--------|--------|--------|--------|--------|--------|--------|--------|
D|--------|--------|--------|--------|--------|--------|--------|--------|--------|
A|--------|--------|--------|--------|--------|--------|--------|--------|--------|
E|--------|--------|--------|--------|--------|--------|--------|--------|--------|


E|--------|--------|--------|--------|--------|--------|--------|--------|--------|
B|--------|--------|--------|--------|--------|--------|--------|--------|--------|
G|--------|--------|--------|--------|--------|--------|--------|--------|--------|
D|--------|--------|--------|--------|--------|--------|--------|--------|--------|
A|--------|--------|--------|--------|--------|--------|--------|--------|--------|
E|--------|--------|--------|--------|--------|--------|--------|--------|--------|


E|--------|--------|--------|--------|--------|--------|--------|--------|--------|
B|--------|--------|--------|--------|--------|--------|--------|--------|--------|
G|--------|--------|--------|--------|--------|--------|--------|--------|--------|
D|--------|--------|--------|--------|--------|--------|--------|--------|--------|
A|--------|--------|--------|--------|--------|--------|--------|--------|--------|
E|--------|--------|--------|--------|--------|--------|--------|--------|--------|


E|--------|--------|--------|--------|--------|--------|--------|--------|--------|
B|--------|--------|--------|--------|--------|--------|--------|--------|--------|
G|--------|--------|--------|--------|--------|--------|--------|--------|--------|
D|--------|--------|--------|--------|--------|--------|--------|--------|--------|
A|--------|--------|--------|--------|--------|--------|--------|--------|--------|
E|--------|--------|--------|--------|--------|--------|--------|--------|--------|


E|--------|--------|--------|--------|--------|--------|--------|--------|--------|
B|--------|--------|--------|--------|--------|--------|--------|--------|--------|
G|--------|--------|--------|--------|--------|--------|--------|--------|--------|
D|--------|--------|--------|--------|--------|--------|--------|--------|--------|
A|--------|--------|--------|--------|--------|--------|--------|--------|--------|
E|--------|--------|--------|--------|--------|--------|--------|--------|--------|


E|--------|--------|--------|--------|--------|--------|--------|--------|--------|
B|--------|--------|--------|--------|--------|--------|--------|--------|--------|
G|--------|--------|--------|--------|--------|--------|--------|--------|--------|
D|--------|--------|--------|--------|--------|--------|--------|--------|--------|
A|--------|--------|--------|--------|--------|--------|--------|--------|--------|
E|--------|--------|--------|--------|--------|--------|--------|--------|--------|


E|--------|--------|--------|--------|--------|--------|--------|--------|
B|--------|--------|--------|--------|--------|--------|--------|--------|
G|--------|--------|--------|--------|--------|--------|--------|--------|
D|--------|--------|--------|--------|--------|--------|--------|--------|
A|--------|--------|--------|--------|--------|--------|--------|--------|
E|--------|--------|--------|--------|--------|--------|--------|--------|





Track 2: 12 string arr for acoustic

E|--------|--------|--------|--------|-----------3-------------|-----------3------|
B|--------|--------|--------|--------|--------------5----5-----|------------------|
G|--------|--------|--------|--------|-----4--6----------------|-----4--6---------|
D|--------|--------|--------|--------|-------------------------|------------------|
A|--------|--------|--------|--------|-------------------------|------------------|
E|--------|--------|--------|--------|-0-----------------------|-0----------------|


E|-----------3-------------|------------------|--------|--------|--------|--------|
B|--------------5----5-----|------------------|--------|--------|--------|--------|
G|-----4--6----------------|-----4--6--5------|--------|--------|--------|--------|
D|-------------------------|------------------|--------|--------|--------|--------|
A|-------------------------|------------------|--------|--------|--------|--------|
E|-0-----------------------|-0----------------|--------|--------|--------|--------|


E|--------|--------|--------|--------|--------|--------|--------|--------|--------|
B|--------|--------|--------|--------|--------|--------|--------|--------|--------|
G|--------|--------|--------|--------|--------|--------|--------|--------|--------|
D|--------|--------|--------|--------|--------|--------|--------|--------|--------|
A|--------|--------|--------|--------|--------|--------|--------|--------|--------|
E|--------|--------|--------|--------|--------|--------|--------|--------|--------|


E|--------|--------|--------|--------|--------|--------|--------|--------|--------|
B|--------|--------|--------|--------|--------|--------|--------|--------|--------|
G|--------|--------|--------|--------|--------|--------|--------|--------|--------|
D|--------|--------|--------|--------|--------|--------|--------|--------|--------|
A|--------|--------|--------|--------|--------|--------|--------|--------|--------|
E|--------|--------|--------|--------|--------|--------|--------|--------|--------|


E|--------|--------|--------|--------|--------|--------|--------|--------|--------|
B|--------|--------|--------|--------|--------|--------|--------|--------|--------|
G|--------|--------|--------|--------|--------|--------|--------|--------|--------|
D|--------|--------|--------|--------|--------|--------|--------|--------|--------|
A|--------|--------|--------|--------|--------|--------|--------|--------|--------|
E|--------|--------|--------|--------|--------|--------|--------|--------|--------|


E|--------|--------|--------|--------|--------|--------|------------------------------|
B|--------|--------|--------|--------|--------|--------|------------------------------|
G|--------|--------|--------|--------|--------|--------|------------------0-----------|
D|--------|--------|--------|--------|--------|--------|--------------3-------3-------|
A|--------|--------|--------|--------|--------|--------|----------3---------------3---|
E|--------|--------|--------|--------|--------|--------|------1-----------------------|


E|---------------------------------|---------------------------------|----------------|
B|---------------------------------|---------------------------------|----------------|
G|-------------0-------------------|-----0-----------------------0---|----------------|
D|---------3-------3---------------|-3-------3---------------3-------|-3--------------|
A|-----3---------------3-------3---|-------------3-------3-----------|-----3----------|
E|-1-----------------------1-------|-----------------1---------------|----------------|


E|--------|--------|--------|--------|--------|--------|--------|--------|--------|
B|--------|--------|--------|--------|--------|--------|--------|--------|--------|
G|--------|--------|--------|--------|--------|--------|--------|--------|--------|
D|--------|--------|--------|--------|--------|--------|--------|--------|--------|
A|--------|--------|--------|--------|--------|--------|--------|--------|--------|
E|--------|--------|--------|--------|--------|--------|--------|--------|--------|


E|--------|--------|--------|--------|--------|--------|--------|--------|--------|
B|--------|--------|--------|--------|--------|--------|--------|--------|--------|
G|--------|--------|--------|--------|--------|--------|--------|--------|--------|
D|--------|--------|--------|--------|--------|--------|--------|--------|--------|
A|--------|--------|--------|--------|--------|--------|--------|--------|--------|
E|--------|--------|--------|--------|--------|--------|--------|--------|--------|


E|--------|--------|--------|--------|--------|--------|--------|--------|--------|
B|--------|--------|--------|--------|--------|--------|--------|--------|--------|
G|--------|--------|--------|--------|--------|--------|--------|--------|--------|
D|--------|--------|--------|--------|--------|--------|--------|--------|--------|
A|--------|--------|--------|--------|--------|--------|--------|--------|--------|
E|--------|--------|--------|--------|--------|--------|--------|--------|--------|


E|--------|--------|--------|--------|--------|--------|--------|--------|--------|
B|--------|--------|--------|--------|--------|--------|--------|--------|--------|
G|--------|--------|--------|--------|--------|--------|--------|--------|--------|
D|--------|--------|--------|--------|--------|--------|--------|--------|--------|
A|--------|--------|--------|--------|--------|--------|--------|--------|--------|
E|--------|--------|--------|--------|--------|--------|--------|--------|--------|


E|--------|--------|--------|--------|--------|--------|--------|--------|--------|
B|--------|--------|--------|--------|--------|--------|--------|--------|--------|
G|--------|--------|--------|--------|--------|--------|--------|--------|--------|
D|--------|--------|--------|--------|--------|--------|--------|--------|--------|
A|--------|--------|--------|--------|--------|--------|--------|--------|--------|
E|--------|--------|--------|--------|--------|--------|--------|--------|--------|


E|--------|--------|--------|--------|--------|--------|--------|--------|--------|
B|--------|--------|--------|--------|--------|--------|--------|--------|--------|
G|--------|--------|--------|--------|--------|--------|--------|--------|--------|
D|--------|--------|--------|--------|--------|--------|--------|--------|--------|
A|--------|--------|--------|--------|--------|--------|--------|--------|--------|
E|--------|--------|--------|--------|--------|--------|--------|--------|--------|


E|--------|--------|--------|--------|--------|--------|--------|--------|--------|
B|--------|--------|--------|--------|--------|--------|--------|--------|--------|
G|--------|--------|--------|--------|--------|--------|--------|--------|--------|
D|--------|--------|--------|--------|--------|--------|--------|--------|--------|
A|--------|--------|--------|--------|--------|--------|--------|--------|--------|
E|--------|--------|--------|--------|--------|--------|--------|--------|--------|


E|--------|--------|--------|--------|--------|--------|--------|--------|--------|
B|--------|--------|--------|--------|--------|--------|--------|--------|--------|
G|--------|--------|--------|--------|--------|--------|--------|--------|--------|
D|--------|--------|--------|--------|--------|--------|--------|--------|--------|
A|--------|--------|--------|--------|--------|--------|--------|--------|--------|
E|--------|--------|--------|--------|--------|--------|--------|--------|--------|


E|--------|--------|--------|--------|--------|--------|--------|--------|--------|
B|--------|--------|--------|--------|--------|--------|--------|--------|--------|
G|--------|--------|--------|--------|--------|--------|--------|--------|--------|
D|--------|--------|--------|--------|--------|--------|--------|--------|--------|
A|--------|--------|--------|--------|--------|--------|--------|--------|--------|
E|--------|--------|--------|--------|--------|--------|--------|--------|--------|


E|--------|--------|--------|--------|--------|--------|--------|--------|--------|
B|--------|--------|--------|--------|--------|--------|--------|--------|--------|
G|--------|--------|--------|--------|--------|--------|--------|--------|--------|
D|--------|--------|--------|--------|--------|--------|--------|--------|--------|
A|--------|--------|--------|--------|--------|--------|--------|--------|--------|
E|--------|--------|--------|--------|--------|--------|--------|--------|--------|


E|--------|--------|--------|--------|--------|--------|--------|--------|--------|
B|--------|--------|--------|--------|--------|--------|--------|--------|--------|
G|--------|--------|--------|--------|--------|--------|--------|--------|--------|
D|--------|--------|--------|--------|--------|--------|--------|--------|--------|
A|--------|--------|--------|--------|--------|--------|--------|--------|--------|
E|--------|--------|--------|--------|--------|--------|--------|--------|--------|


E|--------|--------|--------|
B|--------|--------|--------|
G|--------|--------|--------|
D|--------|--------|--------|
A|--------|--------|--------|
E|--------|--------|--------|





Track 3: Dist Rhythm

E|--------|--------|--------|--------|--------|--------|--------|--------|--------|
B|--------|--------|--------|--------|--------|--------|--------|--------|--------|
G|--------|--------|--------|--------|--------|--------|--------|--------|--------|
D|--------|--------|--------|--------|--------|--------|--------|--------|--------|
A|--------|--------|--------|--------|--------|--------|--------|--------|--------|
E|--------|--------|--------|--------|--------|--------|--------|--------|--------|


E|--------|--------|--------------------|-----------------|--------------12--17-17--17--|
B|--------|--------|--------------------|-----------------|--------------12--17-17--17--|
G|--------|--------|---------------2----|-4-----4---------|-----------------------------|
D|--------|--------|--------------------|------------5----|-4----4----------------------|
A|--------|--------|--------------------|-----------------|-----------------------------|
E|--------|--------|--------------------|-----------------|-----------------------------|


E|-12----12--12-------|-3------3--7----|---------------------|-------------------------3-----|
B|-12----12--12--10---|-5------5--8----|-13----13---13-------|-------------------------3-----|
G|---------------11---|----------------|-14----14---14-------|-7--7--7--7--7--7--7--7--0-----|
D|--------------------|----------------|---------------------|-5--5--5--5--5--5--5--5--5-----|
A|--------------------|----------------|---------------------|-5--5--5--5--5--5--5--5--5-----|
E|--------------------|----------------|---------------------|-------------------------------|


E|-----------------------------------|-------------|-0-----0-------------------|-------------|
B|-----------------------------------|-5-----------|-3--5--3-------------8-----|-------------|
G|-----------7--7--7--7--7--7--7--7--|-2-----------|-----------2--0------7-----|-------------|
D|-----------5--5--5--5--5--5--5--5--|-2-----------|-----------------2---5-----|------3------|
A|-----------5--5--5--5--5--5--5--5--|-0-----------|---------------------5-----|------3------|
E|-----------------------------------|-------------|---------------------------|------1------|


E|-0-----------|-------------|------1------|--------|--------|--------|--------|--------|
B|-1------1----|-------------|------1------|--------|--------|--------|--------|--------|
G|-2------0----|-------------|------2------|--------|--------|--------|--------|--------|
D|-2------2----|-------------|------3------|--------|--------|--------|--------|--------|
A|-0------3----|-------------|------3------|--------|--------|--------|--------|--------|
E|--------3----|-------2-----|------1------|--------|--------|--------|--------|--------|


E|--------|--------|-----------------12-12-------|---------------7---12-|-12---10----10------|
B|--------|--------|-----------10-12--------12---|----------------------|--------------------|
G|--------|--------|-----------------------------|-9-----9--------------|--------------------|
D|--------|--------|-----------------------------|----------------------|----------------7---|
A|--------|--------|-----------------------------|----------------------|--------------------|
E|--------|--------|-----------------------------|----------------------|--------------------|


E|----------------------|--------------------------|---------------------|-------------------------3-----|
B|----------------------|---------------------12---|-13----13---13-------|-------------------------3-----|
G|----------7--7---7----|-------7--9--9----9-------|---------------------|-7--7--7--7--7--7--7--7--------|
D|-9-----7--------------|-2------------------------|---------------------|-5--5--5--5--5--5--5--5--5-----|
A|----------------------|--------------------------|---------------------|-5--5--5--5--5--5--5--5--5-----|
E|----------------------|--------------------------|---------------------|-------------------------------|


E|-----------------------------------|-------------|-------------------------------|
B|-----------------------------------|-5-----------|-------------------------8-----|
G|-----------7--7--7--7--7--7--7--7--|-2-----------|-7--7--7--7--7--7--7--7--7-----|
D|-----------5--5--5--5--5--5--5--5--|-2-----------|-5--5--5--5--5--5--5--5--5-----|
A|-----------5--5--5--5--5--5--5--5--|-0-----------|-5--5--5--5--5--5--5--5--5-----|
E|-----------------------------------|-------------|-------------------------------|


E|-------------|-0------0----|-------------|------------------------------|---------------------------------|
B|-------------|-1------1----|-------------|------------------------------|---------------------------------|
G|-------------|-2------0----|-------------|------------------------------|---------------------------------|
D|------3------|-2------2----|-------------|------3---3---3---3---3---3---|-3---3---3---3---3---3---3---3---|
A|------3------|-0------3----|-------------|------3---3---3---3---3---3---|-3---3---3---3---3---3---3---3---|
E|------1------|--------3----|-------2-----|------1---1---1---1---1---1---|-1---1---1---1---1---1---1---1---|


E|---------------------------------|------------------0-----------|------------------|
B|---------------------------------|--------------0-------0-------|------------------|
G|---------------------------------|------------------------------|-------------2----|
D|-3---3---3---3---3---3---3---3---|-3---3---2--------------------|-------------2----|
A|-3---3---3---3---3---3---3---3---|-3---3---2--------------------|-------------0----|
E|-1---1---1---1---1---1---1---1---|-1---1---0----------------0---|-2-----3----------|


E|------------------------------|---------------0-----------|------------------|---------------------|
B|------------------------------|-----------0-------0-------|------------------|---------------------|
G|-----2------------------------|---------------------------|------------------|-----0-----------0---|
D|-----2------------------------|------2--------------------|-------------3----|-----------8---------|
A|-----0---0---2---3----5---5---|-7----2--------------------|-------------3----|-----------8---------|
E|------------------------------|------0----------------0---|-2-----3-----1----|-----------6---------|


E|---------------0-----------|------------------|------------------------------|---------------0-----------|
B|-----------0-------0-------|------------------|------------------------------|-----------0-------0-------|
G|---------------------------|-------------2----|-----2------------------------|---------------------------|
D|------2--------------------|-------------2----|-----2------------------------|------2--------------------|
A|------2--------------------|-------------0----|-----0---0---2---3----5---5---|-7----2--------------------|
E|------0----------------0---|-2-----3----------|------------------------------|------0----------------0---|


E|------------------|---------------------|-------------|--------------------|--------|
B|------------------|---------------------|-------------|--------------------|--------|
G|------------------|-----0-----------0---|------7------|-7-----7---7---2----|--------|
D|-------------3----|-----------8---------|------7------|-7-----7---7---2----|--------|
A|-------------3----|-----------8---------|------5------|-5-----5---5---0----|--------|
E|-2-----3-----1----|-----------6---------|-------------|--------------------|--------|


E|-------------|---------------3----|--------|-------------|--------------------|--------|
B|-------------|---------------3----|--------|-------------|--------------------|--------|
G|------5------|-5-----5---5---0----|--------|------7------|-7-----7---7---2----|--------|
D|------5------|-5-----5---5---0----|--------|------7------|-7-----7---7---2----|--------|
A|------3------|-3-----3---3--------|--------|------5------|-5-----5---5---0----|--------|
E|-------------|---------------3----|--------|-------------|--------------------|--------|


E|-------------|--------------------|--------|-------------|--------------------|--------|
B|-------------|--------------------|--------|-------------|--------------------|--------|
G|------5------|-5-----5---5---3----|--------|------7------|-7-----7---7--------|--------|
D|------5------|-5-----5---5---3----|--------|------7------|-7-----7---7--------|--------|
A|------3------|-3-----3---3---1----|--------|------5------|-5-----5---5---3----|--------|
E|-------------|--------------------|--------|-------------|--------------------|--------|


E|-------------|----------------|------------------------------|---------------------------|
B|-------------|----------------|------------------------------|---------------------------|
G|------2------|--------3---3---|-3---3---3---3---3----3---3---|-3-------------------------|
D|-------------|--------3---3---|-3---3---3---3---3----3---3---|-3----2------------5---2---|
A|------2------|--------1---1---|-1---1---1---1---1----1---1---|-1----2----2---4---5---2---|
E|-------------|----------------|------------------------------|------0--------------------|


E|------------------------------|------------------------------|------------------------------|
B|------------------------------|------------------------------|------------------------------|
G|-----3----------------2-------|------------------------------|-----3------------------------|
D|-----3---2------------2-------|----------------------5---2---|-----3---2--------------------|
A|-----1---2----2---4-----------|--------------2---4---5---2---|-----1---2----2---4---3-------|
E|---------0----------------3---|-2----0---0-------------------|---------0----------------2---|


E|------------------------------|------------------------------|------------------------------|
B|------------------------------|------------------------------|------------------------------|
G|------------------------------|-----3----------------2-------|------------------------------|
D|---------2------------5---2---|-----3---2------------2-------|----------------------5---2---|
A|-----2---2----2---4---5---2---|-----1---2----2---4-----------|--------------2---4---5---2---|
E|-1-------0--------------------|---------0----------------3---|-2----0---0-------------------|


E|------------------------------|---------------------------|---------------------------|
B|------------------------------|---------------------------|---------------------------|
G|-----3------------------------|---------------------------|---------------------------|
D|-----3---2--------------------|---------2---2-------------|------2---2----------------|
A|-----1---2----2---4---3-------|-----2---2---2-------------|------2---2----------------|
E|---------0----------------2---|-1-------0---0-------------|------0---0------------7---|


E|----------------------------------|-------------------------------------|-------------------------------------|
B|----------------------------------|-------------------------------------|-------------------------------------|
G|----------------------------------|-------------------------------------|-------------------------------------|
D|------2---2---------2---------2---|-5---0---2---2---------2---------2---|-4-------2---2---------2---------2---|
A|------2---2---------2---------2---|-5---0---2---2---------2---------2---|-2---3---2---2---------2---------2---|
E|-6----0---0---0--0------0--0------|---------0---0---0--0------0--0------|-----1---0---0---0--0------0--0------|


E|-------------------------------------|----------------------------------|-------------------------------------|
B|-------------------------------------|----------------------------------|-------------------------------------|
G|-------------------------------------|----------------------------------|-------------------------------------|
D|-5---0---2---2---------2-------------|------2---2---------2---------2---|-5---0---2---2---------2---------2---|
A|-5---0---2---2---------2-------------|------2---2---------2---------2---|-5---0---2---2---------2---------2---|
E|---------0---0---0--0------0--0--7---|-6----0---0---0--0------0--0------|---------0---0---0--0------0--0------|


E|-------------------------------------|-------------------------------------|----------------------------------|
B|-------------------------------------|-------------------------------------|----------------------------------|
G|-------------------------------------|-------------------------------------|----------------------------------|
D|-4-------2---2---------2---------2---|-5---0---2---2---------2-------------|------2---2---------2-------------|
A|-2---3---2---2---------2---------2---|-5---0---2---2---------2-------------|------2---2---------2-------------|
E|-----1---0---0---0--0------0--0------|---------0---0---0--0------0--0--7---|-6----0---0---0--0------0--0--7---|


E|-------------------------------------|-------------------------------------|-------------------------------------|
B|-------------------------------------|-------------------------------------|-------------------------------------|
G|-------------------------------------|-------------------------------------|-------------------------------------|
D|---------2---2---------2-------------|---------2---2---------2-------------|---------2---2---------2-------------|
A|---------2---2---------2---------5---|-4---3---2---2---------2-------------|---------2---2---------2---------5---|
E|-6---5---0---0---0--0------0--0------|---------0---0---0--0------0--0--7---|-6---5---0---0---0--0------0--0------|


E|------------------------------|---------------------------|---------------------------|
B|------------------------------|---------------------------|---------------------------|
G|------------------------------|---------------------------|---------------------------|
D|------------------------------|-----8---8-----------------|---------------------------|
A|-4---3------------------------|-----7---7-----7---7---5---|---------------------------|
E|---------0----13--10--3---4---|-5---6---6-----7---7---5---|------0----13--10--3---4---|


E|-----------------------------|------------------------------|---------------------------|
B|-----------------------------|------------------------------|---------------------------|
G|-----9---9-------------------|------------------------------|---------------------------|
D|-----8---8-----9---9--9------|------------------------------|-----8---8-----------------|
A|-----7---7-----7---7--7--7---|-5----------------------------|-----7---7-----7---7---5---|
E|-5---6---6-------------------|-----7---0----13--10--3---4---|-5---6---6-----7---7---5---|


E|---------------------------|-----0---0------|---------------------------|---------------------------------|
B|---------------------------|----------------|---------------------------|---------------------------------|
G|---------------------------|----------------|---------------------------|---------------------------------|
D|---------------------------|----------------|---------------------------|---------------------------------|
A|---------------------------|----------------|-----------7---5-----------|---------5-----------------------|
E|------0----13--10--3---4---|-5--------------|------0------------7---6---|-5---0-------7---6---5---3---5---|


E|---------------------------|---------------------------------|---------------------------|
B|---------------------------|---------------------------------|---------------------------|
G|---------------------------|---------------------------------|---------------------------|
D|---------------------------|---------------------------------|---------------------------|
A|-----------7---5-----------|---------5-----------------------|-----------7---5-----------|
E|-3----0------------7---6---|-5---0-------7---6---5---3---5---|-3----0------------7---6---|


E|---------------------------------|---------------------------|---------------------------------|
B|---------------------------------|---------------------------|---------------------------------|
G|---------------------------------|---------------------------|---------------------------------|
D|---------------------------------|---------------------------|---------------------------------|
A|---------5-----------------------|-----------7---5-----------|---------5-----------------------|
E|-5---0-------7---6---5---3---5---|-3----0------------7---6---|-5---0-------7---6---5---3---5---|


E|-------------|-------------|-------------|------3------|-3-----------|--------|-------------|
B|-------------|-------------|-------------|------3------|-3------3----|--------|-------------|
G|------2------|-------------|-------------|------0------|-0------2----|--------|------2------|
D|------2------|--------2----|-------2-----|------0------|-0------0----|--------|------2------|
A|------0------|--------2----|-------2-----|------2------|-2------0----|--------|------0------|
E|-3-----------|--------0----|-------0-----|------3------|-3-----------|--------|-------------|


E|-------------|-------------|------3------|-3-----------|-------------|-------------------------------|
B|-------------|-------------|------3------|-3-----------|-------------|-------------------------------|
G|-2-----------|-------------|------0------|-0-----------|-------------|------9----9---------9---------|
D|-2------2----|-------2-----|------0------|-0------3----|-------3-----|------7----7---------7---------|
A|-0------2----|-------2-----|------2------|-2------3----|-------3-----|------0----0---0--0--0---0--0--|
E|--------0----|-------0-----|------3------|-3------1----|-------1-----|-------------------------------|


E|-------------------------------|------------------------------------|------------------------------------|
B|--------------------------8----|-8---------8---------8----8---------|-8----------------------------------|
G|-9----9---------9---------9----|-9---------9---------9----9---------|-9---------5----5---------5---------|
D|-7----7---------7---------7----|-7---------7---------7----7---------|-7---------4----4---------4---------|
A|-0----0---0--0--0---0--0--0----|-0---0--0--0---0--0--0----0---0--0--|-0---0--0--0----0---0--0--0---0--0--|
E|-------------------------------|------------------------------------|------------------------------------|


E|----------------------------------|---------------------------------|------------------------------|
B|----------------------------------|---------------------------------|------------------------------|
G|-5----5---------5-----------------|---------------------------------|------------------------------|
D|-4----4---------4---------3---3---|-3---3---3---3---3---3---3---3---|-3---3---2------------5---2---|
A|-0----0---0--0--0---0--0--3---3---|-3---3---3---3---3---3---3---3---|-3---3---2----2---4---5---2---|
E|--------------------------1---1---|-1---1---1---1---1---1---1---1---|-1---1---0--------------------|


E|------------------------------|------------------------------|------------------------------|
B|------------------------------|------------------------------|------------------------------|
G|-----3----------------2-------|------------------------------|-----3------------------------|
D|-----3---2------------2-------|----------------------5---2---|-----3---2--------------------|
A|-----1---2----2---4-----------|--------------2---4---5---2---|-----1---2----2---4---3-------|
E|---------0----------------3---|-2----0---0-------------------|---------0----------------2---|


E|------------------------------|------------------------------|------------------------------|
B|------------------------------|------------------------------|------------------------------|
G|------------------------------|-----3----------------2-------|------------------------------|
D|---------2------------5---2---|-----3---2------------2-------|----------------------5---2---|
A|-----2---2----2---4---5---2---|-----1---2----2---4-----------|--------------2---4---5---2---|
E|-1-------0--------------------|---------0----------------3---|-2----0---0-------------------|


E|------------------------------|------------------------------|------------------------------|
B|------------------------------|------------------------------|------------------------------|
G|-----3------------------------|------------------------------|-----3----------------2-------|
D|-----3---2--------------------|---------2------------5---2---|-----3---2------------2-------|
A|-----1---2----2---4---3-------|-----2---2----2---4---5---2---|-----1---2----2---4-----------|
E|---------0----------------2---|-1-------0--------------------|---------0----------------3---|


E|------------------------------|------------------------------|------------------------------|
B|------------------------------|------------------------------|------------------------------|
G|------------------------------|-----3------------------------|------------------------------|
D|----------------------5---2---|-----3---2--------------------|---------2------------5---2---|
A|--------------2---4---5---2---|-----1---2----2---4---3-------|-----2---2----2---4---5---2---|
E|-2----0---0-------------------|---------0----------------2---|-1-------0--------------------|


E|------------------------------|------------------------------|------------------------------|
B|------------------------------|------------------------------|------------------------------|
G|-----3----------------2-------|------------------------------|-----3------------------------|
D|-----3---2------------2-------|----------------------5---2---|-----3---2--------------------|
A|-----1---2----2---4-----------|--------------2---4---5---2---|-----1---2----2---4---3-------|
E|---------0----------------3---|-2----0---0-------------------|---------0----------------2---|


E|---------------------------|
B|---------------------------|
G|---------------------------|
D|---------2---2-------------|
A|-----2---2---2-------------|
E|-1-------0---0-------------|





Track 4: Clean 2

E|--------|--------|--------|--------|--------|--------|--------|--------|--------|
B|--------|--------|--------|--------|--------|--------|--------|--------|--------|
G|--------|--------|--------|--------|--------|--------|--------|--------|--------|
D|--------|--------|--------|--------|--------|--------|--------|--------|--------|
A|--------|--------|--------|--------|--------|--------|--------|--------|--------|
E|--------|--------|--------|--------|--------|--------|--------|--------|--------|


E|--------|--------|--------|--------|--------|--------|--------|-------------0---------------------|
B|--------|--------|--------|--------|--------|--------|--------|---------------------1-------------|
G|--------|--------|--------|--------|--------|--------|--------|---------4-------4-----------------|
D|--------|--------|--------|--------|--------|--------|--------|-----2--------------------------4--|
A|--------|--------|--------|--------|--------|--------|--------|-0---------------------------2-----|
E|--------|--------|--------|--------|--------|--------|--------|-------------------------0---------|


E|-------0---------------------------3---|-------------------2--3--2-------------|
B|----0------0-----------------3---------|-3--------------3-----------3----------|
G|-0-------------0----------------4------|-------------2-----------------2---2---|
D|--------------------------5------------|-----5---0-----------------------------|
A|---------------------------------------|---------------------------------------|
E|-------------------3---3---------------|---------------------------------------|


E|-------------0---------------------|-------7---------------------|--------|--------|
B|---------------------1-------------|----8-----8------------------|--------|--------|
G|---------4-------4-----------------|-7-----------7---------------|--------|--------|
D|-----2--------------------------9--|----------------9------------|--------|--------|
A|-0---------------------------7-----|-------------------7---------|--------|--------|
E|-------------------------0---------|-----------------------------|--------|--------|


E|--------|--------|--------|--------|--------|--------|--------|--------|--------|
B|--------|--------|--------|--------|--------|--------|--------|--------|--------|
G|--------|--------|--------|--------|--------|--------|--------|--------|--------|
D|--------|--------|--------|--------|--------|--------|--------|--------|--------|
A|--------|--------|--------|--------|--------|--------|--------|--------|--------|
E|--------|--------|--------|--------|--------|--------|--------|--------|--------|


E|--------|--------|--------|--------|--------|-------------0---------------------|
B|--------|--------|--------|--------|--------|---------------------1-------------|
G|--------|--------|--------|--------|--------|---------4-------4-----------------|
D|--------|--------|--------|--------|--------|-----2--------------------------4--|
A|--------|--------|--------|--------|--------|-0---------------------------2-----|
E|--------|--------|--------|--------|--------|-------------------------0---------|


E|-------0---------------------------3---|-------------------2--3--2-------------|
B|----0------0-----------------3---------|-3--------------3-----------3----------|
G|-0-------------0----------------4------|-------------2-----------------2---2---|
D|--------------------------5------------|-----5---0-----------------------------|
A|---------------------------------------|---------------------------------------|
E|-------------------3---3---------------|---------------------------------------|


E|-------------0---------------------|-------7-----------------------3--3---|---------------------------------------|
B|---------------------1-------------|----8-----8-----------------3---------|-3------3------------------------------|
G|---------4-------4-----------------|-7-----------7------------------------|-----0-------------------0---0---------|
D|-----2--------------------------9--|----------------9---------------------|------------------3---3---------3------|
A|-0---------------------------7-----|-------------------7------------------|---------------3-------------------3---|
E|-------------------------0---------|-----------------------3--------------|-----------1---------------------------|


E|--------|--------|--------|--------|--------|--------|--------|--------|--------|
B|--------|--------|--------|--------|--------|--------|--------|--------|--------|
G|--------|--------|--------|--------|--------|--------|--------|--------|--------|
D|--------|--------|--------|--------|--------|--------|--------|--------|--------|
A|--------|--------|--------|--------|--------|--------|--------|--------|--------|
E|--------|--------|--------|--------|--------|--------|--------|--------|--------|


E|--------|--------|--------|--------|--------|--------|--------|--------|--------|
B|--------|--------|--------|--------|--------|--------|--------|--------|--------|
G|--------|--------|--------|--------|--------|--------|--------|--------|--------|
D|--------|--------|--------|--------|--------|--------|--------|--------|--------|
A|--------|--------|--------|--------|--------|--------|--------|--------|--------|
E|--------|--------|--------|--------|--------|--------|--------|--------|--------|


E|--------|--------|--------|--------|--------|--------|--------|--------|--------|
B|--------|--------|--------|--------|--------|--------|--------|--------|--------|
G|--------|--------|--------|--------|--------|--------|--------|--------|--------|
D|--------|--------|--------|--------|--------|--------|--------|--------|--------|
A|--------|--------|--------|--------|--------|--------|--------|--------|--------|
E|--------|--------|--------|--------|--------|--------|--------|--------|--------|


E|--------|--------|--------|--------|--------|--------|--------|--------|--------|
B|--------|--------|--------|--------|--------|--------|--------|--------|--------|
G|--------|--------|--------|--------|--------|--------|--------|--------|--------|
D|--------|--------|--------|--------|--------|--------|--------|--------|--------|
A|--------|--------|--------|--------|--------|--------|--------|--------|--------|
E|--------|--------|--------|--------|--------|--------|--------|--------|--------|


E|--------|--------|--------|--------|--------|--------|--------|--------|--------|
B|--------|--------|--------|--------|--------|--------|--------|--------|--------|
G|--------|--------|--------|--------|--------|--------|--------|--------|--------|
D|--------|--------|--------|--------|--------|--------|--------|--------|--------|
A|--------|--------|--------|--------|--------|--------|--------|--------|--------|
E|--------|--------|--------|--------|--------|--------|--------|--------|--------|


E|--------|--------|--------|--------|--------|--------|--------|--------|--------|
B|--------|--------|--------|--------|--------|--------|--------|--------|--------|
G|--------|--------|--------|--------|--------|--------|--------|--------|--------|
D|--------|--------|--------|--------|--------|--------|--------|--------|--------|
A|--------|--------|--------|--------|--------|--------|--------|--------|--------|
E|--------|--------|--------|--------|--------|--------|--------|--------|--------|


E|--------|--------|--------|--------|--------|--------|--------|--------|--------|
B|--------|--------|--------|--------|--------|--------|--------|--------|--------|
G|--------|--------|--------|--------|--------|--------|--------|--------|--------|
D|--------|--------|--------|--------|--------|--------|--------|--------|--------|
A|--------|--------|--------|--------|--------|--------|--------|--------|--------|
E|--------|--------|--------|--------|--------|--------|--------|--------|--------|


E|--------|--------|--------|--------|--------|--------|--------|--------|--------|
B|--------|--------|--------|--------|--------|--------|--------|--------|--------|
G|--------|--------|--------|--------|--------|--------|--------|--------|--------|
D|--------|--------|--------|--------|--------|--------|--------|--------|--------|
A|--------|--------|--------|--------|--------|--------|--------|--------|--------|
E|--------|--------|--------|--------|--------|--------|--------|--------|--------|


E|--------|--------|--------|--------|--------|--------|--------|--------|--------|
B|--------|--------|--------|--------|--------|--------|--------|--------|--------|
G|--------|--------|--------|--------|--------|--------|--------|--------|--------|
D|--------|--------|--------|--------|--------|--------|--------|--------|--------|
A|--------|--------|--------|--------|--------|--------|--------|--------|--------|
E|--------|--------|--------|--------|--------|--------|--------|--------|--------|


E|--------|--------|--------|--------|--------|--------|--------|--------|--------|
B|--------|--------|--------|--------|--------|--------|--------|--------|--------|
G|--------|--------|--------|--------|--------|--------|--------|--------|--------|
D|--------|--------|--------|--------|--------|--------|--------|--------|--------|
A|--------|--------|--------|--------|--------|--------|--------|--------|--------|
E|--------|--------|--------|--------|--------|--------|--------|--------|--------|


E|--------|--------|--------|--------|--------|--------|--------|--------|--------|
B|--------|--------|--------|--------|--------|--------|--------|--------|--------|
G|--------|--------|--------|--------|--------|--------|--------|--------|--------|
D|--------|--------|--------|--------|--------|--------|--------|--------|--------|
A|--------|--------|--------|--------|--------|--------|--------|--------|--------|
E|--------|--------|--------|--------|--------|--------|--------|--------|--------|


E|--------|--------|--------|--------|--------|--------|--------|--------|--------|
B|--------|--------|--------|--------|--------|--------|--------|--------|--------|
G|--------|--------|--------|--------|--------|--------|--------|--------|--------|
D|--------|--------|--------|--------|--------|--------|--------|--------|--------|
A|--------|--------|--------|--------|--------|--------|--------|--------|--------|
E|--------|--------|--------|--------|--------|--------|--------|--------|--------|





Track 5: Clean1

E|--------|--------|--------|--------|--------|--------|--------|--------|--------|
B|--------|--------|--------|--------|--------|--------|--------|--------|--------|
G|--------|--------|--------|--------|--------|--------|--------|--------|--------|
D|--------|--------|--------|--------|--------|--------|--------|--------|--------|
A|--------|--------|--------|--------|--------|--------|--------|--------|--------|
E|--------|--------|--------|--------|--------|--------|--------|--------|--------|


E|--------|--------|--------|--------|--------|--------|--------|--------|--------|
B|--------|--------|--------|--------|--------|--------|--------|--------|--------|
G|--------|--------|--------|--------|--------|--------|--------|--------|--------|
D|--------|--------|--------|--------|--------|--------|--------|--------|--------|
A|--------|--------|--------|--------|--------|--------|--------|--------|--------|
E|--------|--------|--------|--------|--------|--------|--------|--------|--------|


E|--------|--------|---------------3--3---|---------------------------------------|
B|--------|--------|------------3---------|-3------3------------------------------|
G|--------|--------|----------------------|-----0-------------------0---0---------|
D|--------|--------|----------------------|------------------3---3---------3------|
A|--------|--------|----------------------|---------------3-------------------3---|
E|--------|--------|-------3--------------|-----------1---------------------------|


E|--------|--------|--------|--------|--------|--------|--------|--------|--------|
B|--------|--------|--------|--------|--------|--------|--------|--------|--------|
G|--------|--------|--------|--------|--------|--------|--------|--------|--------|
D|--------|--------|--------|--------|--------|--------|--------|--------|--------|
A|--------|--------|--------|--------|--------|--------|--------|--------|--------|
E|--------|--------|--------|--------|--------|--------|--------|--------|--------|


E|--------|--------|--------|--------|--------|--------|--------|--------|--------|
B|--------|--------|--------|--------|--------|--------|--------|--------|--------|
G|--------|--------|--------|--------|--------|--------|--------|--------|--------|
D|--------|--------|--------|--------|--------|--------|--------|--------|--------|
A|--------|--------|--------|--------|--------|--------|--------|--------|--------|
E|--------|--------|--------|--------|--------|--------|--------|--------|--------|


E|--------|--------|--------|--------|--------|--------|--------|--------|--------|
B|--------|--------|--------|--------|--------|--------|--------|--------|--------|
G|--------|--------|--------|--------|--------|--------|--------|--------|--------|
D|--------|--------|--------|--------|--------|--------|--------|--------|--------|
A|--------|--------|--------|--------|--------|--------|--------|--------|--------|
E|--------|--------|--------|--------|--------|--------|--------|--------|--------|


E|--------|--------|--------|--------|--------|--------|--------|--------|--------|
B|--------|--------|--------|--------|--------|--------|--------|--------|--------|
G|--------|--------|--------|--------|--------|--------|--------|--------|--------|
D|--------|--------|--------|--------|--------|--------|--------|--------|--------|
A|--------|--------|--------|--------|--------|--------|--------|--------|--------|
E|--------|--------|--------|--------|--------|--------|--------|--------|--------|


E|--------|--------|--------|--------|--------|--------|--------|--------|--------|
B|--------|--------|--------|--------|--------|--------|--------|--------|--------|
G|--------|--------|--------|--------|--------|--------|--------|--------|--------|
D|--------|--------|--------|--------|--------|--------|--------|--------|--------|
A|--------|--------|--------|--------|--------|--------|--------|--------|--------|
E|--------|--------|--------|--------|--------|--------|--------|--------|--------|


E|--------|--------|--------|--------|--------|--------|--------|--------|--------|
B|--------|--------|--------|--------|--------|--------|--------|--------|--------|
G|--------|--------|--------|--------|--------|--------|--------|--------|--------|
D|--------|--------|--------|--------|--------|--------|--------|--------|--------|
A|--------|--------|--------|--------|--------|--------|--------|--------|--------|
E|--------|--------|--------|--------|--------|--------|--------|--------|--------|


E|--------|--------|--------|--------|--------|--------|--------|--------|--------|
B|--------|--------|--------|--------|--------|--------|--------|--------|--------|
G|--------|--------|--------|--------|--------|--------|--------|--------|--------|
D|--------|--------|--------|--------|--------|--------|--------|--------|--------|
A|--------|--------|--------|--------|--------|--------|--------|--------|--------|
E|--------|--------|--------|--------|--------|--------|--------|--------|--------|


E|--------|--------|--------|--------|--------|--------|--------|--------|--------|
B|--------|--------|--------|--------|--------|--------|--------|--------|--------|
G|--------|--------|--------|--------|--------|--------|--------|--------|--------|
D|--------|--------|--------|--------|--------|--------|--------|--------|--------|
A|--------|--------|--------|--------|--------|--------|--------|--------|--------|
E|--------|--------|--------|--------|--------|--------|--------|--------|--------|


E|--------|--------|--------|--------|--------|--------|--------|--------|--------|
B|--------|--------|--------|--------|--------|--------|--------|--------|--------|
G|--------|--------|--------|--------|--------|--------|--------|--------|--------|
D|--------|--------|--------|--------|--------|--------|--------|--------|--------|
A|--------|--------|--------|--------|--------|--------|--------|--------|--------|
E|--------|--------|--------|--------|--------|--------|--------|--------|--------|


E|--------|--------|--------|--------|--------|--------|--------|--------|--------|
B|--------|--------|--------|--------|--------|--------|--------|--------|--------|
G|--------|--------|--------|--------|--------|--------|--------|--------|--------|
D|--------|--------|--------|--------|--------|--------|--------|--------|--------|
A|--------|--------|--------|--------|--------|--------|--------|--------|--------|
E|--------|--------|--------|--------|--------|--------|--------|--------|--------|


E|--------|--------|--------|--------|--------|--------|--------|--------|--------|
B|--------|--------|--------|--------|--------|--------|--------|--------|--------|
G|--------|--------|--------|--------|--------|--------|--------|--------|--------|
D|--------|--------|--------|--------|--------|--------|--------|--------|--------|
A|--------|--------|--------|--------|--------|--------|--------|--------|--------|
E|--------|--------|--------|--------|--------|--------|--------|--------|--------|


E|--------|--------|--------|--------|--------|--------|--------|--------|--------|
B|--------|--------|--------|--------|--------|--------|--------|--------|--------|
G|--------|--------|--------|--------|--------|--------|--------|--------|--------|
D|--------|--------|--------|--------|--------|--------|--------|--------|--------|
A|--------|--------|--------|--------|--------|--------|--------|--------|--------|
E|--------|--------|--------|--------|--------|--------|--------|--------|--------|


E|--------|--------|--------|--------|--------|--------|--------|--------|--------|
B|--------|--------|--------|--------|--------|--------|--------|--------|--------|
G|--------|--------|--------|--------|--------|--------|--------|--------|--------|
D|--------|--------|--------|--------|--------|--------|--------|--------|--------|
A|--------|--------|--------|--------|--------|--------|--------|--------|--------|
E|--------|--------|--------|--------|--------|--------|--------|--------|--------|


E|--------|--------|--------|--------|--------|--------|--------|--------|--------|
B|--------|--------|--------|--------|--------|--------|--------|--------|--------|
G|--------|--------|--------|--------|--------|--------|--------|--------|--------|
D|--------|--------|--------|--------|--------|--------|--------|--------|--------|
A|--------|--------|--------|--------|--------|--------|--------|--------|--------|
E|--------|--------|--------|--------|--------|--------|--------|--------|--------|


E|--------|--------|--------|
B|--------|--------|--------|
G|--------|--------|--------|
D|--------|--------|--------|
A|--------|--------|--------|
E|--------|--------|--------|





Track 6: Dist Solo

E|--------|--------|--------|--------|--------|--------|--------|--------|--------|
B|--------|--------|--------|--------|--------|--------|--------|--------|--------|
G|--------|--------|--------|--------|--------|--------|--------|--------|--------|
D|--------|--------|--------|--------|--------|--------|--------|--------|--------|
A|--------|--------|--------|--------|--------|--------|--------|--------|--------|
E|--------|--------|--------|--------|--------|--------|--------|--------|--------|


E|--------|--------|--------|--------|--------|--------|--------|--------|--------|
B|--------|--------|--------|--------|--------|--------|--------|--------|--------|
G|--------|--------|--------|--------|--------|--------|--------|--------|--------|
D|--------|--------|--------|--------|--------|--------|--------|--------|--------|
A|--------|--------|--------|--------|--------|--------|--------|--------|--------|
E|--------|--------|--------|--------|--------|--------|--------|--------|--------|


E|--------|--------|--------|--------|--------|--------|--------|--------|--------|
B|--------|--------|--------|--------|--------|--------|--------|--------|--------|
G|--------|--------|--------|--------|--------|--------|--------|--------|--------|
D|--------|--------|--------|--------|--------|--------|--------|--------|--------|
A|--------|--------|--------|--------|--------|--------|--------|--------|--------|
E|--------|--------|--------|--------|--------|--------|--------|--------|--------|


E|--------|--------|--------|--------|--------|--------|--------|--------|--------|
B|--------|--------|--------|--------|--------|--------|--------|--------|--------|
G|--------|--------|--------|--------|--------|--------|--------|--------|--------|
D|--------|--------|--------|--------|--------|--------|--------|--------|--------|
A|--------|--------|--------|--------|--------|--------|--------|--------|--------|
E|--------|--------|--------|--------|--------|--------|--------|--------|--------|


E|--------|--------|--------|--------|--------|--------|--------|--------|--------|
B|--------|--------|--------|--------|--------|--------|--------|--------|--------|
G|--------|--------|--------|--------|--------|--------|--------|--------|--------|
D|--------|--------|--------|--------|--------|--------|--------|--------|--------|
A|--------|--------|--------|--------|--------|--------|--------|--------|--------|
E|--------|--------|--------|--------|--------|--------|--------|--------|--------|


E|--------|--------|--------|--------|--------|--------|--------|--------|--------|
B|--------|--------|--------|--------|--------|--------|--------|--------|--------|
G|--------|--------|--------|--------|--------|--------|--------|--------|--------|
D|--------|--------|--------|--------|--------|--------|--------|--------|--------|
A|--------|--------|--------|--------|--------|--------|--------|--------|--------|
E|--------|--------|--------|--------|--------|--------|--------|--------|--------|


E|--------|-------------|--------|-------------|-------------|-------------------|
B|--------|-------------|--------|-------------|-------------|-------------------|
G|--------|-------------|--------|-------------|-------------|-------------3--5--|
D|--------|-------------|--------|-------------|-------------|-------------------|
A|--------|-------------|--------|-------------|-------------|-------------------|
E|--------|-------------|--------|-------------|-------------|-------------------|


E|-------------5------|------------------------|---------------------|---------------------|
B|----5--6--8---------|-8-----8---8---6---5----|-5---5-----5-----5---|---------6-----6-----|
G|-7------------------|------------------------|---------------------|-----5---------------|
D|--------------------|------------------------|---------------------|---------------------|
A|--------------------|------------------------|---------------------|---------------------|
E|--------------------|------------------------|---------------------|---------------------|


E|------------------------|------------------------------|----------------|---------------------------|
B|-6----6---6---5----3----|-----3------------------------|-8-------8------|-10-----------10------12---|
G|------------------------|----------------------7-------|-----7----------|------10--10------10-------|
D|------------------------|--------------9-----------9---|----------------|---------------------------|
A|------------------------|----------10------10----------|----------------|---------------------------|
E|------------------------|------------------------------|----------------|---------------------------|


E|-----------------|----------------|------------------------|-------------------------------|
B|-------12----12--|---------13-----|-13---15--15--17---17---|-17-17-17--15---15-------------|
G|-----------------|-----12---------|------------------------|-------------------------------|
D|-----------------|----------------|------------------------|----------------------14-15-17-|
A|-----------------|----------------|------------------------|-------------------------------|
E|-----------------|----------------|------------------------|-------------------------------|


E|----------------------------------|---------------------|----------15------------|
B|----------15-17-18-17----17---17--|-17----17-------17---|-----17-------17----17--|
G|-14-16-17-------------------------|------------14-------|------------------------|
D|----------------------------------|---------------------|------------------------|
A|----------------------------------|---------------------|------------------------|
E|----------------------------------|---------------------|------------------------|


E|----------------------------------|-----------------------------------------------------------|
B|-----18----20----20--20--20-20-18-|-20--20-20-20-20-20-20-20-20-18----18-20-20-20-18----18-20-|
G|--------17------------------------|--------------------------------19----------------19-------|
D|-19-------------------------------|-----------------------------------------------------------|
A|----------------------------------|-----------------------------------------------------------|
E|----------------------------------|-----------------------------------------------------------|


E|------------------------------------------20------|-20-----------------|-------------|
B|-20-20-18----18-20-20-20-18----18-20-20-------20--|-----20--20---------|-------------|
G|----------19----------------19--------------------|--------------------|-------------|
D|--------------------------------------------------|--------------------|-------------|
A|--------------------------------------------------|--------------------|-------------|
E|--------------------------------------------------|--------------------|-------------|


E|-------------|-------------|--------|--------|--------|--------|--------|--------|
B|-------------|-------------|--------|--------|--------|--------|--------|--------|
G|-------------|-------------|--------|--------|--------|--------|--------|--------|
D|-------------|-------------|--------|--------|--------|--------|--------|--------|
A|-------------|-------------|--------|--------|--------|--------|--------|--------|
E|-------------|-------------|--------|--------|--------|--------|--------|--------|


E|--------|--------|--------|--------|--------|--------|--------|--------|--------|
B|--------|--------|--------|--------|--------|--------|--------|--------|--------|
G|--------|--------|--------|--------|--------|--------|--------|--------|--------|
D|--------|--------|--------|--------|--------|--------|--------|--------|--------|
A|--------|--------|--------|--------|--------|--------|--------|--------|--------|
E|--------|--------|--------|--------|--------|--------|--------|--------|--------|


E|--------|--------|--------|--------|--------|--------|--------|--------|--------|
B|--------|--------|--------|--------|--------|--------|--------|--------|--------|
G|--------|--------|--------|--------|--------|--------|--------|--------|--------|
D|--------|--------|--------|--------|--------|--------|--------|--------|--------|
A|--------|--------|--------|--------|--------|--------|--------|--------|--------|
E|--------|--------|--------|--------|--------|--------|--------|--------|--------|


E|--------|--------|--------|--------|--------|--------|--------|--------|--------|
B|--------|--------|--------|--------|--------|--------|--------|--------|--------|
G|--------|--------|--------|--------|--------|--------|--------|--------|--------|
D|--------|--------|--------|--------|--------|--------|--------|--------|--------|
A|--------|--------|--------|--------|--------|--------|--------|--------|--------|
E|--------|--------|--------|--------|--------|--------|--------|--------|--------|


E|--------|--------|--------|--------|--------|--------|--------|--------|--------|
B|--------|--------|--------|--------|--------|--------|--------|--------|--------|
G|--------|--------|--------|--------|--------|--------|--------|--------|--------|
D|--------|--------|--------|--------|--------|--------|--------|--------|--------|
A|--------|--------|--------|--------|--------|--------|--------|--------|--------|
E|--------|--------|--------|--------|--------|--------|--------|--------|--------|


E|--------|--------|--------|--------|--------|--------|--------|--------|--------|
B|--------|--------|--------|--------|--------|--------|--------|--------|--------|
G|--------|--------|--------|--------|--------|--------|--------|--------|--------|
D|--------|--------|--------|--------|--------|--------|--------|--------|--------|
A|--------|--------|--------|--------|--------|--------|--------|--------|--------|
E|--------|--------|--------|--------|--------|--------|--------|--------|--------|


E|--------|--------|--------|--------|--------|--------|--------|--------|--------|
B|--------|--------|--------|--------|--------|--------|--------|--------|--------|
G|--------|--------|--------|--------|--------|--------|--------|--------|--------|
D|--------|--------|--------|--------|--------|--------|--------|--------|--------|
A|--------|--------|--------|--------|--------|--------|--------|--------|--------|
E|--------|--------|--------|--------|--------|--------|--------|--------|--------|


E|--------|--------|--------|--------|--------|--------|--------|--------|--------|
B|--------|--------|--------|--------|--------|--------|--------|--------|--------|
G|--------|--------|--------|--------|--------|--------|--------|--------|--------|
D|--------|--------|--------|--------|--------|--------|--------|--------|--------|
A|--------|--------|--------|--------|--------|--------|--------|--------|--------|
E|--------|--------|--------|--------|--------|--------|--------|--------|--------|





Track 7: John Myung

C|--------|--------|--------|----------------------------------------|--------|-----------------------------|
G|--------|--------|--------|----------------------------------------|--------|-----------------------------|
D|--------|--------|--------|----------------3-----------------------|--------|-----------------------------|
A|--------|--------|--------|-------------3--------2--4--3--------2--|--------|-----------2--4--3--------2--|
E|--------|--------|-0------|-0----0--1---------0-----------2--1-----|-0------|-0-----0------------2--1-----|
B|--------|--------|--------|----------------------------------------|--------|-----------------------------|


C|------------------|----------------------------------------|---------------------------|
G|------------------|----------------------------------------|---------------------------|
D|------------------|----------------3-----------------------|---------------------------|
A|------------------|-------------3--------2--4--3--------2--|---------------------------|
E|-0------0--3--2---|-0----0--1---------0-----------2--1-----|-0----0-----10-12-12-12----|
B|------------------|----------------------------------------|---------12----------------|


C|-----------------------|--------------------|------4--4----------------------|--------------------------------------|
G|-----------------------|--------------------|--------------------------------|--------------------------------7--9--|
D|-----------------------|--------------12-14-|--------------------------------|--------------------------------------|
A|-----------10------9---|-----------14-------|------------------10-------9----|---------------10--------10-----------|
E|-0---------------------|-0------0-----------|-0----0--0----------------------|------------10----12-12-----12--------|
B|-------8---8---7---7---|--------------------|--------------8------7--7-------|-5----5--12---------------------------|


C|-----------------|-------------------------------|---------------------------|---------------------|
G|-----------------|-------------------------7--9--|---------------------------|---------------------|
D|-----------------|-------------------------------|---------------------------|---------------------|
A|-----------------|----------------10-------------|-----------10-------9------|---------------------|
E|-0---------------|-0-----0-----10----12-10-------|-0-------------------------|---------------------|
B|-------8----7----|----------11-------------------|-------8------7--7-----7---|-10----10---10--5----|


C|-------------------------------|-------------|---------------------|-----------------|
G|-------------------------------|-------------|---------------------|-----------------|
D|-------------------------------|------0------|---------------------|-----------------|
A|-------------------------------|-------------|---------------------|-----------------|
E|-----------10-12--12-3-----15--|-------------|---------------------|-----------------|
B|-----5--12---------------------|-------------|-10----10---10--5----|-------8-----8---|


C|----------------|-----------------------------|---------------------------|----------------|
G|----------------|-----------------------------|---------------------------|----------------|
D|----------------|-----------------------------|---------------------------|----------------|
A|----------------|----10-12---12---------------|---------------------------|----------------|
E|----------------|-12--------------------------|---------------------------|----------------|
B|-----8---6------|-----------------10-10--8----|-----8---8---8---7-----7---|-7---7---6------|


C|-------------------------------|-----------------------|---------------------------|
G|-------------------------------|-----------------------|---------------------------|
D|-------------------------12-14-|-----------------------|---------------------------|
A|----------------10-------------|-----------10------9---|---------------------------|
E|-0-----0-----10----12-10-------|-0---------------------|-0----0-----10-12-12-12----|
B|----------12-------------------|-------8-------7-------|---------12----------------|


C|----------------------------------------|------------------------|-----------------|
G|----------------------------------------|------------------------|-----------------|
D|----------------3-----------------------|------------------------|-----------------|
A|-------------3--------2--4--3--------2--|----------------10------|-----------------|
E|-0----0--1---------0-----------2--1-----|-0-----0-----10----12---|-0---------------|
B|----------------------------------------|----------12------------|-------8----7----|


C|-------------------------------|---------------------|--------|-----------------|
G|--------------------------7----|-9----9--------------|--------|-----------------|
D|-------------------------------|---------------------|--------|-----------------|
A|-------------------------------|---------------------|--------|-----------------|
E|-0----0-----10-12-12---12------|-----------3----2----|-0------|-0-----3----2----|
B|---------12--------------------|---------------------|--------|-----------------|


C|-------------------------------|-------------------------|-------------|-------------|
G|-------------------------7--9--|-------------------------|-------------|-------------|
D|-------------------------------|-------------------------|-------------|-------------|
A|----------------10-------------|-----------10------------|-------------|-------------|
E|-0-----0-----10----12-10-------|-0-----------------------|-5------0----|-------3-----|
B|----------11-------------------|-------8------7--7---7---|-------------|-------------|


C|-------------|-------------|-------------|-------------|-----------------------------|
G|-------------|-------------|-------------|-------------|-----------------------------|
D|-------------|-------------|-------------|-------------|-----------------------------|
A|-------------|-------------|-------------|-------------|----10-12---12---------------|
E|-------------|-------------|-------------|-------------|-12--------------------------|
B|------3------|-10-----5----|-------8-----|------6------|-----------------10-10--8----|


C|---------------------------|-----------------------------------|---------------------------------|
G|---------------------------|-----------------------------------|---------------------------------|
D|---------------------------|-----------------------------------|---------------------------------|
A|---------------------------|-----------------------------------|---------------------------------|
E|---------------------------|-----------------------------------|---------------------------------|
B|-----8----8--8---7-----7---|----7--7---6---6---6---6---6---6---|-6---6---6---6---6---6---6---6---|


C|---------------------------------|----------------|------------------|------------------------------|
G|---------------------------------|----------------|------------------|------------------------------|
D|---------------------------------|----------------|------------------|------------------------------|
A|---------------------------------|----------------|-------------0----|-----0---0---2---3----5---5---|
E|---------------------------------|---------0------|-2-----3----------|------------------------------|
B|-6---6---6---6---6---6---6---6---|-6---6----------|------------------|------------------------------|


C|-------------|---------------------|---------------------------------|----------------|
G|-------------|---------------------|---------------------------------|----------------|
D|-------------|---------------------|---------------------------------|----------------|
A|-7-----------|---------------------|-----------------1---1---1---1---|-1---1----------|
E|------0------|-2-----3-----1---1---|-1---1---1---1-------------------|---------0------|
B|-------------|---------------------|---------------------------------|----------------|


C|------------------|------------------------------|-------------|---------------------|
G|------------------|------------------------------|-------------|---------------------|
D|------------------|------------------------------|-------------|---------------------|
A|-------------0----|-----0---0---2---3----5---5---|-7-----------|---------------------|
E|-2-----3----------|------------------------------|------0------|-2-----3-----1---1---|
B|------------------|------------------------------|-------------|---------------------|


C|---------------------------------|---------------------------------|---------------------------------|
G|---------------------------------|---------------------------------|---------------------------------|
D|---------------------------------|---------------------------------|---------------------------------|
A|-----------------1---1---1---1---|-1---1---5---5---5---5---5---5---|-5---5---5---5---5---5---0---0---|
E|-1---1---1---1-------------------|---------------------------------|---------------------------------|
B|---------------------------------|---------------------------------|---------------------------------|


C|---------------------------------|---------------------------------|---------------------------------|
G|---------------------------------|---------------------------------|---------------------------------|
D|---------------------------------|---------------------------------|---------------------------------|
A|-0---0---0---0---0---0---0---0---|-0---0---3---3---3---3---3---3---|-3---3---3---3---3---3-----------|
E|---------------------------------|---------------------------------|-------------------------3---3---|
B|---------------------------------|---------------------------------|---------------------------------|


C|---------------------------------|---------------------------------|---------------------------------|
G|---------------------------------|---------------------------------|---------------------------------|
D|---------------------------------|---------------------------------|---------------------------------|
A|---------------------------------|---------5---5---5---5---5---5---|-5---5---5---5---5---5---0---0---|
E|-3---3---3---3---3---3---3---3---|-3---3---------------------------|---------------------------------|
B|---------------------------------|---------------------------------|---------------------------------|


C|---------------------------------|---------------------------------|---------------------------------|
G|---------------------------------|---------------------------------|---------------------------------|
D|---------------------------------|---------------------------------|---------------------------------|
A|-0---0---0---0---0---0---0---0---|-0---0---3---3---3---3---3---3---|-3---3---3---3---3---3---1---1---|
E|---------------------------------|---------------------------------|---------------------------------|
B|---------------------------------|---------------------------------|---------------------------------|


C|---------------------------------|-------------------------0---2---|-----------------0---2-----------|
G|---------------------------------|---------------------------------|---------------------------------|
D|---------------------------------|---------0---0---0---0-----------|-0---0---0---0-------------------|
A|-1---1---1---1---1---1---1---1---|-1---1---------------------------|-------------------------3---3---|
E|---------------------------------|---------------------------------|---------------------------------|
B|---------------------------------|---------------------------------|---------------------------------|


C|---------0---2-------------------|-0---2-------------------0---2---|---------------------------------|
G|---------------------------------|---------------------------------|---------------------------------|
D|---------------------------------|---------------------------------|---------------------------------|
A|-3---3-----------3---3---3---3---|---------2---2---2---2-----------|-2---2---2---2---2---2---1---1---|
E|---------------------------------|---------------------------------|---------------------------------|
B|---------------------------------|---------------------------------|---------------------------------|


C|---------------------------|---------------------------|------------------------------|
G|---------------------------|---------------------------|------------------------------|
D|---------------------------|---------------------------|------------------------------|
A|-1---1---1---1---1----1----|-1-------------------------|------------------------------|
E|---------------------------|------0----0---0---0---0---|-----6---0----0---0---0---3---|
B|---------------------------|---------------------------|------------------------------|


C|---------------------------|------------------------------|------------------------------|
G|---------------------------|------------------------------|------------------------------|
D|---------------------------|------------------------------|------------------------------|
A|---------------------------|--------------2---4---3-------|-----2------------------------|
E|-2----0----0---0---0---0---|-----6---0----------------2---|-1-------0----0---0---0---0---|
B|---------------------------|------------------------------|------------------------------|


C|------------------------------|---------------------------|------------------------------|
G|------------------------------|---------------------------|------------------------------|
D|------------------------------|---------------------------|------------------------------|
A|------------------------------|---------------------------|--------------2---4---3-------|
E|-----6---0----0---0---0---3---|-2----0----0---0---0---0---|-----6---0----------------2---|
B|------------------------------|---------------------------|------------------------------|


C|------------------------------|------------------------------|------------------------------|
G|------------------------------|------------------------------|------------------------------|
D|------------------------------|------------------------------|------------------------------|
A|-----2------------------------|------------------------------|------------------------------|
E|-1-------0---0-------0---0----|------0---0-------0---0---7---|-6----0---0-------0-------0---|
B|------------------------------|-8----------------------------|------------------------------|


C|---------------------------------|---------------------------------|---------------------------------|
G|---------------------------------|---------------------------------|---------------------------------|
D|---------------------------------|---------------------------------|---------------------------------|
A|---------------------------------|-2-------------------------------|---------------------------------|
E|-3-------0---0-------0-------0---|-----1---0---0-------0-------0---|-3-------0---0-------0-------7---|
B|-----3---------------------------|---------------------------------|-----3---------------------------|


C|------------------------------|---------------------------------|---------------------------------|
G|------------------------------|-----------------------------7---|-6---5---------------------------|
D|--------------------------9---|-8---7---------------------------|-----------------------------9---|
A|------------------------------|---------------------------------|---------------------------------|
E|-6----0---0-------0-----------|---------0---0-------0-----------|---------0---0-------0-----------|
B|------------------------------|---------------------------------|---------------------------------|


C|---------------------------------|------------------------------|---------------------------------|
G|---------------------------------|------------------------------|-----------------------------7---|
D|-8---7---------------------------|--------------------------9---|-8---7---------------------------|
A|---------------------------------|------------------------------|---------------------------------|
E|---------0---0-------0-------7---|-6----0---0-------0-----------|---------0---0-------0-----------|
B|---------------------------------|------------------------------|---------------------------------|


C|---------------------------------|---------------------------------|---------------------------------|
G|-6---5---------------------------|-----------------------------7---|-6---5---------------------------|
D|-----------------------------9---|-8---7---------------------------|---------------------------------|
A|---------------------------------|---------------------------------|---------------------------------|
E|---------0---0-------0-----------|---------0---0-------0-----------|---------------------------------|
B|---------------------------------|---------------------------------|---------5---5---5---5---5---3---|


C|------------------------------|---------------------------------|------------------------------|
G|------------------------------|---------------------------------|------------------------------|
D|-----2---2--------------------|---------------------------------|-----2---2--------------------|
A|------------------------------|---------------------------------|------------------------------|
E|------------------------------|---------------------------------|------------------------------|
B|-5-----------5----3---3---5---|-3---5---5---5---5---5---5---3---|-5-----------5----3---3---5---|


C|---------------------------------|------------------------------|---------------------------------|
G|---------------------------------|------------------------------|---------------------------------|
D|---------------------------------|-----2---2--------------------|---------------------------------|
A|---------------------------------|------------------------------|---------------------------------|
E|---------------------------------|------------------------------|---------------------------------|
B|-3---1---5---5---5---5---5---3---|-5-----------5----3---3---5---|-3---5---5---5---5---5---5---3---|


C|------------------------------|------------------------------|---------------------------------|
G|------------------------------|------------------------------|---------------------------------|
D|-----2---2--------------------|------------------------------|---------------------------------|
A|------------------------------|--------------7---5-----------|---------5-----------------------|
E|------------------------------|---------0------------7---6---|-5---0-------7---6---5---3---5---|
B|-5-----------5----3---3---5---|-3---5------------------------|---------------------------------|


C|---------------------------|---------------------------------|---------------------------|
G|---------------------------|---------------------------------|---------------------------|
D|---------------------------|---------------------------------|---------------------------|
A|-----------7---5-----------|---------5-----------------------|-----------7---5-----------|
E|-3----0------------7---6---|-5---0-------7---6---5---3---5---|-3----0------------7---6---|
B|---------------------------|---------------------------------|---------------------------|


C|---------------------------------|---------------------------|---------------------------------|
G|---------------------------------|---------------------------|---------------------------------|
D|---------------------------------|---------------------------|---------------------------------|
A|---------5-----------------------|-----------7---5-----------|---------5-----------------------|
E|-5---0-------7---6---5---3---5---|-3----0------------7---6---|-5---0-------7---6---5---3---5---|
B|---------------------------------|---------------------------|---------------------------------|


C|------------------------------|---------------------------------|---------------------------------|
G|------------------------------|---------------------------------|---------------------------------|
D|------------------------------|---------------------------------|---------------------------------|
A|------------------------------|---------------------------------|---------------------------------|
E|-3----5---5---5---5---5---5---|-5---5---5---5---5---5---0---0---|-0---0---0---0---0---0---0---0---|
B|------------------------------|---------------------------------|---------------------------------|


C|---------------------------------|---------------------------------|---------------------------------|
G|---------------------------------|---------------------------------|---------------------------------|
D|---------------------------------|---------------------------------|---------------------------------|
A|---------------------------------|---------------------------------|---------------------------------|
E|-0---0---3---3---3---3---3---3---|-3---3---3---3---3---3-----------|---------------------------------|
B|---------------------------------|-------------------------3---3---|-3---3---3---3---3---3---3---3---|


C|---------------------------------|---------------------------------|---------------------------------|
G|---------------------------------|---------------------------------|---------------------------------|
D|---------------------------------|---------------------------------|---------------------------------|
A|---------------------------------|---------------------------------|---------------------------------|
E|---------5---5---5---5---5---5---|-5---5---5---5---5---5---0---0---|-0---0---0---0---0---0---0---0---|
B|-3---3---------------------------|---------------------------------|---------------------------------|


C|---------------------------------|---------------------------------|---------------------------------|
G|---------------------------------|---------------------------------|---------------------------------|
D|---------------------------------|---------------------------------|---------------------------------|
A|---------------------------------|---------------------------------|---------------------------------|
E|-0---0---3---3---3---3---3---3---|-3---3---3---3---3---3---1---1---|-1---1---1---1---1---1---1---1---|
B|---------------------------------|---------------------------------|---------------------------------|


C|---------------------------------------------|-------------------------------------------------|
G|---------------------------------------------|-------------------------------------------------|
D|---------------------------------------------|-------------------------------------------------|
A|---------------------------------------------|-------------------------------------------------|
E|-1---1---5--5--5--5--5--5--5--5--5--5--5--5--|-5--5--5--5--5--5--5--5--5--5--5--5--3--3--3--3--|
B|---------------------------------------------|-------------------------------------------------|


C|-------------------------------------------------|-------------------------------------------------|
G|-------------------------------------------------|-------------------------------------------------|
D|-------------------------------------------------|-------------------------------------------------|
A|-------------------------------------------------|-------------------------------------------------|
E|-3--3--3--3--3--3--3--3--3--3--3--3--3--3--3--3--|-3--3--3--3--2--2--2--2--2--2--2--2--2--2--2--2--|
B|-------------------------------------------------|-------------------------------------------------|


C|---------------------------------------------|---------------------------------|
G|---------------------------------------------|---------------------------------|
D|---------------------------------------------|---------------------------------|
A|---------------------------------------------|---------------------------------|
E|-2--2--2--2--2--2--2--2--2--2--2--2--1---1---|-1---1---1---1---1---1---1---1---|
B|---------------------------------------------|---------------------------------|


C|------------------------------|------------------------------|---------------------------|
G|------------------------------|------------------------------|---------------------------|
D|------------------------------|------------------------------|---------------------------|
A|------------------------------|------------------------------|---------------------------|
E|-1---1---0----0---0---0---0---|-----6---0----0---0---0---3---|-2----0----0---0---0---0---|
B|------------------------------|------------------------------|---------------------------|


C|------------------------------|------------------------------|------------------------------|
G|------------------------------|------------------------------|------------------------------|
D|------------------------------|------------------------------|------------------------------|
A|--------------2---4---3-------|-----2------------------------|------------------------------|
E|-----6---0----------------2---|-1-------0----0---0---0---0---|-----6---0----0---0---0---3---|
B|------------------------------|------------------------------|------------------------------|


C|---------------------------|------------------------------|------------------------------|
G|---------------------------|------------------------------|------------------------------|
D|---------------------------|------------------------------|------------------------------|
A|---------------------------|--------------2---4---3-------|-----2------------------------|
E|-2----0----0---0---0---0---|-----6---0----------------2---|-1-------0----0---0---0---0---|
B|---------------------------|------------------------------|------------------------------|


C|------------------------------|---------------------------|------------------------------|
G|------------------------------|---------------------------|------------------------------|
D|------------------------------|---------------------------|------------------------------|
A|------------------------------|---------------------------|--------------2---4---3-------|
E|-----6---0----0---0---0---3---|-2----0----0---0---0---0---|-----6---0----------------2---|
B|------------------------------|---------------------------|------------------------------|


C|------------------------------|------------------------------|---------------------------|
G|------------------------------|------------------------------|---------------------------|
D|------------------------------|------------------------------|---------------------------|
A|-----2------------------------|------------------------------|---------------------------|
E|-1-------0----0---0---0---0---|-----6---0----0---0---0---3---|-2----0----0---0---0---0---|
B|------------------------------|------------------------------|---------------------------|


C|------------------------------|---------------------------|
G|------------------------------|---------------------------|
D|------------------------------|---------------------------|
A|--------------2---4---3-------|-----2---------------------|
E|-----6---0----------------2---|-1-------0---0-------------|
B|------------------------------|---------------------------|





Track 8: Jordan Rudess

E|--------|--------|--------|---------------7----|-7-----7---7--------|-----------------|
B|--------|--------|--------|--------------------|--------------------|------3-----3----|
G|--------|--------|--------|--------------------|--------------------|-----------------|
D|--------|--------|--------|--------------------|--------------------|-----------------|
A|--------|--------|--------|--------------------|--------------------|-----------------|
E|--------|--------|--------|--------------------|--------------------|-----------------|


E|-----------------|--------------------|--------|--------|--------|--------|--------|
B|-----------------|--------------------|--------|--------|--------|--------|--------|
G|------------2----|-2-----2----2---2---|--------|--------|--------|--------|--------|
D|-----------------|--------------------|--------|--------|--------|--------|--------|
A|-----------------|--------------------|--------|--------|--------|--------|--------|
E|-----------------|--------------------|--------|--------|--------|--------|--------|


E|--------|--------|--------|-------------|-------------|-------------|-------------|
B|--------|--------|--------|-1------0----|-------0-----|-------------|-1------0----|
G|--------|--------|--------|-2------0----|-------0-----|------2------|-2------0----|
D|--------|--------|--------|-2------2----|-------0-----|------4------|-2------2----|
A|--------|--------|--------|-------------|-------------|------5------|-------------|
E|--------|--------|--------|-------------|-------------|-------------|-------------|


E|-------------|-------------|------------------|---------------------|-------------|
B|-------0-----|-------------|-1-----0-----1----|-----0-----1---------|------1------|
G|-------0-----|------2------|-2-----2-----0----|-----0-----------4---|-------------|
D|-------0-----|------3------|-2-----2-----2----|-----2-----4-----4---|------3------|
A|-------------|------3------|------------------|-----------7-----7---|-------------|
E|-------------|-------------|------------------|---------------------|-------------|


E|-----------------|-------------------------------|---------------------------------|
B|-5---------------|-----------3---5---------------|---------------------------------|
G|-----------------|-4-----4---------------2-------|-------2------------------2------|
D|-----------------|-------------------5-----------|--------------------2--2---------|
A|-----------------|---------------------------2---|-5--------2--2---5-----------0---|
E|-----------------|-------------------------------|---------------------------------|


E|---------------------------------------|----------------|-----------------------|
B|---------------------------------------|-----------2----|-----------------------|
G|---------------------------------------|-4------4--2----|-4---------------------|
D|--------------2---5--5-------------2---|-5------5--2----|-5--------7-------0----|
A|-----5--0--0-----------------------5---|-5------5-------|-5-----4--4----0--0----|
E|--------------------------5--5--1------|----------------|-----------------------|


E|---------------------------|------------------------------------|----------------------------------|
B|----------------------2----|-----------5--5---------------------|-----------------------------2----|
G|-4----4----4----------2----|-4----4----2--2---------------------|-----------------------------2----|
D|-5----5----5----------2----|-5----5----------5--2-----2---------|-5----5----5-----5-----5-----2----|
A|-5----5----5---------------|-5----5----------------5-----0--2---|-5----5----5-----5-----5----------|
E|---------------------------|------------------------------------|----------------------------------|


E|---------------------------------------------|----------------------------------|
B|-------5---------5-----------5-------5-------|-----------------------------2----|
G|-4-----3-2-------3-2---------3-2-----3-2-----|-4----4----4-----4-----4--4--2----|
D|-5-------------------5-2---------5-2-----5-2-|-5----5----5-----5-----5--5--2----|
A|-5-----------------------5-2-----------------|-5----5----5-----5-----5--5-------|
E|---------------------------------------------|----------------------------------|


E|--------------------------------------|-------------|-------------|-------------|
B|-----------5--3-----------------------|-1-----------|-------------|-------------|
G|-4----4----------4--3--2--------------|-2------4----|-------4-----|------2------|
D|-5----5-------------------5--2--------|-2------5----|-------5-----|------4------|
A|-5----5-------------------------5--2--|--------7----|-------5-----|------5------|
E|--------------------------------------|-------------|-------------|-------------|


E|-------------|-------------|-------------|------------------|---------------------|
B|-1-----------|-------------|-------------|-1-----0-----1----|-----0-----1---------|
G|-2------4----|-------4-----|------2------|-2-----2-----0----|-----0-----------4---|
D|-2------5----|-------5-----|------3------|-2-----2-----2----|-----2-----4-----4---|
A|--------7----|-------5-----|------3------|------------------|-----------7-----7---|
E|-------------|-------------|-------------|------------------|---------------------|


E|-------------|-------------|---------------------|------------------------|------------------|
B|------1------|--------1----|-------1-------------|-----------------5------|------------------|
G|-------------|-------------|---------------------|-----------------4------|-------------2----|
D|------3------|--------3----|-------3-------------|-----------------2------|-4-----5----------|
A|-------------|-------------|-------------3-4-5-6-|-7-8-9-1011121314-------|------------------|
E|-------------|-------------|---------------------|------------------------|------------------|


E|---------------------------|-------------|------------------|-------6-----6-5-4-3-|
B|----------------------3----|-5----5------|-------------6----|-------3-------------|
G|-----2---2---4---5---------|------4------|-------------5----|-------3-------------|
D|---------------------------|------2------|-4-----5-----3----|---------------------|
A|---------------------------|-------------|------------------|---------------------|
E|---------------------------|-------------|------------------|---------------------|


E|-2-1-0------------------|------------------|---------------------------|-------------|
B|-------4-3-2-1-0-5------|------------------|----------------------3----|-5----5------|
G|-----------------4------|-------------2----|-----2---2---4---5---------|------4------|
D|-----------------2------|-4-----5----------|---------------------------|------2------|
A|------------------------|------------------|---------------------------|-------------|
E|------------------------|------------------|---------------------------|-------------|


E|------------------|-------6-------------|-----------------17-----|--------17---|
B|-------------6----|-------3-------------|-----------------18-----|--------17---|
G|-------------5----|-------3-----3-4-5-6-|-7-8-9-101112131419-----|--------17---|
D|-4-----5-----3----|---------------------|------------------------|-------------|
A|------------------|---------------------|------------------------|-------------|
E|------------------|---------------------|------------------------|-------------|


E|--------|------15-----|--------15---|--------|------17-----|--------17---|--------|
B|--------|------17-----|--------15---|--------|------18-----|--------17---|--------|
G|--------|------17-----|--------16---|--------|------19-----|--------17---|--------|
D|--------|-------------|-------------|--------|-------------|-------------|--------|
A|--------|-------------|-------------|--------|-------------|-------------|--------|
E|--------|-------------|-------------|--------|-------------|-------------|--------|


E|------15-----|--------13---|--------|------1------|-0------1----|-------0-----|------1------|
B|------17-----|--------11---|--------|------3------|-3------1----|-------1-----|------0------|
G|------17-----|--------10---|--------|------2------|-2------2----|-------2-----|------2------|
D|-------------|-------------|--------|-------------|-------------|-------------|-------------|
A|-------------|-------------|--------|-------------|-------------|-------------|-------------|
E|-------------|-------------|--------|-------------|-------------|-------------|-------------|


E|-0-----------|--------|--------|--------|--------|--------|--------|--------|--------|
B|-0------6----|--------|--------|--------|--------|--------|--------|--------|--------|
G|-2------3----|--------|--------|--------|--------|--------|--------|--------|--------|
D|--------3----|--------|--------|--------|--------|--------|--------|--------|--------|
A|-------------|--------|--------|--------|--------|--------|--------|--------|--------|
E|-------------|--------|--------|--------|--------|--------|--------|--------|--------|


E|--------|--------|--------|--------|--------|--------|--------|------------------------------------------|
B|--------|--------|--------|--------|--------|--------|--------|------------------------------------------|
G|--------|--------|--------|--------|--------|--------|--------|------------2--------2--2--4--------2-----|
D|--------|--------|--------|--------|--------|--------|--------|---------2-----2-----------------2-----2--|
A|--------|--------|--------|--------|--------|--------|--------|------5-----------4-----------5-----------|
E|--------|--------|--------|--------|--------|--------|--------|------------------------------------------|


E|-------------------------------------------------|----5--------------------------------------------|
B|-------------------------------------------------|-2-----3--5--------------------------------------|
G|----2--2--4--------2--------2--2--4--2--4--------|-------------------2--------2--2--4--------2-----|
D|----------------2-----2-----------------------2--|----------------2-----2-----------------2-----2--|
A|-4-----------5-----------4-----------------5-----|-------------5-----------4-----------5-----------|
E|-------------------------------------------------|-------------------------------------------------|


E|-------------------------------------------------|----5--------------------------------------------|
B|-------------------------------------------------|-2-----3--5--------------------------------------|
G|----2--2--4--------2--------2--2--4--2--4--------|-------------------2--------2--2--4--2--4--------|
D|----------------2-----2-----------------------2--|----------------2-----2-----------------------2--|
A|-4-----------5-----------4-----------------5-----|-------------5-----------4-----------------5-----|
E|-------------------------------------------------|-------------------------------------------------|


E|----5--------------------------------------------|----5--------------------------------------------|
B|-2-----3--5--------------------------------------|-2-----3--5--------------------------------------|
G|-------------------2--------2--2--4--2--4--------|-------------------2--------2--2--4--2--4--------|
D|----------------2-----2-----------------------2--|----------------2-----2-----------------------2--|
A|-------------5-----------4-----------------5-----|-------------5-----------4-----------------5-----|
E|-------------------------------------------------|-------------------------------------------------|


E|----5--------------------------------------------|----5-------------------|----------------|
B|-2-----3--5--------------------------------------|-2-----3--5-------------|----------------|
G|-------------------2--------2--2--4--2--4--------|------------------------|----------------|
D|----------------2-----2-----------------------2--|------------------------|-----2---2------|
A|-------------5-----------4-----------------5-----|------------------------|----------------|
E|-------------------------------------------------|------------------------|----------------|


E|-----------------|----------------|-----------------|----------------|-----------------|
B|-----------------|----------------|-----------------|----------------|-----------------|
G|-----------------|----------------|-----------------|----------------|-----------------|
D|-----------------|-----2---2------|-----------------|-----2---2------|-----------------|
A|-----------------|----------------|-----------------|----------------|-----------------|
E|-----------------|----------------|-----------------|----------------|-----------------|


E|----------------|---------------------------|---------------------------------|---------------------------|
B|----------------|-----------5---3-----------|---------3-----------------------|-----------5---3-----------|
G|----------------|-------------------4---3---|-2-----------4---3---2-----------|-------------------4---3---|
D|-----2---2------|------2--------------------|-----2-------------------5---7---|-5----2--------------------|
A|----------------|---------------------------|---------------------------------|---------------------------|
E|----------------|---------------------------|---------------------------------|---------------------------|


E|---------------------------------|---------------------------|---------------------------------|
B|---------3-----------------------|-----------5---3-----------|---------3-----------------------|
G|-2-----------4---3---2-----------|-------------------4---3---|-2-----------4---3---2-----------|
D|-----2-------------------5---7---|-5----2--------------------|-----2-------------------5---7---|
A|---------------------------------|---------------------------|---------------------------------|
E|---------------------------------|---------------------------|---------------------------------|


E|---------------------------|---------------------------------|------12-----|--------12---|
B|-----------5---3-----------|---------3-----------------------|------13-----|--------12---|
G|-------------------4---3---|-2-----------4---3---2-----------|------14-----|--------12---|
D|-5----2--------------------|-----2-------------------5---7---|-5----14-----|--------14---|
A|---------------------------|---------------------------------|-------------|-------------|
E|---------------------------|---------------------------------|-------------|-------------|


E|--------|-------------|---------------------|----------------------------|-----------------12-----|
B|--------|-------------|----------------15---|-------15-------------------|-----------------13-----|
G|--------|------16-----|-16---17---16---14---|-------14-------------------|-----------------14-----|
D|--------|------17-----|-17---17---17---15---|-------15---2-3-4-5-6-7-8-9-|-101112131415161714-----|
A|--------|------17-----|-17---17---17---17---|-------17-------------------|------------------------|
E|--------|-------------|---------------------|----------------------------|------------------------|


E|--------12---|--------|-------------|--------13---|--------|------17-----|-19-----20---|
B|--------12---|--------|------15-----|--------13---|--------|------17-----|-17-----20---|
G|--------12---|--------|------16-----|--------10---|--------|-------------|--------21---|
D|-------------|--------|------17-----|-------------|--------|-------------|-------------|
A|-------------|--------|-------------|-------------|--------|-------------|-------------|
E|-------------|--------|-------------|-------------|--------|-------------|-------------|


E|-------19----|------20-----|-19-----20---|--------|--------|--------|--------|--------|
B|-------20----|------19-----|-19-----18---|--------|--------|--------|--------|--------|
G|-------21----|------21-----|-21----------|--------|--------|--------|--------|--------|
D|-------------|-------------|-------------|--------|--------|--------|--------|--------|
A|-------------|-------------|-------------|--------|--------|--------|--------|--------|
E|-------------|-------------|-------------|--------|--------|--------|--------|--------|


E|--------|--------|--------|--------|--------|--------|--------|--------|--------|
B|--------|--------|--------|--------|--------|--------|--------|--------|--------|
G|--------|--------|--------|--------|--------|--------|--------|--------|--------|
D|--------|--------|--------|--------|--------|--------|--------|--------|--------|
A|--------|--------|--------|--------|--------|--------|--------|--------|--------|
E|--------|--------|--------|--------|--------|--------|--------|--------|--------|


E|--------|--------|--------|--------|
B|--------|--------|--------|--------|
G|--------|--------|--------|--------|
D|--------|--------|--------|--------|
A|--------|--------|--------|--------|
E|--------|--------|--------|--------|