Menu:

 

Search:

 

dream theater - overture 1928:

 



Title: Scene Two: I.Overture 1928
Artist: 
Album: Metropolis pt2
Author: Dream Theater


Track 1: Gtr1

E|-----------------------------------------------------|-----------------------------------------------------|
B|-----------------------------------------------------|-----------------------------------------------------|
G|-----------------------------------------------------|-----------------------------------------------------|
D|-0--0--0--0-------0--0--0--0--0--0--0---0--0--0--0---|-0--0--0--0-------0--0--0--0--0--0--0---0--0--0--0---|
A|-----------------------------------------------------|-----------------------------------------------------|
E|-----------------------------------------------------|-----------------------------------------------------|


E|-----------------------------------------------------|-----------------------------------------------------|
B|-----------------------------------------------------|-----------------------------------------------------|
G|-----------------------------------------------------|-----------------------------------------------------|
D|-0--0--0--0-------0--0--0--0--0--0--0---0--0--0--0---|-0--0--0--0-------0--0--0--0--0--0--0---0--0--0--0---|
A|-----------------------------------------------------|-----------------------------------------------------|
E|-----------------------------------------------------|-----------------------------------------------------|


E|-----------------------------------------------------|-----------------------------------------------------|
B|-----------------------------------------------------|-----------------------------------------------------|
G|-----------------------------------------------------|-----------------------------------------------------|
D|-0--0--0--0-------0--0--0--0--0--0--0---0--0--0--0---|-0--0--0--0-------0--0--0--0--0--0--0---0--0--0--0---|
A|-----------------------------------------------------|-----------------------------------------------------|
E|-----------------------------------------------------|-----------------------------------------------------|


E|-----------------------------------------------------|-----------------------------------------------------|
B|-----------------------------------------------------|-----------------------------------------------------|
G|-----------------------------------------------------|-7--7--7--7-------7--7--7--7--7--7--7---7--7--7--7---|
D|-0--0--0--0-------0--0--0--0--0--0--0---0--0--0--0---|-7--7--7--7-------7--7--7--7--7--7--7---7--7--7--7---|
A|-----------------------------------------------------|-5--5--5--5-------5--5--5--5--5--5--5---5--5--5--5---|
E|-----------------------------------------------------|-5--5--5--5-------5--5--5--5--5--5--5---5--5--5--5---|


E|-------------------------------------|---------------------------------------|---------------------------------------|
B|-------------------7----7--------7---|-----------7---------7----7--------7---|-----------10--------9----9--------9---|
G|-7--7--7--7--------7----7--------7---|-----------7---------7----7--------7---|-----------7---------7----7--------7---|
D|-7--7--7--7--------0----0--0--0--0---|-----0--0--0---0--0--0----0--0--0--0---|-----0--0--0---0--0--0----0--0--0--0---|
A|-5--5--5--5--------------------------|---------------------------------------|---------------------------------------|
E|-5--5--5--5--------------------------|---------------------------------------|---------------------------------------|


E|---------------------------------------|---------------------------------------|
B|-----------9---------9----9--------9---|-----------10--------7----7--------7---|
G|-----------7---------7----7--------7---|-----------7---------7----7--------7---|
D|-----0--0--0---0--0--0----0--0--0--0---|-----0--0--0---0--0--0----0--0--0--0---|
A|---------------------------------------|---------------------------------------|
E|---------------------------------------|---------------------------------------|


E|---------------------------------------|---------------------------------------|
B|-----------7---------7----7--------7---|-----------10--------9----9--------9---|
G|-----------7---------7----7--------7---|-----------7---------7----7--------7---|
D|-----0--0--0---0--0--0----0--0--0--0---|-----0--0--0---0--0--0----0--0--0--0---|
A|---------------------------------------|---------------------------------------|
E|---------------------------------------|---------------------------------------|


E|---------------------------------------------------------|-----------------------------------------------------|
B|-----------9---------9--10-9--7--------------------------|-------------------------------------------------0---|
G|-----------7---------------------9--7--6--9--7--6--------|-------------------------------------2-------2-------|
D|-----0--0--0---0--0--------------------------------9--7--|-6--9--7--6--------------------------2----2----------|
A|---------------------------------------------------------|-------------9--7--5--9--7--5--------0---------------|
E|---------------------------------------------------------|-------------------------------9--7------------------|


E|---------------------------------|---------------------------------|---------------------------|
B|-------------0---------------0---|-----0-----------------------0---|-----------------------0---|
G|-----2-----------4-------4-------|---------4-------2-------2-------|---------------------------|
D|---------2-------4----4----------|-------------4---2----2----------|-------------------4-------|
A|-----------------2----2----------|-----------------0----0----------|----------------4----------|
E|---------------------------------|---------------------------------|-----0-----2----2----------|


E|---------------------------------|---------------------------------|-----------------------------3---|
B|---------0-------------------0---|-------------0---------------0---|-----0---------------------------|
G|-----3-----------2-------2-------|-----2-----------4-------4-------|---------4-------5-------5-------|
D|-------------4---2----2----------|---------2-------4----4----------|-------------4---5----5----------|
A|-----------------0---------------|-----------------2----2----------|-----------------3----3----------|
E|---------------------------------|---------------------------------|---------------------------------|


E|---------------------------|-----------------------------|---------------------------------------|
B|-----3-----------------8---|------7----------------------|---------------------------------------|
G|-----------7-------7-------|------7----------------------|---------------------------------------|
D|-----------7----7----------|-----------------------------|---------------------------------------|
A|-----------5----5----------|--------------------1--------|-2--2--2---5--4--------------2---2--2--|
E|---------------------------|-----------0--2--4-------0---|-0--0--0---------2--4----0---0---0--0--|


E|--------------------------------------------|---------------------------------------------|
B|--------------------------------------------|---------------------------------------------|
G|--------------------------------------------|---------------------------------------------|
D|--------------------------------------4--6--|---------------------------------------------|
A|----------1--------2--2--2--2---5--7--------|------------------3--5--7-----------1--------|
E|-0--2--4-------0---0--0--0--0---------------|-----0---2--4--6-----------0--2--4-------0---|


E|---------------------------------------|-------------------------------------------|
B|---------------------------------------|-------------------------------------------|
G|---------------------------------------|-------------------------------------------|
D|---------------------------------------|-------------------------------------4--6--|
A|-2--2--2---5--4--------------2--2--2---|----------1--------2-2-2-2-2---5--7--------|
E|-0--0--0---------2--4----0---0--0--0---|-0--2--4-------0---0-0-0-0-0---------------|


E|--------------------------------------------|--------------------------------------------------|
B|--------------------------------------------|--------------------------------------------------|
G|--------------------------------------------|--------------------------------------------------|
D|------------------------------------0--3----|--------------------------------------------------|
A|-7--5--------7------5------3--1-----0--3----|--------------------------------------------------|
E|-------6--4-----6------4---------2-----1----|-0--0--0-------0--0--0--0--0--0--0---0--0--0--0---|


E|------------------------------------|------------------------------------|------------------------------------|
B|-7----7--------7----------7---------|-7----7--------7----------10--------|-9----9--------9----------9---------|
G|-7----7--------7----------7---------|-7----7--------7----------7---------|-7----7--------7----------7---------|
D|-0----0--0--0--0----0--0--0---0--0--|-0----0--0--0--0----0--0--0---0--0--|-0----0--0--0--0----0--0--0---0--0--|
A|------------------------------------|------------------------------------|------------------------------------|
E|------------------------------------|------------------------------------|------------------------------------|


E|-----------------------------7---------|------------------------------------|------------------------------------|
B|-9----9--------9-------9--10-----10-9--|-7----7--------7----------7---------|-7----7--------7----------10--------|
G|-7----7--------7-----------------------|-7----7--------7----------7---------|-7----7--------7----------7---------|
D|-0----0--0--0--0-----------------------|-0----0--0--0--0----0--0--0---0--0--|-0----0--0--0--0----0--0--0---0--0--|
A|---------------------------------------|------------------------------------|------------------------------------|
E|---------------------------------------|------------------------------------|------------------------------------|


E|------------------------------------|-----------------------------|-----------------------|
B|-9----9--------9----------9---------|-9---------------------------|-----------7-------7---|
G|-7----7--------7----------7---------|-7---------------------------|-4---------------------|
D|-0----0--0--0--0----0--0--0---0--0--|-0-----------4---5---5-------|-----------------------|
A|------------------------------------|-------------5---5---5-------|-----------------------|
E|------------------------------------|-------0--0--------------0---|-----------------------|


E|-------------------------------|-------------------------------|--------------------------|
B|-7---7----7--7-----------------|-------------7--8----10---8----|-7----8----7---8--7-------|
G|----------------7----9----11---|-9----9---9--------------------|---------------------9----|
D|-------------------------------|-------------------------------|--------------------------|
A|-------------------------------|-------------------------------|--------------------------|
E|-------------------------------|-------------------------------|--------------------------|


E|-------------------------------|-------------------------------|--------------------------------------|
B|--------------------------7----|-7----7-------------------7----|-8-------------7--8---10--8---10--8---|
G|----------6--9--7----9---------|-----------9----7----9---------|------------9-------------------------|
D|-9-----------------------------|-------------------------------|---------9----------------------------|
A|-------------------------------|-------------------------------|--------------------------------------|
E|-------------------------------|-------------------------------|--------------------------------------|


E|----------------------------------|---------------------------------------|-----------14-1814----------------------------|
B|-7----10---10---------------14-17-|-17-17-17--------------------16--16-16-|-16--14-17--------17-14-------------17-17-17--|
G|----------------------15-16-------|---------------15-15-15----------------|------------------------16-15-----------------|
D|----------------14-16-------------|-----------16------------16------------|------------------------------16-14-----------|
A|----------------------------------|---------------------------------------|----------------------------------------------|
E|----------------------------------|---------------------------------------|----------------------------------------------|


E|-----------------------------------|----------------------------------------|---------------------------------------|
B|-----------------------------------|---------------------------14-17-17-17--|-------------------16--16-16-16--17-19-|
G|-----15-15-15------------------15--|-13--11--13--11--9------15--------------|-----15-15-15--------------------------|
D|-16------------16------------------|---------------------16-----------------|-16------------16----------------------|
A|-------------------14--13------13--|-11--9---11--9---7----------------------|---------------------------------------|
E|-----------------------------------|----------------------------------------|---------------------------------------|


E|-18-2118-------------------------------------------|-------14--------------------------------------------------|
B|--------19-17-19-------17-16-171614----------------|----------------------------------14-----------------------|
G|-----------------18-15--------------17-16-15-14-15-|-16-17----17-16-15-14-----------------------------14-16-17-|
D|---------------------------------------------------|----------------------16-14-15-16----161514-15-16----------|
A|---------------------------------------------------|-----------------------------------------------------------|
E|---------------------------------------------------|-----------------------------------------------------------|


E|-------------17-19-19--19--19----19--|-----------------------|---------------------------------|
B|-14-16-17-19-------------------------|-------------------0---|-----0-----------------------0---|
G|-------------------------------------|-------4-------4-------|---------4-------2-------2-------|
D|-------------------------------------|-------4----4----------|-------------4---2----2----------|
A|-------------------------------------|-------2----2----------|-----------------0----0----------|
E|-------------------------------------|-----------------------|---------------------------------|


E|---------------------------|---------------------------------|---------------------------------|
B|-----------------------0---|---------0-------------------0---|-------------0---------------0---|
G|---------------------------|-----3-----------2-------2-------|-----2-----------4-------4-------|
D|-------------------4-------|-------------4---2----2----------|---------2-------4----4----------|
A|----------------4----------|-----------------0---------------|-----------------2----2----------|
E|-----0-----2----2----------|---------------------------------|---------------------------------|


E|-----------------------------3---|---------------------------|---------------------|
B|-----0---------------------------|-----3-----------------8---|------7----4-----5---|
G|---------4-------5-------5-------|-----------7-------7-------|------7--------------|
D|-------------4---5----5----------|-----------7----7----------|---------------------|
A|-----------------3----3----------|-----------5----5----------|---------------------|
E|---------------------------------|---------------------------|---------------------|


E|---------------------|-------------------------|-------------------------|---------------------------|
B|------7----4---------|-------------------------|-------------------------|-------------4---5-----7---|
G|-----------------4---|-----------4-6-4----4----|-----6-------6--6--6-----|---------6-----------------|
D|---------------------|-------6-----------------|-------------------------|-----6---------------------|
A|---------------------|-------------------------|-------------------------|---------------------------|
E|---------------------|-------------------------|-------------------------|---------------------------|


E|--------------------|------9----11---11----|------11-11-9-------------|----------------11-14-14-11----------------|
B|------9---12--12----|-12-------------------|----------------9---12----|-------------12-------------12----12-------|
G|--------------------|----------------------|--------------------------|----------11-------------------11----11-9--|
D|--------------------|----------------------|--------------------------|-------------------------------------------|
A|--------------------|----------------------|--------------------------|-------------------------------------------|
E|--------------------|----------------------|--------------------------|-------------------------------------------|


E|----------------------------------------------7--|-----------------------------------------------|
B|-12----------------------------------------8-----|-10-8--7------------------------------------7--|
G|----9--8--------11-9--8--9--7-----------9--------|----------9---7--------------------------7-----|
D|----------9--------------------10-9--10----------|-----------------10-9--9--7-----------9--------|
A|-------------9-----------------------------------|-----------------------------10-9--10----------|
E|-------------------------------------------------|-----------------------------------------------|


E|---------------------------7--------------|--------------------------------------------------|
B|------------------------8-----10-8--7-----|--------------------------------7--10-8--7--------|
G|-9----9--7-----------9-----------------9--|----7--------9-7-------------7--------------9--7--|
D|------------10-9--10----------------------|-------10-9------10-9--7--9-----------------------|
A|------------------------------------------|--------------------------------------------------|
E|------------------------------------------|--------------------------------------------------|


E|----------------------------------7--------------|-------------------------------------------------|
B|-------------------------------8-----10-8--7-----|----------------------------------7--------------|
G|----9--------9--7-----------9-----------------9--|----7--------------------------7-----9--7--------|
D|-10----7-----------10-9--10----------------------|-------10-9--9--7-----------9--------------10-9--|
A|----------10-------------------------------------|-------------------10-9--10----------------------|
E|-------------------------------------------------|-------------------------------------------------|


E|-------------------------------|-------------------------------------------------|
B|-------------------------------|-------------------------------------------------|
G|-------------------------------|-------------------------------------------------|
D|-7--10-------------------------|-------------------------------------------------|
A|-------9-----------7--------6--|----------5--4-----3--2-----1--0-----------------|
E|----------12-12-------7--0-----|-7--0-----------0--------0--------2--3--3--2--2--|


E|-------------------------------------------------|-------------------------------------------------|
B|-------------------------------------------------|-------------------------------------------------|
G|-------------------------------------------------|-------------------------------------------------|
D|-------------------------------------------------|-------------------------------------------------|
A|-------3--3--2--2--1--0--------7--------6--------|----5--4-----3--2-----1--0-----------------------|
E|-1--1-----------------------3-----7--0-----7--0--|----------0--------0--------2--3--3--2--2--1--1--|


E|-------------------------------------------------|---------------------------|--------------------------|
B|-------------------------------------------------|---------------------------|--------------------------|
G|-------------------------------------------------|-----------------8-----8---|-------8-------7-----5----|
D|-------------------------------------------------|----------2------6-----6---|-6--6--6-------6-----6----|
A|-3--3--2--2--1--0--------------------------3--3--|-2--2--1--0----------------|--------------------------|
E|----------------------2--3--3--2--2--1--1--------|---------------------------|--------------------------|


E|-------------------|---------------------------|-----------------|--------------------------|
B|-------------------|---------------------------|-----------------|--------------------------|
G|------------8------|-----10------7-----8---8---|-------5-----5---|-------5-------4-----2----|
D|------6--6--6------|-----6-------6-----6---6---|-------3-----3---|-3--3--3-------3-----3----|
A|-------------------|---------------------------|-----------------|--------------------------|
E|-------------------|---------------------------|-----------------|--------------------------|


E|-------------------|---------------------------|------------------|-----------------------|
B|-------------------|---------------------------|-------7-----6----|-4----------7-----6----|
G|------------5------|-----7-------4-----5---5---|-------4-----4----|-4----4--4--4-----4----|
D|------3--3--3------|-----3-------3-----3---3---|------------------|-----------------------|
A|-------------------|---------------------------|------------------|-----------------------|
E|-------------------|---------------------------|------------------|-----------------------|


E|--------------------------|--------------------------|----------------------------------------|
B|-4----------9----9---7----|-6----------9----9---7----|-6--------------------------------------|
G|-4----4--4--6----6---6----|-6----6--6--6----6---6----|-6----6--6--8--8--8--8------8--8--8--8--|
D|--------------------------|--------------------------|------------6--6--6--6------6--6--6--6--|
A|--------------------------|--------------------------|----------------------------------------|
E|--------------------------|--------------------------|------------4--4--4--4------4--4--4--4--|


E|-----------------------------------------|
B|-----------------------------------------|
G|-----7--7--7---------7--7--7--7----------|
D|-----6--6--6---------6--6--6--6----------|
A|-----------------------------------------|
E|-----4--4--4---------4--4--4--4----------|





Track 2: Gtr2 (dropped D)

E|-----------------------------------------------------|-----------------------------------------------------|
B|-----------------------------------------------------|-----------------------------------------------------|
G|-----------------------------------------------------|-----------------------------------------------------|
D|-----------------------------------------------------|-----------------------------------------------------|
A|-----------------------------------------------------|-----------------------------------------------------|
D|-0--0--0--0-------0--0--0--0--0--0--0---0--0--0--0---|-0--0--0--0-------0--0--0--0--0--0--0---0--0--0--0---|


E|-----------------------------------------------------|-----------------------------------------------------|
B|-----------------------------------------------------|-----------------------------------------------------|
G|-----------------------------------------------------|-----------------------------------------------------|
D|-----------------------------------------------------|-----------------------------------------------------|
A|-----------------------------------------------------|-----------------------------------------------------|
D|-0--0--0--0-------0--0--0--0--0--0--0---0--0--0--0---|-0--0--0--0-------0--0--0--0--0--0--0---0--0--0--0---|


E|-----------------------------------------------------|-----------------------------------------------------|
B|-----------------------------------------------------|-----------------------------------------------------|
G|-----------------------------------------------------|-----------------------------------------------------|
D|-----------------------------------------------------|-----------------------------------------------------|
A|-----------------------------------------------------|-----------------------------------------------------|
D|-0--0--0--0-------0--0--0--0--0--0--0---0--0--0--0---|-0--0--0--0-------0--0--0--0--0--0--0---0--0--0--0---|


E|-----------------------------------------------------|-----------------------------------------------------|
B|-----------------------------------------------------|-----------------------------------------------------|
G|-----------------------------------------------------|-----------------------------------------------------|
D|-----------------------------------------------------|-----------------------------------------------------|
A|-----------------------------------------------------|-0--0--0--0-------0--0--0--0--0--0--0---0--0--0--0---|
D|-0--0--0--0-------0--0--0--0--0--0--0---0--0--0--0---|-0--0--0--0-------0--0--0--0--0--0--0---0--0--0--0---|


E|-------------------------|--------|--------|--------|--------|--------|--------|
B|-------------------------|--------|--------|--------|--------|--------|--------|
G|-------------------------|--------|--------|--------|--------|--------|--------|
D|-------------------------|--------|--------|--------|--------|--------|--------|
A|-0--0--0--0--------------|--------|--------|--------|--------|--------|--------|
D|-0--0--0--0--------------|--------|--------|--------|--------|--------|--------|


E|--------|--------|--------|--------|--------|--------|--------|--------|--------|
B|--------|--------|--------|--------|--------|--------|--------|--------|--------|
G|--------|--------|--------|--------|--------|--------|--------|--------|--------|
D|--------|--------|--------|--------|--------|--------|--------|--------|--------|
A|--------|--------|--------|--------|--------|--------|--------|--------|--------|
D|--------|--------|--------|--------|--------|--------|--------|--------|--------|


E|--------|--------|--------|--------|--------|--------|--------|--------|--------|
B|--------|--------|--------|--------|--------|--------|--------|--------|--------|
G|--------|--------|--------|--------|--------|--------|--------|--------|--------|
D|--------|--------|--------|--------|--------|--------|--------|--------|--------|
A|--------|--------|--------|--------|--------|--------|--------|--------|--------|
D|--------|--------|--------|--------|--------|--------|--------|--------|--------|


E|--------|--------|--------|--------|--------|--------|--------|--------|--------|
B|--------|--------|--------|--------|--------|--------|--------|--------|--------|
G|--------|--------|--------|--------|--------|--------|--------|--------|--------|
D|--------|--------|--------|--------|--------|--------|--------|--------|--------|
A|--------|--------|--------|--------|--------|--------|--------|--------|--------|
D|--------|--------|--------|--------|--------|--------|--------|--------|--------|


E|--------|--------|--------|--------|--------|--------|--------|--------|--------|
B|--------|--------|--------|--------|--------|--------|--------|--------|--------|
G|--------|--------|--------|--------|--------|--------|--------|--------|--------|
D|--------|--------|--------|--------|--------|--------|--------|--------|--------|
A|--------|--------|--------|--------|--------|--------|--------|--------|--------|
D|--------|--------|--------|--------|--------|--------|--------|--------|--------|


E|--------|--------|--------|--------|--------|--------|--------|--------|--------|
B|--------|--------|--------|--------|--------|--------|--------|--------|--------|
G|--------|--------|--------|--------|--------|--------|--------|--------|--------|
D|--------|--------|--------|--------|--------|--------|--------|--------|--------|
A|--------|--------|--------|--------|--------|--------|--------|--------|--------|
D|--------|--------|--------|--------|--------|--------|--------|--------|--------|


E|--------|--------|--------|--------|--------|--------|--------|--------|--------|
B|--------|--------|--------|--------|--------|--------|--------|--------|--------|
G|--------|--------|--------|--------|--------|--------|--------|--------|--------|
D|--------|--------|--------|--------|--------|--------|--------|--------|--------|
A|--------|--------|--------|--------|--------|--------|--------|--------|--------|
D|--------|--------|--------|--------|--------|--------|--------|--------|--------|


E|--------|--------|--------|--------|--------|--------|--------|--------|--------|
B|--------|--------|--------|--------|--------|--------|--------|--------|--------|
G|--------|--------|--------|--------|--------|--------|--------|--------|--------|
D|--------|--------|--------|--------|--------|--------|--------|--------|--------|
A|--------|--------|--------|--------|--------|--------|--------|--------|--------|
D|--------|--------|--------|--------|--------|--------|--------|--------|--------|


E|--------|--------|--------|--------|--------|--------|--------|--------|--------|
B|--------|--------|--------|--------|--------|--------|--------|--------|--------|
G|--------|--------|--------|--------|--------|--------|--------|--------|--------|
D|--------|--------|--------|--------|--------|--------|--------|--------|--------|
A|--------|--------|--------|--------|--------|--------|--------|--------|--------|
D|--------|--------|--------|--------|--------|--------|--------|--------|--------|


E|--------|--------|--------|--------|--------|--------|--------|--------|--------|
B|--------|--------|--------|--------|--------|--------|--------|--------|--------|
G|--------|--------|--------|--------|--------|--------|--------|--------|--------|
D|--------|--------|--------|--------|--------|--------|--------|--------|--------|
A|--------|--------|--------|--------|--------|--------|--------|--------|--------|
D|--------|--------|--------|--------|--------|--------|--------|--------|--------|


E|--------|
B|--------|
G|--------|
D|--------|
A|--------|
D|--------|





Track 3: Synth2

E|--------|--------|--------|--------|--------|--------|--------|--------|--------|
B|--------|--------|--------|--------|--------|--------|--------|--------|--------|
G|--------|--------|--------|--------|--------|--------|--------|--------|--------|
D|--------|--------|--------|--------|--------|--------|--------|--------|--------|
A|--------|--------|--------|--------|--------|--------|--------|--------|--------|
E|--------|--------|--------|--------|--------|--------|--------|--------|--------|


E|--------|--------|--------|--------|--------|--------|--------|--------|--------|
B|--------|--------|--------|--------|--------|--------|--------|--------|--------|
G|--------|--------|--------|--------|--------|--------|--------|--------|--------|
D|--------|--------|--------|--------|--------|--------|--------|--------|--------|
A|--------|--------|--------|--------|--------|--------|--------|--------|--------|
E|--------|--------|--------|--------|--------|--------|--------|--------|--------|


E|--------|--------|--------|--------|--------|--------|--------|--------|--------|
B|--------|--------|--------|--------|--------|--------|--------|--------|--------|
G|--------|--------|--------|--------|--------|--------|--------|--------|--------|
D|--------|--------|--------|--------|--------|--------|--------|--------|--------|
A|--------|--------|--------|--------|--------|--------|--------|--------|--------|
E|--------|--------|--------|--------|--------|--------|--------|--------|--------|


E|--------|--------|--------|--------|------------19---|-----------------------------|
B|--------|--------|--------|--------|-----------------|--------------------14---15--|
G|--------|--------|--------|--------|-----------------|---------------16------------|
D|--------|--------|--------|--------|-----------------|-----------16----------------|
A|--------|--------|--------|--------|-----------------|------17---------------------|
E|--------|--------|--------|--------|-----------------|-17--------------------------|


E|-------1012---1012171012------------------------|----------------------------|----------------------------------------161922|
B|-----------10-----------7-107-10--10------------|--------------------2---3---|-5---5---5---3--2-----------------121712------|
G|-14-----------------------------7---7-9---------|---------------4------------|-------------------4------------13------------|
D|----------------------------------------4-7-4-7-|-----------4----------------|-----------------------6----------------------|
A|------------------------------------------------|-2----5---------------------|----------------------------1514--------------|
E|------------------------------------------------|----------------------------|--------------------------15------------------|


E|-22---24----22-24--24--24-22-22--17----17-|-------------------------------------16-17-|
B|---------22-------------------------17----|-------------------------------------------|
G|------------------------------------------|-1923--14----14----------------------------|
D|------------------------------------------|-----16----16-----16-----14-14-------------|
A|------------------------------------------|---------17--------------------------------|
E|------------------------------------------|---------------17---------------17---------|


E|-19---16-121416-----------------------------------------|-------------|--------|
B|----------------12171415--------------------------------|-------------|--------|
G|------------------------1316--131113--------------------|-------------|--------|
D|----------------------------14--------141112------------|------9------|--------|
A|------------------------------------14------11141214--11|-11---7------|--------|
E|----------------------------------------------------12--|-------------|--------|


E|--------|--------|--------|--------|--------|--------|--------|--------|--------|
B|--------|--------|--------|--------|--------|--------|--------|--------|--------|
G|--------|--------|--------|--------|--------|--------|--------|--------|--------|
D|--------|--------|--------|--------|--------|--------|--------|--------|--------|
A|--------|--------|--------|--------|--------|--------|--------|--------|--------|
E|--------|--------|--------|--------|--------|--------|--------|--------|--------|


E|--------|--------|--------|--------|--------|--------|--------|--------|--------|
B|--------|--------|--------|--------|--------|--------|--------|--------|--------|
G|--------|--------|--------|--------|--------|--------|--------|--------|--------|
D|--------|--------|--------|--------|--------|--------|--------|--------|--------|
A|--------|--------|--------|--------|--------|--------|--------|--------|--------|
E|--------|--------|--------|--------|--------|--------|--------|--------|--------|


E|--------|--------|--------|--------|--------|--------|--------|--------|--------|
B|--------|--------|--------|--------|--------|--------|--------|--------|--------|
G|--------|--------|--------|--------|--------|--------|--------|--------|--------|
D|--------|--------|--------|--------|--------|--------|--------|--------|--------|
A|--------|--------|--------|--------|--------|--------|--------|--------|--------|
E|--------|--------|--------|--------|--------|--------|--------|--------|--------|


E|--------|--------|--------|--------|--------|--------|--------|--------|--------|
B|--------|--------|--------|--------|--------|--------|--------|--------|--------|
G|--------|--------|--------|--------|--------|--------|--------|--------|--------|
D|--------|--------|--------|--------|--------|--------|--------|--------|--------|
A|--------|--------|--------|--------|--------|--------|--------|--------|--------|
E|--------|--------|--------|--------|--------|--------|--------|--------|--------|


E|--------|--------|--------|--------|--------|--------|--------------|------------------------|
B|--------|--------|--------|--------|--------|--------|-------16-----|-----15--15--15----13---|
G|--------|--------|--------|--------|--------|--------|--------------|------------------------|
D|--------|--------|--------|--------|--------|--------|--------------|------------------------|
A|--------|--------|--------|--------|--------|--------|--------------|------------------------|
E|--------|--------|--------|--------|--------|--------|--------------|------------------------|


E|----------------------|------------------------|--------------------------------------------------|
B|-----13--13-15-16-----|-----16---15----16--16--|------16--138-6---128-6---108-6---128-6---138-6---|
G|----------------------|------------------------|----------------5-------5-------5-------5-------5-|
D|----------------------|------------------------|--------------------------------------------------|
A|----------------------|------------------------|--------------------------------------------------|
E|----------------------|------------------------|--------------------------------------------------|


E|-----------------------------------------------------------------|-----------------------------------------------------------------|
B|-158-6---128-6---6-8-6---138-6---128-6---108-6---128-6---138-6---|-158-6---178-6---188-6---138-6---138-6---138-6---138-6---138-6---|
G|-------5-------5-------5-------5-------5-------5-------5-------5-|-------5-------5-------5-------5-------5-------5-------5-------5-|
D|-----------------------------------------------------------------|-----------------------------------------------------------------|
A|-----------------------------------------------------------------|-----------------------------------------------------------------|
E|-----------------------------------------------------------------|-----------------------------------------------------------------|


E|-25-----------|--------|--------|--------|--------|--------|--------|
B|--------------|--------|--------|--------|--------|--------|--------|
G|-------10-----|--------|--------|--------|--------|--------|--------|
D|-------10-----|--------|--------|--------|--------|--------|--------|
A|--------------|--------|--------|--------|--------|--------|--------|
E|--------------|--------|--------|--------|--------|--------|--------|





Track 4: Gtr1

E|--------|--------|--------|--------|--------|--------|--------|--------|--------|
B|--------|--------|--------|--------|--------|--------|--------|--------|--------|
G|--------|--------|--------|--------|--------|--------|--------|--------|--------|
D|--------|--------|--------|--------|--------|--------|--------|--------|--------|
A|--------|--------|--------|--------|--------|--------|--------|--------|--------|
E|--------|--------|--------|--------|--------|--------|--------|--------|--------|


E|--------|--------|--------|--------|--------|--------|--------|--------|--------|
B|--------|--------|--------|--------|--------|--------|--------|--------|--------|
G|--------|--------|--------|--------|--------|--------|--------|--------|--------|
D|--------|--------|--------|--------|--------|--------|--------|--------|--------|
A|--------|--------|--------|--------|--------|--------|--------|--------|--------|
E|--------|--------|--------|--------|--------|--------|--------|--------|--------|


E|--------|--------|--------|--------|--------|--------|--------|--------|--------|
B|--------|--------|--------|--------|--------|--------|--------|--------|--------|
G|--------|--------|--------|--------|--------|--------|--------|--------|--------|
D|--------|--------|--------|--------|--------|--------|--------|--------|--------|
A|--------|--------|--------|--------|--------|--------|--------|--------|--------|
E|--------|--------|--------|--------|--------|--------|--------|--------|--------|


E|--------|--------|--------|--------|--------|--------|--------|--------|--------|
B|--------|--------|--------|--------|--------|--------|--------|--------|--------|
G|--------|--------|--------|--------|--------|--------|--------|--------|--------|
D|--------|--------|--------|--------|--------|--------|--------|--------|--------|
A|--------|--------|--------|--------|--------|--------|--------|--------|--------|
E|--------|--------|--------|--------|--------|--------|--------|--------|--------|


E|--------|--------|--------|--------|--------|--------|--------|--------|--------|
B|--------|--------|--------|--------|--------|--------|--------|--------|--------|
G|--------|--------|--------|--------|--------|--------|--------|--------|--------|
D|--------|--------|--------|--------|--------|--------|--------|--------|--------|
A|--------|--------|--------|--------|--------|--------|--------|--------|--------|
E|--------|--------|--------|--------|--------|--------|--------|--------|--------|


E|--------|--------|--------|--------|--------|--------|--------|--------|--------|
B|--------|--------|--------|--------|--------|--------|--------|--------|--------|
G|--------|--------|--------|--------|--------|--------|--------|--------|--------|
D|--------|--------|--------|--------|--------|--------|--------|--------|--------|
A|--------|--------|--------|--------|--------|--------|--------|--------|--------|
E|--------|--------|--------|--------|--------|--------|--------|--------|--------|


E|-------------|--------|--------|--------|--------|--------|--------|--------|--------|
B|-------------|--------|--------|--------|--------|--------|--------|--------|--------|
G|-------------|--------|--------|--------|--------|--------|--------|--------|--------|
D|-------------|--------|--------|--------|--------|--------|--------|--------|--------|
A|-------------|--------|--------|--------|--------|--------|--------|--------|--------|
E|-------------|--------|--------|--------|--------|--------|--------|--------|--------|


E|--------|--------|--------|--------|--------|--------|--------|--------|--------|
B|--------|--------|--------|--------|--------|--------|--------|--------|--------|
G|--------|--------|--------|--------|--------|--------|--------|--------|--------|
D|--------|--------|--------|--------|--------|--------|--------|--------|--------|
A|--------|--------|--------|--------|--------|--------|--------|--------|--------|
E|--------|--------|--------|--------|--------|--------|--------|--------|--------|


E|--------|--------|--------|--------|--------|--------|--------|--------|--------|
B|--------|--------|--------|--------|--------|--------|--------|--------|--------|
G|--------|--------|--------|--------|--------|--------|--------|--------|--------|
D|--------|--------|--------|--------|--------|--------|--------|--------|--------|
A|--------|--------|--------|--------|--------|--------|--------|--------|--------|
E|--------|--------|--------|--------|--------|--------|--------|--------|--------|


E|--------|--------|--------|--------|--------|--------|--------|--------|--------|
B|--------|--------|--------|--------|--------|--------|--------|--------|--------|
G|--------|--------|--------|--------|--------|--------|--------|--------|--------|
D|--------|--------|--------|--------|--------|--------|--------|--------|--------|
A|--------|--------|--------|--------|--------|--------|--------|--------|--------|
E|--------|--------|--------|--------|--------|--------|--------|--------|--------|


E|--------|--------|--------|--------|--------|--------|--------|
B|--------|--------|--------|--------|--------|--------|--------|
G|--------|--------|--------|--------|--------|--------|--------|
D|--------|--------|--------|--------|--------|--------|--------|
A|--------|--------|--------|--------|--------|--------|--------|
E|--------|--------|--------|--------|--------|--------|--------|





Track 5: Gtr4

E|--------|--------|--------|--------|--------|--------|--------|--------|--------|
B|--------|--------|--------|--------|--------|--------|--------|--------|--------|
G|--------|--------|--------|--------|--------|--------|--------|--------|--------|
D|--------|--------|--------|--------|--------|--------|--------|--------|--------|
A|--------|--------|--------|--------|--------|--------|--------|--------|--------|
E|--------|--------|--------|--------|--------|--------|--------|--------|--------|


E|--------|--------|--------|--------|--------|--------|--------|--------|--------|
B|--------|--------|--------|--------|--------|--------|--------|--------|--------|
G|--------|--------|--------|--------|--------|--------|--------|--------|--------|
D|--------|--------|--------|--------|--------|--------|--------|--------|--------|
A|--------|--------|--------|--------|--------|--------|--------|--------|--------|
E|--------|--------|--------|--------|--------|--------|--------|--------|--------|


E|--------|--------|--------|--------|--------|--------|--------|--------|--------|
B|--------|--------|--------|--------|--------|--------|--------|--------|--------|
G|--------|--------|--------|--------|--------|--------|--------|--------|--------|
D|--------|--------|--------|--------|--------|--------|--------|--------|--------|
A|--------|--------|--------|--------|--------|--------|--------|--------|--------|
E|--------|--------|--------|--------|--------|--------|--------|--------|--------|


E|--------|--------|--------|--------|--------|--------|--------|--------|--------|
B|--------|--------|--------|--------|--------|--------|--------|--------|--------|
G|--------|--------|--------|--------|--------|--------|--------|--------|--------|
D|--------|--------|--------|--------|--------|--------|--------|--------|--------|
A|--------|--------|--------|--------|--------|--------|--------|--------|--------|
E|--------|--------|--------|--------|--------|--------|--------|--------|--------|


E|--------|--------|--------|--------|--------|--------|--------|--------|--------|
B|--------|--------|--------|--------|--------|--------|--------|--------|--------|
G|--------|--------|--------|--------|--------|--------|--------|--------|--------|
D|--------|--------|--------|--------|--------|--------|--------|--------|--------|
A|--------|--------|--------|--------|--------|--------|--------|--------|--------|
E|--------|--------|--------|--------|--------|--------|--------|--------|--------|


E|--------|--------|--------|--------|--------|--------|--------|--------|--------|
B|--------|--------|--------|--------|--------|--------|--------|--------|--------|
G|--------|--------|--------|--------|--------|--------|--------|--------|--------|
D|--------|--------|--------|--------|--------|--------|--------|--------|--------|
A|--------|--------|--------|--------|--------|--------|--------|--------|--------|
E|--------|--------|--------|--------|--------|--------|--------|--------|--------|


E|--------|-----------------------|-----------------------|--------|--------|--------|
B|--------|-------------------0---|-------------0---------|--------|--------|--------|
G|--------|-------2-------2-------|-----2-----------------|--------|--------|--------|
D|--------|-------2----2----------|---------2-------------|--------|--------|--------|
A|--------|-------0---------------|-----------------------|--------|--------|--------|
E|--------|-----------------------|-----------------------|--------|--------|--------|


E|--------|--------|--------|--------|--------|--------|--------|--------|--------|
B|--------|--------|--------|--------|--------|--------|--------|--------|--------|
G|--------|--------|--------|--------|--------|--------|--------|--------|--------|
D|--------|--------|--------|--------|--------|--------|--------|--------|--------|
A|--------|--------|--------|--------|--------|--------|--------|--------|--------|
E|--------|--------|--------|--------|--------|--------|--------|--------|--------|


E|--------|--------|--------|----------------------------7--|-----------------------------------------------|
B|--------|--------|--------|-------------------------8-----|-10-8--7------------------------------------7--|
G|--------|--------|--------|-------9--7-----------9--------|----------9---7--------------------------7-----|
D|--------|--------|--------|-------------10-9--10----------|-----------------10-9--9--7-----------9--------|
A|--------|--------|--------|-------------------------------|-----------------------------10-9--10----------|
E|--------|--------|--------|-------------------------------|-----------------------------------------------|


E|------------------------7--10-8--7--------|--------------------------------------------------|
B|------8--7-----------8--------------10-8--|----7------------------------------7--------------|
G|-9----------9--7--9-----------------------|-------9--7---------------------7-----9--7--------|
D|------------------------------------------|-------------109-7-----------9--------------10-9--|
A|------------------------------------------|--------------------10-9--10----------------------|
E|------------------------------------------|--------------------------------------------------|


E|-------------------------------------------------|-------------------------------------------------|
B|-------------------------------------------------|-------------------------------------------------|
G|-------------------------------------------------|-------------------------------------------------|
D|-7--10----------------------------9--7-----------|----------------------------------4--2-----------|
A|-------9--7--7--------------7--10-------10-9--7--|----------------------------2--5--------5--3--2--|
E|----------------10-8--7--8-----------------------|----10-8--7--7--5--3--2--3-----------------------|


E|------------------------|--------|--------|--------|--------|--------|--------|--------|
B|------------------------|--------|--------|--------|--------|--------|--------|--------|
G|------------------------|--------|--------|--------|--------|--------|--------|--------|
D|------------------------|--------|--------|--------|--------|--------|--------|--------|
A|----3-------------------|--------|--------|--------|--------|--------|--------|--------|
E|-5-----2--0--0----------|--------|--------|--------|--------|--------|--------|--------|


E|--------|--------|--------|--------|--------|--------|--------|--------|--------|
B|--------|--------|--------|--------|--------|--------|--------|--------|--------|
G|--------|--------|--------|--------|--------|--------|--------|--------|--------|
D|--------|--------|--------|--------|--------|--------|--------|--------|--------|
A|--------|--------|--------|--------|--------|--------|--------|--------|--------|
E|--------|--------|--------|--------|--------|--------|--------|--------|--------|


E|--------|--------|
B|--------|--------|
G|--------|--------|
D|--------|--------|
A|--------|--------|
E|--------|--------|





Track 6: Gtr3

E|--------|--------|--------|--------|--------|--------|--------|--------|--------|
B|--------|--------|--------|--------|--------|--------|--------|--------|--------|
G|--------|--------|--------|--------|--------|--------|--------|--------|--------|
D|--------|--------|--------|--------|--------|--------|--------|--------|--------|
A|--------|--------|--------|--------|--------|--------|--------|--------|--------|
E|--------|--------|--------|--------|--------|--------|--------|--------|--------|


E|--------|--------|--------|--------|--------|--------|--------|--------|--------|
B|--------|--------|--------|--------|--------|--------|--------|--------|--------|
G|--------|--------|--------|--------|--------|--------|--------|--------|--------|
D|--------|--------|--------|--------|--------|--------|--------|--------|--------|
A|--------|--------|--------|--------|--------|--------|--------|--------|--------|
E|--------|--------|--------|--------|--------|--------|--------|--------|--------|


E|--------|--------|--------|--------|--------|--------|--------|--------|--------|
B|--------|--------|--------|--------|--------|--------|--------|--------|--------|
G|--------|--------|--------|--------|--------|--------|--------|--------|--------|
D|--------|--------|--------|--------|--------|--------|--------|--------|--------|
A|--------|--------|--------|--------|--------|--------|--------|--------|--------|
E|--------|--------|--------|--------|--------|--------|--------|--------|--------|


E|--------|--------|--------|--------|--------|--------|--------|--------|--------|
B|--------|--------|--------|--------|--------|--------|--------|--------|--------|
G|--------|--------|--------|--------|--------|--------|--------|--------|--------|
D|--------|--------|--------|--------|--------|--------|--------|--------|--------|
A|--------|--------|--------|--------|--------|--------|--------|--------|--------|
E|--------|--------|--------|--------|--------|--------|--------|--------|--------|


E|--------|--------|--------|--------|--------|--------|--------|--------|--------|
B|--------|--------|--------|--------|--------|--------|--------|--------|--------|
G|--------|--------|--------|--------|--------|--------|--------|--------|--------|
D|--------|--------|--------|--------|--------|--------|--------|--------|--------|
A|--------|--------|--------|--------|--------|--------|--------|--------|--------|
E|--------|--------|--------|--------|--------|--------|--------|--------|--------|


E|--------|--------|--------|--------|--------|--------|--------|--------|--------|
B|--------|--------|--------|--------|--------|--------|--------|--------|--------|
G|--------|--------|--------|--------|--------|--------|--------|--------|--------|
D|--------|--------|--------|--------|--------|--------|--------|--------|--------|
A|--------|--------|--------|--------|--------|--------|--------|--------|--------|
E|--------|--------|--------|--------|--------|--------|--------|--------|--------|


E|--------|--------|--------|--------|--------|--------|--------|--------|--------|
B|--------|--------|--------|--------|--------|--------|--------|--------|--------|
G|--------|--------|--------|--------|--------|--------|--------|--------|--------|
D|--------|--------|--------|--------|--------|--------|--------|--------|--------|
A|--------|--------|--------|--------|--------|--------|--------|--------|--------|
E|--------|--------|--------|--------|--------|--------|--------|--------|--------|


E|-------4---4--4--4---4---|-4--4--4---4-------0---0--0--0---0---|-0--0--0---0-------4---4--4--4---4---|
B|-------5---5--5--5---5---|-5--5--5---5-------0---0--0--0---0---|-0--0--0---0-------4---4--4--4---4---|
G|-------6---6--6--6---6---|-6--6--6---6-------4---4--4--4---4---|-4--4--4---4-------4---4--4--4---4---|
D|-------6---6--6--6---6---|-6--6--6---6-------4---4--4--4---4---|-4--4--4---4-------6---6--6--6---6---|
A|-------4---4--4--4---4---|-4--4--4---4-------2---2--2--2---2---|-2--2--2---2-------6---6--6--6---6---|
E|-------------------------|-------------------------------------|-------------------4---4--4--4---4---|


E|-4--4--4---4-------0---0--0--0---0---|-0--0--0---0-------4---4--4--4---4---|-4--4--4---4-------0---0--0--0---0---|
B|-4--4--4---4-------0---0--0--0---0---|-0--0--0---0-------5---5--5--5---5---|-5--5--5---5-------0---0--0--0---0---|
G|-4--4--4---4-------2---2--2--2---2---|-2--2--2---2-------6---6--6--6---6---|-6--6--6---6-------4---4--4--4---4---|
D|-6--6--6---6-------2---2--2--2---2---|-2--2--2---2-------6---6--6--6---6---|-6--6--6---6-------4---4--4--4---4---|
A|-6--6--6---6-------0---0--0--0---0---|-0--0--0---0-------4---4--4--4---4---|-4--4--4---4-------2---2--2--2---2---|
E|-4--4--4---4-------------------------|-------------------------------------|-------------------------------------|


E|-0--0--0---0-------4---4--4--4---4---|-4--4--4---4-------0---0--0--0---0---|-0--0--0---0-------0---0--0--0---0---|
B|-0--0--0---0-------4---4--4--4---4---|-4--4--4---4-------0---0--0--0---0---|-0--0--0---0-------0---0--0--0---0---|
G|-4--4--4---4-------4---4--4--4---4---|-4--4--4---4-------2---2--2--2---2---|-2--2--2---2-------4---4--4--4---4---|
D|-4--4--4---4-------6---6--6--6---6---|-6--6--6---6-------2---2--2--2---2---|-2--2--2---2-------4---4--4--4---4---|
A|-2--2--2---2-------6---6--6--6---6---|-6--6--6---6-------0---0--0--0---0---|-0--0--0---0-------2---2--2--2---2---|
E|-------------------4---4--4--4---4---|-4--4--4---4-------------------------|-------------------------------------|


E|-0--0--0---0-------------|--------|--------|--------|--------|--------|--------|
B|-0--0--0---0-------------|--------|--------|--------|--------|--------|--------|
G|-4--4--4---4-------------|--------|--------|--------|--------|--------|--------|
D|-4--4--4---4-------------|--------|--------|--------|--------|--------|--------|
A|-2--2--2---2-------------|--------|--------|--------|--------|--------|--------|
E|-------------------------|--------|--------|--------|--------|--------|--------|


E|--------|--------|--------|--------|--------|--------|--------|--------|--------|
B|--------|--------|--------|--------|--------|--------|--------|--------|--------|
G|--------|--------|--------|--------|--------|--------|--------|--------|--------|
D|--------|--------|--------|--------|--------|--------|--------|--------|--------|
A|--------|--------|--------|--------|--------|--------|--------|--------|--------|
E|--------|--------|--------|--------|--------|--------|--------|--------|--------|


E|--------|--------|--------|--------|--------|--------|--------|--------|--------|
B|--------|--------|--------|--------|--------|--------|--------|--------|--------|
G|--------|--------|--------|--------|--------|--------|--------|--------|--------|
D|--------|--------|--------|--------|--------|--------|--------|--------|--------|
A|--------|--------|--------|--------|--------|--------|--------|--------|--------|
E|--------|--------|--------|--------|--------|--------|--------|--------|--------|





Track 7: Bass

B|-----------------------------------------------------|-----------------------------------------------------|
G|-----------------------------------------------------|-----------------------------------------------------|
D|-----------------------------------------------------|-----------------------------------------------------|
A|-----------------------------------------------------|-----------------------------------------------------|
E|-----------------------------------------------------|-----------------------------------------------------|
B|-3--3--3--3-------3--3--3--3--3--3--3---3--3--3--3---|-3--3--3--3-------3--3--3--3--3--3--3---3--3--3--3---|


B|-----------------------------------------------------|-----------------------------------------------------|
G|-----------------------------------------------------|-----------------------------------------------------|
D|-----------------------------------------------------|-----------------------------------------------------|
A|-----------------------------------------------------|-----------------------------------------------------|
E|-----------------------------------------------------|-----------------------------------------------------|
B|-3--3--3--3-------3--3--3--3--3--3--3---3--3--3--3---|-3--3--3--3-------3--3--3--3--3--3--3---3--3--3--3---|


B|-----------------------------------------------------|-----------------------------------------------------|
G|-----------------------------------------------------|-----------------------------------------------------|
D|-----------------------------------------------------|-----------------------------------------------------|
A|-----------------------------------------------------|-----------------------------------------------------|
E|-----------------------------------------------------|-----------------------------------------------------|
B|-3--3--3--3-------3--3--3--3--3--3--3---3--3--3--3---|-3--3--3--3-------3--3--3--3--3--3--3---3--3--3--3---|


B|-----------------------------------------------------|-----------------------------------------------------|
G|-----------------------------------------------------|-----------------------------------------------------|
D|-----------------------------------------------------|-----------------------------------------------------|
A|-----------------------------------------------------|-----------------------------------------------------|
E|-----------------------------------------------------|-----------------------------------------------------|
B|-3--3--3--3-------3--3--3--3--3--3--3---3--3--3--3---|-3--3--3--3-------3--3--3--3--3--3--3---3--3--3--3---|


B|---------------------------------------|-----------------------------------------|
G|---------------------------------------|-----------------------------------------|
D|---------------------------------------|-----------------------------------------|
A|---------------------------------------|-----------------------------------------|
E|---------------------------------------|-----------------------------------------|
B|-3--3--3--3--------3----3--3--3--3--3--|----3--3--3--3---1---3----3--3--3--3--3--|


B|-----------------------------------------|---------------------------------------------|
G|-----------------------------------------|---------------------------------------------|
D|-----------------------------------------|---------------------------------------------|
A|-----------------------------------------|---------------------------------------------|
E|-----------------------------------------|-8--10-10-10-8--10-10-10---------------------|
B|----3--3--3--3---1---3---3--3--3---3--3--|-------------------------3---3--3--3---3--3--|


B|---------------------------------------------|-----------------------------------------|
G|---------------------------------------------|-----------------------------------------|
D|---------------------------------------------|-----------------------------------------|
A|---------------------------------------------|-----------------------------------------|
E|-8--10-10-10-8--10-10-10---------------------|-----------------------------------------|
B|-------------------------3----3--3--3--3--3--|----3--3--3--3---1---3----3--3--3--3--3--|


B|-----------------------------------------|-------------------------9--10-9--7--------------------------|
G|-----------------------------------------|-------------------------------------9--7--6--9--7--6--------|
D|-----------------------------------------|-------------------------------------------------------9--7--|
A|-----------------------------------------|-------------------------------------------------------------|
E|-----------------------------------------|-8--10-10-10-8--10-10-10-------------------------------------|
B|----3--3--3--3---1---3---3--3--3---3--3--|-------------------------------------------------------------|


B|--------------------------------------------------|---------------------------|------------------------------|
G|--------------------------------------------------|---------------------------|------------------------------|
D|-6--9--7--6---------------------------------------|---------------------------|------------------------------|
A|-------------9--7--5--9--7--5---------------------|---------------------------|------------------------------|
E|-------------------------------9--7--5----5---5---|-----5---5----7----7---7---|-----7---7---7---5----5---5---|
B|--------------------------------------------------|---------------------------|------------------------------|


B|---------------------------|------------------------------|---------------------------|
G|---------------------------|------------------------------|---------------------------|
D|---------------------------|------------------------------|---------------------------|
A|---------------------------|------------------------------|---------------------------|
E|-----0---0----2----2---2---|-----2---2---2---5----5---5---|-----5---5----7----7---7---|
B|---------------------------|------------------------------|---------------------------|


B|------------------------------|------------------------------|-------------------------------------|
G|------------------------------|------------------------------|-------------------------------------|
D|------------------------------|------------------------------|-------------------------------------|
A|-----------------3----3---3---|-----3---3---3---5----5---5---|-----5---5---5-----------------------|
E|-----7---7---7----------------|------------------------------|-----------------0--2--4--6--6---0---|
B|------------------------------|------------------------------|-------------------------------------|


B|-----------------------------------------|----------------------------------------------|
G|-----------------------------------------|----------------------------------------------|
D|-----------------------------------------|----------------------------------------4--6--|
A|-----------5--4--------------------------|----------------------------------5--7--------|
E|-0--0--0---------2--4--4---0---0---0--0--|-0--2--4--6--6---0---0--0--0--0---------------|
B|-----------------------------------------|----------------------------------------------|


B|-----------------------------------------------|-----------------------------------------|
G|-----------------------------------------------|-----------------------------------------|
D|-6---------------------------------------------|-----------------------------------------|
A|------------------3--5--7----------------------|-----------5--4--------------------------|
E|-----0---2--4--6-----------0--2--4--6--6---0---|-0--0--0---------2--4--4---0---0---0--0--|
B|-----------------------------------------------|-----------------------------------------|


B|---------------------------------------------|--------------------------------------------|
G|---------------------------------------------|--------------------------------------------|
D|---------------------------------------4--6--|--------------------------------------------|
A|---------------------------------5--7--------|-7--5--------7------5------3--1-----0-------|
E|-0--2--4--6--6---0---0-0-0-0-0---------------|-------6--4-----6------4---------2-----1----|
B|---------------------------------------------|--------------------------------------------|


B|-----------------------------------------------------|---------------------------------------|
G|-----------------------------------------------------|---------------------------------------|
D|-----------------------------------------------------|---------------------------------------|
A|-----------------------------------------------------|---------------------------------------|
E|-0--0--0----------0--0--0--0--0--0--0---0--0--0--0---|---------------------------------------|
B|-----------------------------------------------------|-3----3--3--3--3--3---3--3--3--3---1---|


B|---------------------------------------|---------------------------------------------|
G|---------------------------------------|---------------------------------------------|
D|---------------------------------------|---------------------------------------------|
A|---------------------------------------|---------------------------------------------|
E|---------------------------------------|---------------------8--10-10-10-8--10-10-10-|
B|-3----3--3--3--3--3---3--3--3--3---1---|-3---3--3--3---3--3--------------------------|


B|---------------------------------------------|---------------------------------------|
G|---------------------------------------------|---------------------------------------|
D|---------------------------------------------|---------------------------------------|
A|---------------------------------------------|---------------------------------------|
E|---------------------8--10-10-10-8--10-10-10-|---------------------------------------|
B|-3---3--3--3---3--3--------------------------|-3----3--3--3--3--3---3--3--3--3---1---|


B|---------------------------------------|---------------------------------------------|
G|---------------------------------------|---------------------------------------------|
D|---------------------------------------|---------------------------------------------|
A|---------------------------------------|---------------------------------------------|
E|---------------------------------------|---------------------8--10-10-10-8--10-10-10-|
B|-3----3--3--3--3--3---3--3--3--3---1---|-3---3--3--3---3--3--------------------------|


B|--------------------------------|--------------------|---------------------------|
G|--------------------------------|--------------------|---------------------------|
D|--------------------------------|--------------------|---------------------------|
A|--------------------------------|--------------------|---------------------------|
E|-10--10---0--0--2---3---3---0---|-7----7---7---7-----|-3---3---3---3---3-----2---|
B|--------------------------------|--------------------|---------------------------|


B|---------------------------|-----------------------------|--------------------|---------------------------|
G|---------------------------|-----------------------------|--------------------|---------------------------|
D|---------------------------|-----------------------------|--------------------|---------------------------|
A|---------------------------|-5---5---5---5--5--0-----0---|--------------------|---------------------------|
E|-0---0---0---0---0-----0---|-----------------------------|-7----7---7---7-----|-3---3---3---3---3-----2---|
B|---------------------------|-----------------------------|--------------------|---------------------------|


B|---------------------------|-----------------------------|-------------------------------|
G|---------------------------|-----------------------------|-------------------------------|
D|---------------------------|-----------------------------|------4----2-----------2---4---|
A|---------------------------|-5---5---5---5--5--0-----0---|--------------4--2--0----------|
E|-0---0---0---0---0-----0---|-----------------------------|-2-----------------------------|
B|---------------------------|-----------------------------|-------------------------------|


B|------------------------------|----------------------------------|---------------------------|
G|------------------------------|----------------------------------|---------------------------|
D|-4---------------2---4--------|-4----2-----------2---4---4---8---|-6-------6-----------------|
A|-----2---2---4----------------|---------4--2--0------------------|-----9-------9---7---------|
E|-------------------------2----|----------------------------------|----------------------2----|
B|------------------------------|----------------------------------|---------------------------|


B|------------------------------------|-----------------------9-------------|----------------------------------|
G|------------------------------------|----------------9--11------11--------|----------------------------------|
D|-4----2-----------2---4---4---9--11-|-8--8--9--10-11----------------------|-2-----------2---4---4---2---4----|
A|---------4--2--0--------------------|-------------------------------------|----4--2--0-----------------------|
E|------------------------------------|--------------------------------2----|----------------------------------|
B|------------------------------------|-------------------------------------|----------------------------------|


B|------------------------------------|---------------------------|------------------------------|
G|------------------------------------|---------------------------|------------------------------|
D|-7--9--9--9--7--9--9----------------|---------------------------|------------------------------|
A|------------------------------------|---------------------------|------------------------------|
E|-----------------------5----5---5---|-----5---5----7----7---7---|-----7---7---7---5----5---5---|
B|------------------------------------|---------------------------|------------------------------|


B|---------------------------|------------------------------|---------------------------|
G|---------------------------|------------------------------|---------------------------|
D|---------------------------|------------------------------|---------------------------|
A|---------------------------|------------------------------|---------------------------|
E|-----0---0----2----2---2---|-----2---2---2---5----5---5---|-----5---5----7----7---7---|
B|---------------------------|------------------------------|---------------------------|


B|------------------------------|------------------------------|---------------------------------|
G|------------------------------|------------------------------|---------------------------------|
D|------------------------------|------------------------------|---------------------------------|
A|-----------------3----3---3---|-----3---3---3---5----5---5---|-----5---5---5---4----4--4---4---|
E|-----7---7---7----------------|------------------------------|---------------------------------|
B|------------------------------|------------------------------|---------------------------------|


B|------------------------|---------------------------|---------------------------|
G|------------------------|---------------------------|---------------------------|
D|------------------------|---------------------------|---------------------------|
A|-4----4----2----2---4---|-4----6--------------------|---------------------------|
E|------------------------|-----------4----4--4---4---|-4----4----5----5--5---5---|
B|------------------------|---------------------------|---------------------------|


B|--------------------------------|------------------------|---------------------------|
G|--------------------------------|------------------------|---------------------------|
D|--------------------------------|------------------------|---------------------------|
A|----------------4----4--4---4---|-4----4----2----2---4---|-4----6--------------------|
E|-5----5---5--5------------------|------------------------|-----------4----4--4---4---|
B|--------------------------------|------------------------|---------------------------|


B|---------------------------|--------------------------------|------------------------------|
G|---------------------------|--------------------------------|------------------------------|
D|---------------------------|--------------------------------|------------------------------|
A|---------------------------|--------------------------------|-----------------3------------|
E|-4----4----5----5--5---5---|-5----5---5--5--7----7--7---7---|-----7---7---7----------------|
B|---------------------------|--------------------------------|------------------------------|


B|------------------------------|---------------------------|---------------------------|
G|------------------------------|---------------------------|---------------------------|
D|------------------------------|---------------------------|---------------------------|
A|------5--5----0--0------------|-2----3-----------------5--|-5----0--0------------2----|
E|------------------------------|---------------------------|---------------------------|
B|------------------------------|---------------------------|---------------------------|


B|------------------------------------------|-------------------------------------------------|
G|------------------------------------------|-------------------------------------------------|
D|---------------------------9--7-----------|-------------------------------------------------|
A|------7--------------7--10-------10-9--7--|-7--------------------------------9--7-----------|
E|-2-------10-8--7--8-----------------------|----10-8--7--7--------------7--10-------10-8--7--|
B|------------------------------------------|----------------10-8--7--8-----------------------|


B|-----------------------------------|-------------------------------------------------|
G|-----------------------------------|-------------------------------------------------|
D|-----------------------------------|-------------------------------------------------|
A|-----------------------7--------6--|----------5--4-----3--2-----1--0-----------------|
E|----8-------------12------7--0-----|-7--0-----------0--------0--------2--3--3--2--2--|
B|-10----7--5--5---------------------|-------------------------------------------------|


B|-------------------------------------------------|-------------------------------------------------|
G|-------------------------------------------------|-------------------------------------------------|
D|-------------------------------------------------|-------------------------------------------------|
A|-------3--3--2--2--1--0--------7--------6--------|----5--4-----3--2-----1--0-----------------------|
E|-1--1-----------------------3-----7--0-----7--0--|----------0--------0--------2--3--3--2--2--1--1--|
B|-------------------------------------------------|-------------------------------------------------|


B|-------------------------------------------------|-----------------------------------------------|
G|-------------------------------------------------|-----------------------------------------------|
D|-------------------------------------------------|-----------------------------------------------|
A|-3--3--2--2--1--0--------------------------3--3--|-2--2--1--0------------------------------------|
E|----------------------2--3--3--2--2--1--1--------|-----------------4--4--4--4--4--4--4--4--4--4--|
B|-------------------------------------------------|-----------------------------------------------|


B|-------------------------------------------------|-------------------------------------------------|
G|-------------------------------------------------|-------------------------------------------------|
D|-------------------------------------------------|-------------------------------------------------|
A|-------------------------------------------------|-------------------------------------------------|
E|-4--4--4--4--4--4--4--4--4--4--4--4--4--4--4--4--|-4--4--4--4--4--4--4--4--4--4--4--4--4--4--4--4--|
B|-------------------------------------------------|-------------------------------------------------|


B|----------------------------------------------------|----------------------------------------------------------|
G|----------------------------------------------------|----------------------------------------------------------|
D|-------------------------------------------4--6--6--|-6--6--6--------------------------------------------------|
A|----------------------------------------------------|----------------------------------------------------------|
E|-4--4--4--4--4--4--4--4--4--4--4--4--4--4-----------|----------4--4--4--4--4--4--1--1--1--1--1--1--1--1--1--1--|
B|----------------------------------------------------|----------------------------------------------------------|


B|-------------------------------------------------|-------------------------------------------------|
G|-------------------------------------------------|-------------------------------------------------|
D|-------------------------------------------------|-------------------------------------------------|
A|-------------------------------------------------|-------------------------------------------------|
E|-1--1--1--1--1--1--1--1--1--1--1--1--1--1--1--1--|-1--1--1--1--1--1--1--1--1--1--1--1--1--1--1--1--|
B|-------------------------------------------------|-------------------------------------------------|


B|-------------------------------------------------|-----------------------------------------------|
G|-------------------------------------------------|-----------------------------------------------|
D|-------------------------------------------------|-----------------------------------------------|
A|-------------------------------------------------|-----------------2--2--2--2--2--2--2--2--2--2--|
E|-1--1--1--1--1--1--1--1-----1--1-----1--1-----1--|-1-----1--1------------------------------------|
B|-------------------------------------------------|-----------------------------------------------|


B|-------------------------------------------------|-------------------------------------------------|
G|-------------------------------------------------|-------------------------------------------------|
D|-------------------------------------------------|-------------------------------------------------|
A|-2--2--2--2--2--2--2--2--2--2--2--2--2--2--2--2--|-2--2--2--2--2--2--4--4--4--4--4--4--4--4--4--4--|
E|-------------------------------------------------|-------------------------------------------------|
B|-------------------------------------------------|-------------------------------------------------|


B|-------------------------------------------------|-----------------------------------------------|
G|-------------------------------------------------|-----------------------------------------------|
D|-------------------------------------------------|-----------------------------------------------|
A|-4--4--4--4--4--4--4--4--4--4--4--4--4--4--4--4--|-4--4--4--4--4--4------------------------------|
E|-------------------------------------------------|-------------------4--4--4--4------4--4--4--4--|
B|-------------------------------------------------|-----------------------------------------------|


B|---------------------------------------|
G|---------------------------------------|
D|---------------------------------------|
A|---------------------------------------|
E|-----4--4--4-------4--4--4--4----------|
B|---------------------------------------|