Menu:

 

Search:

 

dream theater - octavarium v razors edge:

 



Title: Octavarium: V. Razor's Edge
Artist: 
Album: Octavarium
Author: Dream Theater


Track 1: Dist. Gtr1_Petrucci

E|--------|------------|---------------------|------------------|----------------|
B|--------|------------|---------------------|------------------|----------------|
G|--------|------------|-----------------5---|--------------3---|----------------|
D|-3------|-3------3---|-------3---------5---|--------5--5--3---|------------3---|
A|-3------|-3------3---|-------3---------3---|--------3--3--1---|------------3---|
E|-1------|-1------1---|-------1---16--------|------------------|------------1---|


E|------------------|-------------------------|------------------|------------------------|
B|------------------|-----4-----4-------------|------------------|------------------------|
G|------------------|-----3-----3-------------|------------------|------------------------|
D|------------------|---------------------6---|------------------|------------------------|
A|--------3--3------|---------------------6---|--------6--6------|----------7-----7---8---|
E|--------1--1--3---|---------------3--3--4---|--------4--4--0---|------0-----------------|


E|-----------------|------------------|------------------------|------------------------|
B|-----------------|------------------|------------------------|------------------------|
G|-----------------|------------------|------------------------|------------------------|
D|-----------------|------------------|------------------------|------------------------|
A|-------6-----5---|--------5--5------|------------------------|----------7----3----5---|
E|-----------------|--------------1---|------1---4-----4---0---|------0-----------------|


E|--------------------|--------------------|--------------------|--------------------|
B|--------------------|--------------------|--------------------|--------------------|
G|--------------------|--------------------|--------------------|--------------------|
D|--------------------|--------------------|--------------------|--------------------|
A|-----------5----4---|-----------4----3---|-----------3----2---|-----------2----1---|
E|--------------------|--------------------|--------------------|--------------------|


E|--------------------|---------------------------------|--------------------|--------------------|
B|--------------------|---------------------------------|--------------------|--------------------|
G|--------------------|---------------------------------|--------------------|--------------------|
D|----------------5---|-5---5---5---5---5---5---5-------|--------------------|--------------------|
A|-----------1----3---|-3---3---3---3---3---3---3---5---|-----------5----4---|-----------4----3---|
E|--------------------|---------------------------------|--------------------|--------------------|


E|--------------------|--------------------|--------------------|---------------------------------|
B|--------------------|--------------------|--------------------|---------------------------------|
G|--------------------|--------------------|--------------------|---------------------------------|
D|--------------------|--------------------|----------------5---|-5---5---5---5---5---5---5---5---|
A|-----------3----2---|-----------2----1---|-----------1----3---|-3---3---3---3---3---3---3---3---|
E|--------------------|--------------------|--------------------|---------------------------------|


E|------------------------------|--------------------------|---------------------------|
B|------------------------------|--------------------------|---------------------------|
G|--------------------------10--|-----12---1212---10---9---|------9---8----9---9---9---|
D|-5---5---5---5---5---5--------|--------------------------|---------------------------|
A|-3---3---3---3---3---3--------|--------------------------|---------------------------|
E|------------------------------|--------------------------|---------------------------|


E|------------------------------|-----------------------------|---------------------------------|
B|------8---8----6----6-8-6-----|----------6----6-6-----------|---------4--4----4---3---4---6---|
G|--------------------------8---|------8--------------3---3---|---------------------------------|
D|------------------------------|-----------------------------|---------------------------------|
A|------------------------------|-----------------------------|---------------------------------|
E|------------------------------|-----------------------------|---------------------------------|


E|----------------------------------|-------------------------------------------|-------------------------------------|
B|-------------6--6---4---6---6--6--|----------------------8--8---6---8---8--8--|-8----8----------129-9---8---9---11--|
G|-13-4--4--------------------------|----3--3---3--3--3-------------------------|---------4--4------------------------|
D|----------------------------------|-------------------------------------------|-------------------------------------|
A|----------------------------------|-------------------------------------------|-------------------------------------|
E|----------------------------------|-------------------------------------------|-------------------------------------|


E|----11-11----11-----10--11--11--|----1111---------------13--11--13--13--|-13--13-------------20---2020---17--|
B|--------------------------------|--------12-12-12---12------------------|--------13-13-----17---------20-----|
G|--------------------------------|---------------------------------------|----------------17------------------|
D|--------------------------------|---------------------------------------|------------------------------------|
A|--------------------------------|---------------------------------------|------------------------------------|
E|--------------------------------|---------------------------------------|------------------------------------|


E|-17--14-15-17-14---------------------------------------|--------------------------------------------|
B|-----------------15------------------------------------|----------------------------------15171817--|
G|--------------------14-11-12-14-11-------14--14-16-16--|----------------------------141617----------|
D|-----------------------------------12------------------|----15-15---15--------141517----------------|
A|--------------------------------------12---------------|----------------141517----------------------|
E|-------------------------------------------------------|--------------------------------------------|


E|---------------17--16---16--12--12--12--|----14-10-9--10-9-9-9---9---12-17129---10--12--|
B|-----------17---------------------------|-----------------------------------------------|
G|----13-14-------------------------------|-----------------------------------------------|
D|----------------------------------------|-----------------------------------------------|
A|----------------------------------------|-----------------------------------------------|
E|----------------------------------------|-----------------------------------------------|


E|---------------17--16---16-16---12-14-|-15--15---15---15---1915-17-|-19--19---19---19-------|
B|-----------17-------------------------|----------------------------|--------------------18--|
G|----13-14-----------------------------|----------------------------|------------------------|
D|--------------------------------------|----------------------------|------------------------|
A|--------------------------------------|----------------------------|------------------------|
E|--------------------------------------|----------------------------|------------------------|


E|---------------------------|-15--16---16------------------------------------|-----------------------------------13--|
B|-----18------18--18----18--|-----------------------------------------16-18--|-------18--------------------131416----|
G|---------------------------|--------------------------------------17--------|-----------------------121315----------|
D|---------15----------------|--------------------------------15-18-----------|-----------------121315----------------|
A|---------------------------|--------------16-------15-16-18-----------------|-------------1315----------------------|
E|---------------------------|-----------------16-18--------------------------|-----------13--------------------------|


E|-15--16---16-----------------------------16--|-18--19---19------------------------------------161819--|
B|--------------------------------16-18-20-----|------------------------------------------161719--------|
G|-----------------------15-17-18--------------|--------------------------------1516181618--------------|
D|--------------15-17-18-----------------------|--------------------141618141618------------------------|
A|---------------------------------------------|--------------141618------------------------------------|
E|---------------------------------------------|--------------------------------------------------------|


E|-21--22---22---22---24-24-|-----24-----24--|----------------|----------------|------------------|
B|--------------------------|----------------|----------------|----------------|------------------|
G|--------------------------|----------------|----------------|----------------|------------------|
D|--------------------------|----------------|----------------|----------------|------------------|
A|--------------------------|----------------|----------------|----------------|------------------|
E|--------------------------|----------------|----------------|----------------|------------------|


E|--------|--------|--------|--------|--------|--------|
B|--------|--------|--------|--------|--------|--------|
G|--------|--------|--------|--------|--------|--------|
D|--------|--------|--------|--------|--------|--------|
A|--------|--------|--------|--------|--------|--------|
E|--------|--------|--------|--------|--------|--------|





Track 2: Synth. - Lead_Rudess

E|-------13--20---13-16--13------|----------------------------------------------------------|
B|---------------------13----13--|----------------------------------------------------------|
G|-------------------------13--10|-13--10---------------------------------------------------|
D|-------------------------------|---10----10-----------------------------------------------|
A|-------------------------------|-------11--8-11--8-----------6--5--4--3-------------------|
E|-------------------------------|---------------8---4-8-1-4-3-------------4--3--2--1---1---|


E|--------|--------|--------|--------|--------|--------|--------|--------|--------|
B|--------|--------|--------|--------|--------|--------|--------|--------|--------|
G|--------|--------|--------|--------|--------|--------|--------|--------|--------|
D|--------|--------|--------|--------|--------|--------|--------|--------|--------|
A|--------|--------|--------|--------|--------|--------|--------|--------|--------|
E|--------|--------|--------|--------|--------|--------|--------|--------|--------|


E|--------|--------|--------|--------|--------|--------|--------|--------|--------|
B|--------|--------|--------|--------|--------|--------|--------|--------|--------|
G|--------|--------|--------|--------|--------|--------|--------|--------|--------|
D|--------|--------|--------|--------|--------|--------|--------|--------|--------|
A|--------|--------|--------|--------|--------|--------|--------|--------|--------|
E|--------|--------|--------|--------|--------|--------|--------|--------|--------|


E|--------|--------|--------|--------|--------|--------|--------|--------|--------|
B|--------|--------|--------|--------|--------|--------|--------|--------|--------|
G|--------|--------|--------|--------|--------|--------|--------|--------|--------|
D|--------|--------|--------|--------|--------|--------|--------|--------|--------|
A|--------|--------|--------|--------|--------|--------|--------|--------|--------|
E|--------|--------|--------|--------|--------|--------|--------|--------|--------|


E|--------|--------|--------|--------|--------|--------|--------|--------|--------|
B|--------|--------|--------|--------|--------|--------|--------|--------|--------|
G|--------|--------|--------|--------|--------|--------|--------|--------|--------|
D|--------|--------|--------|--------|--------|--------|--------|--------|--------|
A|--------|--------|--------|--------|--------|--------|--------|--------|--------|
E|--------|--------|--------|--------|--------|--------|--------|--------|--------|


E|--------|--------|--------|--------|--------|--------|--------|--------|--------|
B|--------|--------|--------|--------|--------|--------|--------|--------|--------|
G|--------|--------|--------|--------|--------|--------|--------|--------|--------|
D|--------|--------|--------|--------|--------|--------|--------|--------|--------|
A|--------|--------|--------|--------|--------|--------|--------|--------|--------|
E|--------|--------|--------|--------|--------|--------|--------|--------|--------|


E|--------|--------|--------|--------|--------|--------|--------|--------|--------|
B|--------|--------|--------|--------|--------|--------|--------|--------|--------|
G|--------|--------|--------|--------|--------|--------|--------|--------|--------|
D|--------|--------|--------|--------|--------|--------|--------|--------|--------|
A|--------|--------|--------|--------|--------|--------|--------|--------|--------|
E|--------|--------|--------|--------|--------|--------|--------|--------|--------|


E|--------|--------|--------|--------|
B|--------|--------|--------|--------|
G|--------|--------|--------|--------|
D|--------|--------|--------|--------|
A|--------|--------|--------|--------|
E|--------|--------|--------|--------|





Track 3: Synth. - Piano_Rudess

E|--------|--------|------------11--|------------11---11---9---|-----6---------6-----------|
B|--------|--------|------------13--|------------13---13---11--|-----6----6----6-------8---|
G|--------|--------|------------12--|------------12---12---10--|----------6----6-------10--|
D|--------|--------|------------10--|------8--10-10--------8---|-----------------------10--|
A|--------|--------|------------10--|------------10--------8---|-----------------------8---|
E|--------|--------|------------8---|----------------------6---|-----------------------8---|


E|-------------------------------------11--|------------11------11---11--|-----11--------11---11------8---|
B|---------------------------9---------11--|------------11------11---13--|-----13--------13---13------9---|
G|-----------------10--------10--------12--|------------12-----------13--|-----13--------13---13------9---|
D|-----------------10--------10--------13--|------13-13-13--13-------13--|---------------13-----------10--|
A|----10-11--8--11-11--8--11-11--11-15-----|---------13------------------|------------15-15-------15------|
E|----8--8---------------------------------|------15-----------------16--|---------16-16-16-----------12--|


E|------------------------|---------------------------|-------------10---------------|
B|----------9----8--------|-----------------------3---|-----3-------12---------------|
G|----------9----9----10--|---------10--8----8----5---|-----5-------13-----------10--|
D|-----10-------------10--|---------10--10---10-------|-----6---6---15-----------12--|
A|-----13--------13---8---|-----8-------11--------8---|-----8---8--------10--11--14--|
E|-----12-------------8---|-----8-------11--------10--|-----10--10---------------13--|


E|-----7------------------|-----8---8---12------------|------------------------|-----2127--------------------|
B|-----9----9----9--------|-----9---9---13---13-------|---------------10-------|-----------------------------|
G|-----10---10---10---9---|-----9---9---13---13---10--|-----10---10---10---10--|-------10---10---12--10--10--|
D|-----12---12---12---10--|-----10-----------14---12--|-----12---12---12---11--|-------11---11-----------10--|
A|----------14---14---11--|-------------15--------12--|-----12---12---12---11--|-------11---11-----------8---|
E|----------13--------12--|-----------------------10--|------------------------|-------------------------8---|


E|--------------------11--|---------------------------|---------------------------|
B|--------------------12--|-----12----------------6---|-6---6---6---6----6--------|
G|-----10---10---10---11--|-----11---11---13--11--6---|-6---6---6---6----6----10--|
D|-----10---10---10-------|-----13---13---13--13--8---|-8---8---8---8----8----10--|
A|-----8----8----8----14--|-----------------------8---|-----8-------8----8----10--|
E|-----8----8----8--------|-----------------------6---|-----6-----------------8---|


E|------------------------|------------------------|-------212725211815--1315------------------|
B|------------------------|---------------10-------|-----18------------14----11149-------------|
G|-----10---12---12---10--|-----10---10---10---10--|-----10----------------------10---10---10--|
D|-----10---10---10---12--|-----12---12---12---11--|-----11----------------------11---11---10--|
A|-----10---10---10---12--|-----12---12---12---11--|-----11----------------------11---11---8---|
E|-----8----8----8----10--|------------------------|---------------------------------------8---|


E|------------------------|---------------------------|------------------------------------|
B|--------------------7---|-----7----7----7-------6---|-----6----------------6--6--6-------|
G|-----10--------10---8---|-----8----8----8-------6---|--------6--5-----6-------6--6---10--|
D|-----10--------10---9---|-----9----9----9-------8---|--------------8--8----------8---10--|
A|-----8----8----8--------|-----------------------8---|-----8-----------8----8---------10--|
E|-----8----8----8----7---|-----------------------6---|-----6-----------6----6---------8---|


E|------------------------|-----------------------|------------------------|------------------------------|
B|------------------------|-------------------9---|-----9----9----9----9---|-----9---9---9----9---9-------|
G|-----10---12---12---10--|-10--10--10--10----10--|-----10---10---10---9---|-----9---9---9----9---9---10--|
D|-----10---10---10---10--|-10--10--10--10----10--|-----10---10---10---11--|-----11--11--11---11--11--10--|
A|-----10---10---10---10--|-10--10--10--10----8---|-----8----8----8----11--|-----11------11---11------8---|
E|-----8----8----8----8---|-8---8---8---8-----8---|-----8----8----8----9---|-----9-------9----9-------8---|


E|-----------------------------|-----8---------8-----------|-----11-----------10--11--7---|
B|----------8---------9----9---|-----9----9----9-------11--|-----11-------11----------8---|
G|-----10---10--------10---8---|-----8----8----8-------12--|-----12---12--------------8---|
D|-----10---10--10-13-10---10--|-----------------------13--|----------13------------------|
A|-----8----8---------8----11--|-----------------------6---|-----6----6-------17--18--10--|
E|-----8----8---------8----11--|-----------------------6---|-----6----6---------------7---|


E|-----7-------7----7--------|---------11----------------|------------------------|
B|-----8-------8----8----11--|-----11--11-------11---9---|-----9----9----9----11--|
G|-----8-------8----10---12--|-----12------12---12---8---|-----8----8----8----12--|
D|---------9--------9----13--|-------------13---13---10--|-----10---9----9----13--|
A|-----------------------6---|-----6-------6----6----11--|----------11--------13--|
E|-----------------------6---|-----6------------6----11--|----------11--------11--|


E|-----11--------11----------|---------11------11--------------|--------------------8---|
B|-----11--------11------12--|---------12------12------12--13--|-----13---13---13---10--|
G|-----12----12--12------13--|---------13--------------13--12--|-----12---12---12---11--|
D|-----13----------------13--|-----------------------------13--|-----13---13---13---10--|
A|-----------------------14--|-------------14--------------15--|-----15---15---15---9---|
E|-----------------------16--|-----16--------------16------15--|------------------------|


E|-----8----10---10----------|---------------10---9---|-----9----9----9--------|-------14------------17-17---9---|
B|-----10---10---10------12--|-----12---12---12---10--|-----10---9----9----15--|----15-15---15-15-15-19-19---10--|
G|-----11---11---11------10--|-----10---10---10---9---|-----9----9----9----14--|----14-14---14-14-14-19-19---9---|
D|-----------------------12--|----------12--------7---|----------6---------16--|------------16-16-16---------7---|
A|-----------------------14--|----------14--------7---|----------4---------17--|------------17---------------7---|
E|-----------------------13--|----------13--------5---|----------4---------14--|------------14---------------5---|


E|-----9----9---9--9--9----12--|-----12---24-20------------------7---|-----7----7----7----8---|
B|-----10---9---9--9--9----13--|-13--13---------20---------------8---|-----8----8----8----10--|
G|-----9----9---9--9--9----12--|-12--12------------21-------21---9---|-----9----9----9----10--|
D|----------6--------------10--|-----10---------------22----22---9---|-----9---------9----3---|
A|----------4--------------10--|-------------------------22-22---7---|-----7--------------3---|
E|----------4------------------|-------------------------------------|--------------------1---|


E|-----10--10--10--10---10---9---|-----9----9----9----10--|-----10---10---10---9---|
B|-----10--10--10--10---10---9---|-----9----9----9----11--|-----11---11---11---9---|
G|-----10--10--10--10---10---10--|-----10---10---10---10--|-----10---10---10---10--|
D|-----------------12---12-------|---------------11-------|----------12---12-------|
A|-----------------12--------11--|-----11-------------8---|-----8--------------11--|
E|---------------------------9---|-----9--------------6---|-----6--------------9---|


E|-----9----9----9--------|-------------7----7--------|----------3----3--------|----------------|
B|-9---9----9----9----5---|-----5-------9----9----3---|-----3----3----3--------|----------------|
G|-10--10---10---10---4---|-----4---8---9----9----4---|-----4----4----4----5---|------------6---|
D|---------------11---6---|-----6-----------------5---|-----5----5----5----3---|------------6---|
A|-----11-------------7---|-----7-------7----7----5---|-----5----5----5----3---|------------4---|
E|-----9--------------7---|-----7-------7----7----3---|-----3----3----3----1---|------------4---|


E|----------------|----------------|---------------------|----------------|----------------|
B|----------------|----------------|-----------------6---|----------------|----------------|
G|------------7---|------------3---|-------3----3----5---|----------------|----------------|
D|------------7---|------------3---|-------3----3----3---|----------------|----------------|
A|------------5---|------------1---|-------1----1----3---|----------------|----------------|
E|------------5---|------------1---|-------1----1--------|----------------|----------------|


E|----------------|----------------|----------------|----------------|
B|----------------|----------------|----------------|----------------|
G|----------------|----------------|----------------|----------------|
D|----------------|----------------|----------------|----------------|
A|----------------|----------------|----------------|----------------|
E|----------------|----------------|----------------|-----1----------|





Track 4: Bass_Myung

B|--------|------------|----------------|------------------|----------------|------------------|
G|--------|------------|----------------|------------------|----------------|------------------|
D|--------|------------|----------------|------------------|----------------|------------------|
A|--------|------------|------------3---|--------3--3--1---|----------------|------------------|
E|-1------|-1------1---|----------------|------------------|------------1---|--------1--1--3---|
B|--------|------------|----------------|------------------|----------------|------------------|


B|------------------|------------------|------------------------|-----------------|
G|------------------|------------------|------------------------|-----------------|
D|------------------|------------------|------------------------|-----------------|
A|------------------|------------------|----------7-----7---8---|-------6-----5---|
E|--------3--3--4---|--------4--4--0---|------0-----------------|-----------------|
B|------------------|------------------|------------------------|-----------------|


B|------------------|------------------------|------------------------|-------------------------------|
G|------------------|------------------------|------------------------|-------------------------------|
D|------------------|------------------------|------------------------|-------------------------------|
A|--------5--5------|------------------------|----------7----3----5---|---------5--5---5--5--5----4---|
E|--------------1---|------1---4-----4---0---|------0-----------------|-------------------------------|
B|------------------|------------------------|------------------------|-------------------------------|


B|-----------------------------------------|-------------------------------------|
G|-----------------------------------------|-------------------------------------|
D|-----------------------------------------|-------------------------------------|
A|----4--4----4--4---4--4--4--4--4--4--3---|----3--3----3--3---3--3--3---3---2---|
E|-----------------------------------------|-------------------------------------|
B|-----------------------------------------|-------------------------------------|


B|---------------------------|---------------------------|---------------------------------|
G|---------------------------|---------------------------|---------------------------------|
D|---------------------------|---------------------------|---------------------------------|
A|-----2----2----2---2---1---|-----1----1----1---1---3---|-3---3---3---3---3---3---3---5---|
E|---------------------------|---------------------------|---------------------------------|
B|---------------------------|---------------------------|---------------------------------|


B|---------------------|---------------------|--------------------------------|----------------------|
G|---------------------|---------------------|--------------------------------|----------------------|
D|---------------------|---------------------|--------------------------------|----------------------|
A|-------5----5----4---|-------4----4----3---|----3--3----3--3----3---3---2---|----2--2----2-----1---|
E|---------------------|---------------------|--------------------------------|----------------------|
B|---------------------|---------------------|--------------------------------|----------------------|


B|--------------------|---------------------------------|------------------------------|
G|--------------------|---------------------------------|------------------------------|
D|--------------------|---------------------------------|------------------------------|
A|-----------1----3---|-3---3---3---3---3---3---3---3---|-3---3---3---3---3---3--------|
E|--------------------|---------------------------------|--------------------------1---|
B|--------------------|---------------------------------|------------------------------|


B|----------------------------------|----------------------------------|----------------------------------|
G|----------------------------------|----------------------------------|----------------------------------|
D|----------------------------------|----------------------------------|----------------------------------|
A|------------------------------4---|----4--4----4--4---4--4--4--------|----------------------------------|
E|----1--1----1--1---1--1--1--------|------------------------------1---|----1--1----1--1---1--1--1----4---|
B|----------------------------------|----------------------------------|----------------------------------|


B|----------------------------------|--------------------------------|------------------------|
G|----------------------------------|--------------------------------|------------------------|
D|----------------------------------|--------------------------------|------------------------|
A|----------------------------------|--------------------------------|------------------------|
E|----4--4----4--4---4--4--4----6---|-----6----6--6---6--6--6----6---|-----6----6----6----6---|
B|----------------------------------|--------------------------------|------------------------|


B|---------------------|--------------------------------|------------------------------|
G|---------------------|--------------------------------|------------------------------|
D|---------------------|--------------------------------|------------------------------|
A|---------------------|--------------------------------|------------------------------|
E|-------6----6----4---|----4--4---4---4----4--4----3---|-3---3----3--3----3--3----4---|
B|---------------------|--------------------------------|------------------------------|


B|----------------|--------------------------|----------------------------|-----------------------------|
G|----------------|--------------------------|----------------------------|-----------------------------|
D|----------------|--------------------------|----------------------------|-----------------------------|
A|----------------|--------------------------|------------------------2---|------2---2---2--2--2--------|
E|------------3---|------3--3--3---3-----2---|------2---2----2---2--------|-------------------------0---|
B|----------------|--------------------------|----------------------------|-----------------------------|


B|-----------------------------------|--------------------------------|-------------------------------------|
G|-----------------------------------|--------------------------------|-------------------------------------|
D|-----------------------------------|--------------------------------|-------------------------------------|
A|-----------------------------------|--------------------------------|-------------------------------------|
E|----0--0---0-----------------------|----------------------------0---|----0--0---0-------------------------|
B|---------------2----2--2---2---3---|----3--3---3---3----3--3--------|---------------2----2--2---2--2--1---|


B|-------------------------------|----------------------------------|---------------------------------------|
G|-------------------------------|----------------------------------|---------------------------------------|
D|-------------------------------|----------------------------------|---------------------------------------|
A|-------------------------------|----------------------------------|-----------------5---5--5--5---5---4---|
E|---------------------------0---|-0--0--0---0--0--0----0---0---1---|----1--1---1--1------------------------|
B|-1--1--1---1--1--1----1--------|----------------------------------|---------------------------------------|


B|---------------------------------------|---------------------------------------|
G|---------------------------------------|---------------------------------------|
D|---------------------------------------|---------------------------------------|
A|-4--4--4---4---4--4--4--4--4---4---1---|----1--1---1--1--1---1--1--1---1---4---|
E|---------------------------------------|---------------------------------------|
B|---------------------------------------|---------------------------------------|


B|-------------------------------------|--------------------------------|--------------------------------|
G|-------------------------------------|--------------------------------|--------------------------------|
D|-------------------------------------|--------------------------------|--------------------------------|
A|-4--4--4---4---4---4--4--4---4-------|--------------------------------|--------------------------------|
E|---------------------------------0---|-0--0--0---0---0----0---0---3---|-3--3--3---3---3----3---3---1---|
B|-------------------------------------|--------------------------------|--------------------------------|


B|----------------|----------------|----------------|---------------------|----------------|
G|----------------|----------------|----------------|---------------------|----------------|
D|----------------|----------------|----------------|---------------------|----------------|
A|----------------|----------------|------------1---|-------1----1--------|----------------|
E|----------------|----------------|----------------|-----------------1---|------------1---|
B|------------2---|------------3---|----------------|---------------------|----------------|


B|----------------|----------------|----------------|----------------|--------|
G|----------------|----------------|----------------|----------------|--------|
D|----------------|----------------|----------------|----------------|--------|
A|----------------|----------------|----------------|----------------|--------|
E|------------1---|------------1---|------------1---|------------1---|--------|
B|----------------|----------------|----------------|----------------|--------|





Track 5: Orchestra Group

E|--------|------------|-----13--15--16--15--13------11--|----------------|---------11--15--13--11----------|
B|--------|------------|-13----------------------13------|------------14--|-13--14------------------11------|
G|--------|------------|-----10--12--13--12--10------8---|----------------|---------8---12--10--8-------12--|
D|--------|------------|-10----------------------10------|------------11--|-10--11------------------8-------|
A|--------|------------|---------------------------------|----------------|-----------------------------10--|
E|--------|------------|---------------------------------|----------------|---------------------------------|


E|---------------11--11--|----------------11------|----------------|------------------------|
B|-----------------------|------11--11--------14--|-13--13-----13--|-----11-----------------|
G|-----13----13--8---8---|----------------8-------|----------------|----------13---12---12--|
D|-----------------------|------8---8---------11--|-10--10-----10--|-----8------------------|
A|-----11----11----------|------------------------|----------------|----------11---10---10--|
E|-----------------------|------------------------|----------------|------------------------|


E|-----------------------|-----------------------|------------------------|-----------13--15--17--|
B|-----------------------|-------------------12--|--------------------13--|-----------------------|
G|-----13----10--12--13--|-----------12--13------|-------13---12----------|-----------10--12--14--|
D|-----------------------|-------------------9---|--------------------10--|-----------------------|
A|-----11----8---10--11--|-----------10--11------|-------11---10----------|-----------8---10--12--|
E|-----------------------|-----------------------|------------------------|-----------------------|


E|-------13--1313--12---13--|------------13--|-------14---16---13--|-------14---16------18--|
B|--------------------------|----------------|---------------------|------------------------|
G|-------10--1010--9----10--|------------10--|-------11---13---10--|-------11---13------15--|
D|-----------1719--19-------|----------------|---------------------|------------------------|
A|----------------------16--|----------------|---------------------|--------------------13--|
E|-------13-----------------|----------------|---------------------|------------------------|


E|-------1818181818--18----------|-----------13--15--17--|-------13---12------13--|
B|---------------------------13--|-----------------------|------------------------|
G|-------1515151515--15------12--|-----------10--12--14--|-------10---9-------10--|
D|-------8-10111315--11------10--|-------------------12--|--------------------11--|
A|-------------------------------|-----------------------|------------------------|
E|-------------------------------|-----------13--12--10--|------------------------|


E|-----------------------13--|-------14---16------13--|-------14------16--------18--|
B|---------------------------|------------------------|-----------------------------|
G|-----------------------10--|-------11---13------10--|-------11------13--------15--|
D|-------17--15--------------|------------------------|---------------15-13-11------|
A|---------------16----------|--------------------9---|---------------11-11-11--13--|
E|-----------------------8---|------------------------|-----------------------------|


E|------------15--|------------20-13-|-15-16-15-13-15-12-8--12-20-15-12-15-24-20-2520----|
B|----------------|------------------|-------------------8--13-20-17-17-20-29-25-----2120|
G|----------------|------------17----|-------------------17------------------------------|
D|------------17--|------------17----|-------------------------------------------15------|
A|------------15--|------------15----|---------------------------------------------------|
E|----------------|------------------|-------------------------------------------16------|


E|--------------------------------|---------------------------------|---------------------15--13--11--|
B|-18-----------------------------|-------------16------14----------|---------------------------------|
G|-----10------13--------12---13--|-13--13--13------------------13--|-13--13--13--12--10--12--10--8---|
D|-15--15--15--15--10-13-15---14--|-14--14--14--14--14--14--14--15--|-15--15--15----------------------|
A|-------------15--15-15-15-------|---------------------------------|-------------15--------------10--|
E|-16--16--16---------------------|---------------------------------|---------------------------------|


E|----------------|---------------10--11------|-----13-----------13--16------|---------------15--18------|
B|------------11--|---------------------------|--------------------------8---|-------8---16--------------|
G|----------------|-------8---12--7---8---10--|-----10---13--10--10--13------|---------------12--15------|
D|------------8---|-----------------------9---|--------------------------5---|-----------13----------10--|
A|------------10--|-------10--13--------------|----------11--8---8---11------|-------13--------------11--|
E|----------------|---------------------------|------------------------------|---------------------------|


E|---------------------16--19--18--|--------------------------13--|-----------------------15--|
B|-----------------18--------------|------------------------------|---------------------------|
G|-------------13------13--16--15--|--------------------------10--|-----------------------12--|
D|-10--10--10--9---15--------------|-----13-------13--15--17------|-----------13--15--18------|
A|---------------------------------|----------13--------------14--|-------14--------------15--|
E|-------------13--------------11--|-----11-----------------------|---------------------------|


E|--------------------------17--|-----14-15-17-14-------14-15-17-14----------------|
B|------------------------------|-----------------15----------------15-------------|
G|------------------------------|--------------------14-11-12-14-11-7--14----------|
D|-----13---12--13--17--22--24--|-----24----24----24-24-24-24-24-24-24-24-24-------|
A|------------------------------|--------------------------------------12------17--|
E|------------------------------|----------------------------------------------19--|


E|---------------10---12--|-----------------12--|-------10---10--9---10--12--|-------12--------12-14-|
B|------------------------|---------------------|----------------------------|-----------------------|
G|---------------7----9---|-----------------9---|-------7----7---6---7---9---|-------9---------9--11-|
D|-------21------17-------|-------11--------12--|-------7----7-----------14--|-----------11----------|
A|-------17------17---12--|---------------------|-------9----9---12--14--12--|-------12--12----10----|
E|-------19------19-------|---------------------|------------------------12--|-----------------------|


E|-15----20-15-------------15---15--|---------------19-15-12-7------------|-------22-25-22------------------22-25-22--------13--|
B|-------------17-------------------|---------------------------8--5--18--|----23----------23-----18-----23----------23---------|
G|-12-------------17-------12---12--|-------------------------------------|-22----------------22------22----------------22--10--|
D|-------------------17-14-17---17--|-------17--19--21--------------------|-----------------------15----------------------------|
A|----------------------------------|---------------------------------13--|-----------------------12------------------------11--|
E|-------12-------14-------15---15--|-------15--17--19--------------------|-----------------------------------------------------|


E|-15--16-------------|-------22-25-22------------------22-25-22------------|-------21-25-21------------------21-25-21------------|
B|----------------18--|----23----------23-----18-----23----------23-----18--|----21----------21-----18-----21----------21---------|
G|-12--13-------------|-22----------------22------22----------------22------|-22----------------22------22----------------22------|
D|----------23----22--|----------20-------------------------------------15--|-17-------13-----------18------------------------18--|
A|--------------------|-------------------------------------------------13--|-13-------13-------------------------------------14--|
E|--------------------|-----------------------------------------------------|-----------------------------------------------------|


E|-------16-19-16---------------19-24-19------------|-------19-22-19----------------------------19-22---20--|
B|----17----------17---------21----------17---------|----20----------20----------------------20-------------|
G|-16----------------16---21----------------16--16--|-19----------------19----------------19------------17--|
D|--------------------------------------------------|----------------------21-17-12-17-21-------------------|
A|----------------------------------------------14--|-16-------17----------------17-17-17----------17---15--|
E|--------------------------------------------------|-------------------------------------------------------|


E|-----17---15--13---20--20--|-----16---15---13--20--20--|-----17---15--13---15--15--|
B|---------------------------|---------------------------|---------------------------|
G|-----14---12--10---17--17--|-----13---12---10--17--17--|-----14---12--10---12--12--|
D|---------------------------|---------------------------|---------------------------|
A|-----12---10--8----15--15--|-----11---10---8---15--15--|-----12---10--8----10--10--|
E|---------------------------|---------------------------|---------------------------|


E|-----13--15--16--18--20--21--25--|--------------------25--|----------------25--|
B|---------------------------------|------------------------|--------------------|
G|-----10--12--13--15--17--18--22--|--------------------22--|----------------22--|
D|-----------------------------22--|-------22--15-------23--|------20----22--22--|
A|-----8---10--11--13--15--16------|------------------------|--------------------|
E|---------------------------------|------------------------|--------------------|


E|------------25--|------------25--|------------25--|--------|
B|----------------|----------------|----------------|--------|
G|------------22--|------------22--|------------22--|--------|
D|------------22--|------------22--|------------22--|--------|
A|----------------|----------------|----------------|--------|
E|----------------|----------------|----------------|--------|