Menu:

 

Search:

 

dream theater - octavarium iv intervals:

 



Title: Octacarium: IV. Intervals
Artist: 
Album: Octavarium
Author: Dream Theater


Track 1: Dist. Gtr._Petrucci

E|------------|-------------|-----------------|-------------|--------------|-------------|
B|------------|-------------|-----------------|-------------|--------------|-------------|
G|------------|-------------|-----------------|-------------|--------------|-------------|
D|-3------3---|--------3----|-----------3-----|-------3-----|-------3------|------3------|
A|------------|-------------|-----------------|-------------|--------------|-------------|
E|-1------1---|--------1----|-----------1-----|-------1-----|-------1------|------1------|


E|------------|-----------------------------------------|-----------------------------------------|
B|------------|-----------------------------------------|-----------------------------------------|
G|------------|-----------------------------------------|-----------------------------------------|
D|-----3------|-3--3--3--3--3--3--3-------3-------3--3--|-3--3--3--3--3-------3-------3--3--3--3--|
A|------------|-----------------------------------------|-----------------------------------------|
E|-----1------|-----------------------------------------|-----------------------------------------|


E|-----------------------------------------|---------------------------------------|
B|-----------------------------------------|---------------------------------------|
G|-----------------------------------------|---------------------------------------|
D|-3--3--3-------3-------3--3--3--3--3--3--|-3-------3-------3--3--3--3--3--3--3---|
A|-----------------------------------------|---------------------------------------|
E|-----------------------------------------|---------------------------------------|


E|---------------------------------------|---------------------------------------|
B|---------------------------------------|---------------------------------------|
G|---------------------------------------|---------------------------------------|
D|-----3-------3--3--3--3--3--3--3-------|-3-------3--3--3--3--3--3--3-------3---|
A|---------------------------------------|---------------------------------------|
E|---------------------------------------|---------------------------------------|


E|---------------------------------------|-----------------------------------------|
B|---------------------------------------|-----------------------------------------|
G|---------------------------------------|-----------------------------------------|
D|-----3--3--3--3--3--3--3-------3-------|-3--3--3--3--3--3--3-------3-------3--3--|
A|---------------------------------------|-----------------------------------------|
E|---------------------------------------|-----------------------------------------|


E|-----------------------------------------|-----------------------------------------|
B|-----------------------------------------|-----------------------------------------|
G|-----------------------------------------|-----------------------------------------|
D|-3--3--3--3--3-------3-------3--3--3--3--|-3--3--3-------3-------3--3--3--3--3--3--|
A|-----------------------------------------|-----------------------------------------|
E|-----------------------------------------|-----------------------------------------|


E|---------------------------------------|---------------------------------------|
B|---------------------------------------|---------------------------------------|
G|---------------------------------------|---------------------------------------|
D|-3-------3-------3--3--3--3--3--3--3---|-----3-------3--3--3--3--3--3--3-------|
A|---------------------------------------|---------------------------------------|
E|---------------------------------------|---------------------------------------|


E|---------------------------------------|---------------------------------------|
B|---------------------------------------|---------------------------------------|
G|---------------------------------------|---------------------------------------|
D|-3-------3--3--3--3--3--3--3-------3---|-----3--3--3--3--3--3--3-------3-------|
A|---------------------------------------|---------------------------------------|
E|---------------------------------------|---------------------------------------|


E|-----------------------------------------|-----------------------------------------|
B|-----------------------------------------|-----------------------------------------|
G|-----------------------------------------|-----------------------------------------|
D|-------------------3-------3-------------|-------------3-------3-------------------|
A|-----------------------------------------|-----------------------------------------|
E|-1--1--1--1--1--1------1-------1---1--1--|-1--1--1--1------1-------1---1--1--1--1--|


E|-----------------------------------------|---------------------------------------|
B|-----------------------------------------|---------------------------------------|
G|-----------------------------------------|---------------------------------------|
D|-------3-------3-------------------------|-3-------3-------------------------3---|
A|-----------------------------------------|---------------------------------------|
E|-1--1------1-------1---1--1--1--1--1--1--|-----1-------1---1--1--1--1--1--1------|


E|---------------------------------------|---------------------------------------|
B|---------------------------------------|---------------------------------------|
G|---------------------------------------|---------------------------------------|
D|-----3-------------------------3-------|-3-------------------------3-------3---|
A|---------------------------------------|---------------------------------------|
E|-1-------1---1--1--1--1--1--1------1---|-----1---1--1--1--1--1--1------1-------|


E|---------------------------------------|-----------------------------------------|
B|---------------------------------------|-----------------------------------------|
G|---------------------------------------|-----------------------------------------|
D|-----------------------3-------3-------|-3--3--3--3--3--3--3-------3-------3--3--|
A|---------------------------------------|-3--3--3--3--3--3--3-------3-------3--3--|
E|-1---1--1--1--1--1--1------1-------1---|-1--1--1--1--1--1--1-------1-------1--1--|


E|-----------------------------------------|-----------------------------------------|
B|-----------------------------------------|-----------------------------------------|
G|-----------------------------------------|-----------------------------------------|
D|-3--3--3--3--3-------3-------3--3--3--3--|-3--3--3-------3-------3--3--3--3--3--3--|
A|-3--3--3--3--3-------3-------3--3--3--3--|-3--3--3-------3-------3--3--3--3--3--3--|
E|-1--1--1--1--1-------1-------1--1--1--1--|-1--1--1-------1-------1--1--1--1--1--1--|


E|---------------------------------------|---------------------------------------|
B|-----------------8--8--8--8--8--8--8---|-----8-------10-10-10-10-10-10-10------|
G|-----------------10-10-10-10-10-10-10--|-----10------11-11-11-11-11-11-11------|
D|-3-------3-------10-10-10-10-10-10-10--|-----10------10-10-10-10-10-10-10------|
A|-3-------3-----------------------------|---------------------------------------|
E|-1-------1-----------------------------|---------------------------------------|


E|---------------------------------------|-----13-13-13-13-13-13-13------13------|
B|-10------11-11-11-11-11-11-11------11--|-----13-13-13-13-13-13-13------13------|
G|-11------10-10-10-10-10-10-10------10--|-----10-10-10-10-10-10-10------10------|
D|-10------10-10-10-10-10-10-10------10--|-----10-10-10-10-10-10-10------10------|
A|---------------------------------------|---------------------------------------|
E|---------------------------------------|---------------------------------------|


E|-----------------------------------------|-------------------------------------|
B|-----------------------------------------|-------------------------------------|
G|-----------------------------------------|-------------------------------------|
D|-3--3--3--3--3--3--3-------3-------3--3--|-3--3--3--3--3-------3-------3-------|
A|-3--3--3--3--3--3--3-------3-------3--3--|-3--3--3--3--3-------3-------3-------|
E|-1--1--1--1--1--1--1-------1-------1--1--|-1--1--1--1--1-------1-------1-------|


E|-----------------------------------------|-------------------------------------|
B|-----------------------------------------|-------------------------------------|
G|-----------------------------------------|-------------------------------------|
D|-3--3--3--3--3--3--3-------3-------3--3--|-3--3--3--3--3-------3-------3-------|
A|-3--3--3--3--3--3--3-------3-------3--3--|-3--3--3--3--3-------3-------3-------|
E|-1--1--1--1--1--1--1-------1-------1--1--|-1--1--1--1--1-------1-------1-------|


E|---------------------------------------|---------------------------------------|
B|---------------------------------------|---------------------------------------|
G|---------------------------------------|---------------------------------------|
D|-3---3--3--3--3--3--3--3-------3-------|-3--3--3--3--3--3--3-------3-------3---|
A|-3---3--3--3--3--3--3--3-------3-------|-3--3--3--3--3--3--3-------3-------3---|
E|-1---1--1--1--1--1--1--1-------1-------|-1--1--1--1--1--1--1-------1-------1---|


E|---------------------------------|---------------------------------------|----------------|
B|---------------------------------|---------------------------------------|----------------|
G|---------------------------------|---------------------------------------|----------------|
D|-----3--3--3--3--3--3--3---------|-3--3--3--3--3--3--3-------3-------3---|----------------|
A|-----3--3--3--3--3--3--3---------|-3--3--3--3--3--3--3-------3-------3---|----------------|
E|-----1--1--1--1--1--1--1---------|-1--1--1--1--1--1--1-------1-------1---|----------------|





Track 2: Synth. - Organ_Rudess

E|------------|-------------|-----------------|-------------------------------------5-8---8--8--8--8--8---|
B|-6------6---|--------6----|-----------6-----|-----6-------------------------5-6-8---6---6--6--6--6--6---|
G|-5------5---|--------5----|-----------5-----|-----5-------------------4-5-7---------5---5--5--5--5--5---|
D|------------|-------------|-----------------|-------------------3-5-7-----------------------------------|
A|------------|-------------|-----------------|---------3-2-3-5-7-----------------------------------------|
E|------------|-------------|-----------------|---------1-------------------------------------------------|


E|-8---8-----------------------8---8--8--8--8--8-------|-8-------------------------8---8--8--8--8--8-------8---|
B|-6---6-----------------------6---6--6--6--6--6-------|-6-------------------------6---6--6--6--6--6-------6---|
G|-5---5-----------------------5---5--5--5--5--5-------|-5-------------------------5---5--5--5--5--5-------5---|
D|---------------------2-3-5-7-------------------------|-------------------2-3-5-7-----------------------------|
A|---------------2-3-5---------3-----------------------|-------------2-3-5---------3---------------------------|
E|---------1-3-5---------------1-----------------------|-------1-3-5---------------1---------------------------|


E|-----8---8--8--8--8--8-------8----|--------9---|-------------|-----9-----------|
B|-----6---6--6--6--6--6-------6----|-9------11--|--------11---|-----11----13----|
G|-----5---5--5--5--5--5-------5----|-10-----10--|--------12---|-----12----10----|
D|-----3----------------------------|-10-----11--|--------13---|-----11----10----|
A|-----3----------------------------|-8------8---|--------13---|-----10----8-----|
E|-----1----------------------------|------------|--------15---|-----------------|


E|---------------------------------|-------11-----|------9-----11----|-----13-----|
B|-------------------------1013----|-------13-----|------11----11----|-----13-----|
G|-------------------9-1012--10----|-------14-----|------10----10----|-----10-----|
D|-------------9-1012--------10----|-------16-----|------11----------|-----10-----|
A|-------8-1012--------------8-----|-------18-----|------------------|------------|
E|---------------------------------|-------17-----|------------------|------------|


E|--------9---|-------------|-----9-----------|---------------------------------|-------11-----|
B|-9------11--|--------11---|-----11----13----|-------------------------1013----|-------13-----|
G|-10-----10--|--------12---|-----12----10----|-------------------9-1012--10----|-------14-----|
D|-10-----11--|--------13---|-----11----10----|-------------9-1012--------10----|-------16-----|
A|-8------8---|--------13---|-----10----8-----|-------8-1012--------------8-----|-------18-----|
E|------------|--------15---|-----------------|---------------------------------|-------17-----|


E|------9-----11----|-----13-----|--------9---|-------------|-----9-----11--13----|
B|------11----11----|-----13-----|-9------11--|--------11---|-----11----11--13----|
G|------10----10----|-----10-----|-10-----10--|--------12---|-----12----10--10----|
D|------11----------|-----10-----|-10-----11--|--------13---|-----11--------10----|
A|------------------|------------|-8------8---|--------13---|---------------------|
E|------------------|------------|------------|--------15---|---------------------|


E|-------13----|--------------|------9-----11----|-----13---------|--------9---|--------9----|
B|-------13----|-------13-----|------11----11----|-----13---------|-13-----11--|--------11---|
G|-------10----|-------14-----|------10----10----|-----10---------|-10-----10--|--------12---|
D|-------10----|-------16-----|------11----------|-----10---------|-10-----11--|--------13---|
A|-------------|-------18-----|------------------|----------------|-8------8---|--------13---|
E|-------------|-------17-----|------------------|----------------|------------|--------15---|


E|-----9-----------|-------------|-------11-----|------9-----11----|-----13-----|-13-13-13-13-13-13-13------13------13-13-|
B|-----11----13----|-------13----|-------13-----|------11----11----|-----13-----|-13-13-13-13-13-13-13------13------13-13-|
G|-----12----10----|-------10----|-------14-----|------10----10----|-----10-----|-10-10-10-10-10-10-10------10------10-10-|
D|-----11----10----|-------10----|-------16-----|------11----13----|-----10-----|-10-10-10-10-10-10-10------10------10-10-|
A|-----10----8-----|-------8-----|-------18-----|------------------|------------|-----------------------------------------|
E|-----------------|-------------|--------------|------------------|------------|-----------------------------------------|


E|-13-13-13-13-13------13------13------|-13-----13-13-13-13-13------13------13-13-|
B|-13-13-13-13-13------13------13------|-13-----13-13-13-13-13------13------13-13-|
G|-10-10-10-10-10------10------10------|-10-----10-10-10-10-10------10------10-10-|
D|-10-10-10-10-10------10------10------|-10-----10-10-10-10-10------10------10-10-|
A|-------------------------------------|------------------------------------------|
E|-------------------------------------|------------------------------------------|


E|-13-13-13-13-13------13------13------|-13--13-13-13-13-13-13-13------13------|-13-13-13-13-13-13-13------13------13--|
B|-13-13-13-13-13------13------13------|-13--13-13-13-13-13-13-13------13------|-13-13-13-13-13-13-13------13------13--|
G|-10-10-10-10-10------10------10------|-10--10-10-10-10-10-10-10------10------|-10-10-10-10-10-10-10------10------10--|
D|-10-10-10-10-10------10------10------|-10--10-10-10-10-10-10-10------10------|-10-10-10-10-10-10-10------10------10--|
A|-------------------------------------|---------------------------------------|---------------------------------------|
E|-------------------------------------|---------------------------------------|---------------------------------------|


E|-----13-13-13-13-13-13-13--------|-13-13-13-13-13-13-13------13------13--|----------------|
B|-----13-13-13-13-13-13-13--------|-13-13-13-13-13-13-13------13------13--|----------------|
G|-----10-10-10-10-10-10-10--------|-10-10-10-10-10-10-10------10------10--|----------------|
D|-----10-10-10-10-10-10-10--------|-10-10-10-10-10-10-10------10------10--|----------------|
A|---------------------------------|---------------------------------------|----------------|
E|---------------------------------|---------------------------------------|----------------|





Track 3: Bass_Myung

B|------------|-------------|-----------------|-------------|--------------|-------------|
G|------------|-------------|-----------------|-------------|--------------|-------------|
D|------------|-------------|-----------------|-------------|--------------|-------------|
A|------------|-------------|-----------------|-------------|--------------|-------------|
E|-1------1---|--------1----|-----------1-----|-------1-----|-------1------|------1------|
B|------------|-------------|-----------------|-------------|--------------|-------------|


B|------------|-----------------------------------------|-----------------------------------------|
G|------------|-----------------------------------------|-----------------------------------------|
D|------------|-----------------------------------------|-----------------------------------------|
A|------------|-----------------------------------------|-----------------------------------------|
E|-----1------|-1--1--1--1--1--1--1-------1-------1--1--|-1--1--1--1--1-------1-------1--1--1--1--|
B|------------|-----------------------------------------|-----------------------------------------|


B|-----------------------------------------|---------------------------------------|
G|-----------------------------------------|---------------------------------------|
D|-----------------------------------------|---------------------------------------|
A|-----------------------------------------|---------------------------------------|
E|-1--1--1-------1-------1--1--1--1--1--1--|-1-------1-------1--1--1--1--1--1--1---|
B|-----------------------------------------|---------------------------------------|


B|---------------------------------------|---------------------------------------|
G|---------------------------------------|---------------------------------------|
D|---------------------------------------|---------------------------------------|
A|---------------------------------------|---------------------------------------|
E|-----1-------1--1--1--1--1--1--1-------|-1-------1--1--1--1--1--1--1-------1---|
B|---------------------------------------|---------------------------------------|


B|---------------------------------------|-----------------------------------------|
G|---------------------------------------|-----------------------------------------|
D|---------------------------------------|-----------------------------------------|
A|---------------------------------------|-----------------------------------------|
E|-----1--1--1--1--1--1--1-------1-------|-1--1--1--1--1--1--1-------1-------1--1--|
B|---------------------------------------|-----------------------------------------|


B|-----------------------------------------|-----------------------------------------|
G|-----------------------------------------|-----------------------------------------|
D|-----------------------------------------|-----------------------------------------|
A|-----------------------------------------|-----------------------------------------|
E|-1--1--1--1--1-------1-------1--1--1--1--|-1--1--1-------1-------1--1--1--1--1--1--|
B|-----------------------------------------|-----------------------------------------|


B|---------------------------------------|---------------------------------------|
G|---------------------------------------|---------------------------------------|
D|---------------------------------------|---------------------------------------|
A|---------------------------------------|---------------------------------------|
E|-1-------1-------1--1--1--1--1--1--1---|-----1-------1--1--1--1--1--1--1-------|
B|---------------------------------------|---------------------------------------|


B|---------------------------------------|---------------------------------------|
G|---------------------------------------|---------------------------------------|
D|---------------------------------------|---------------------------------------|
A|---------------------------------------|---------------------------------------|
E|-1-------1--1--1--1--1--1--1-------1---|-----1--1--1--1--1--1--1-------1-------|
B|---------------------------------------|---------------------------------------|


B|-----------------------------------------|-----------------------------------------|
G|-----------------------------------------|-----------------------------------------|
D|-------------------3-------3-------------|-------------3-------3-------------------|
A|-----------------------------------------|-----------------------------------------|
E|-1--1--1--1--1--1------1-------1---1--1--|-1--1--1--1------1-------1---1--1--1--1--|
B|-----------------------------------------|-----------------------------------------|


B|-----------------------------------------|---------------------------------------|
G|-----------------------------------------|---------------------------------------|
D|-------3-------3-------------------------|-3-------3-------------------------3---|
A|-----------------------------------------|---------------------------------------|
E|-1--1------1-------1---1--1--1--1--1--1--|-----1-------1---1--1--1--1--1--1------|
B|-----------------------------------------|---------------------------------------|


B|---------------------------------------|---------------------------------------|
G|---------------------------------------|---------------------------------------|
D|-----3-------------------------3-------|-3-------------------------3-------3---|
A|---------------------------------------|---------------------------------------|
E|-1-------1---1--1--1--1--1--1------1---|-----1---1--1--1--1--1--1------1-------|
B|---------------------------------------|---------------------------------------|


B|---------------------------------------|-----------------------------------------|
G|---------------------------------------|-----------------------------------------|
D|-----------------------3-------3-------|-----------------------------------------|
A|---------------------------------------|-----------------------------------------|
E|-1---1--1--1--1--1--1------1-------1---|-1--1--1--1--1--1--1-------1-------1--1--|
B|---------------------------------------|-----------------------------------------|


B|-----------------------------------------|-----------------------------------------|
G|-----------------------------------------|-----------------------------------------|
D|-----------------------------------------|-----------------------------------------|
A|-----------------------------------------|-----------------------------------------|
E|-1--1--1--1--1-------1-------1--1--1--1--|-1--1--1-------1-------1--1--1--1--1--1--|
B|-----------------------------------------|-----------------------------------------|


B|---------------------------------------|---------------------------------------|
G|---------------------------------------|---------------------------------------|
D|---------------------------------------|---------------------------------------|
A|---------------------------------------|---------------------------------------|
E|-1-------1-------1--1--1--1--1--1--1---|-----1-------1--1--1--1--1--1--1-------|
B|---------------------------------------|---------------------------------------|


B|---------------------------------------|---------------------------------------|
G|---------------------------------------|---------------------------------------|
D|---------------------------------------|---------------------------------------|
A|---------------------------------------|---------------------------------------|
E|-1-------1--1--1--1--1--1--1-------1---|-----1--1--1--1--1--1--1-------1-------|
B|---------------------------------------|---------------------------------------|


B|-----------------------------------------|-------------------------------------|
G|-----------------------------------------|-------------------------------------|
D|-----------------------------------------|-------------------------------------|
A|-----------------------------------------|-------------------------------------|
E|-1--1--1--1--1--1--1-------1-------1--1--|-1--1--1--1--1-------1-------1-------|
B|-----------------------------------------|-------------------------------------|


B|-----------------------------------------|-------------------------------------|
G|-----------------------------------------|-------------------------------------|
D|-----------------------------------------|-------------------------------------|
A|-----------------------------------------|-------------------------------------|
E|-1--1--1--1--1--1--1-------1-------1--1--|-1--1--1--1--1-------1-------1-------|
B|-----------------------------------------|-------------------------------------|


B|---------------------------------------|---------------------------------------|
G|---------------------------------------|---------------------------------------|
D|---------------------------------------|---------------------------------------|
A|---------------------------------------|---------------------------------------|
E|-1---1--1--1--1--1--1--1-------1-------|-1--1--1--1--1--1--1-------1-------1---|
B|---------------------------------------|---------------------------------------|


B|---------------------------------|---------------------------------------|----------------|
G|---------------------------------|---------------------------------------|----------------|
D|---------------------------------|---------------------------------------|----------------|
A|---------------------------------|---------------------------------------|----------------|
E|-----1--1--1--1--1--1--1---------|-1--1--1--1--1--1--1-------1-------1---|----------------|
B|---------------------------------|---------------------------------------|----------------|





Track 4: Lapsteel Gtr_Rudess

E|--------|--------|--------|--------|--------|--------|--------|--------|--------|
B|--------|--------|--------|--------|--------|--------|--------|--------|--------|
G|--------|--------|--------|--------|--------|--------|--------|--------|--------|
D|--------|--------|--------|--------|--------|--------|--------|--------|--------|
A|--------|--------|--------|--------|--------|--------|--------|--------|--------|
E|--------|--------|--------|--------|--------|--------|--------|--------|--------|


E|--------|--------|--------|--------|--------|--------|--------|--------|--------|
B|--------|--------|--------|--------|--------|--------|--------|--------|--------|
G|--------|--------|--------|--------|--------|--------|--------|--------|--------|
D|--------|--------|--------|--------|--------|--------|--------|--------|--------|
A|--------|--------|--------|--------|--------|--------|--------|--------|--------|
E|--------|--------|--------|--------|--------|--------|--------|--------|--------|


E|--------|--------|--------|--------|--------|--------|--------|--------|--------|
B|--------|--------|--------|--------|--------|--------|--------|--------|--------|
G|--------|--------|--------|--------|--------|--------|--------|--------|--------|
D|--------|--------|--------|--------|--------|--------|--------|--------|--------|
A|--------|--------|--------|--------|--------|--------|--------|--------|--------|
E|--------|--------|--------|--------|--------|--------|--------|--------|--------|


E|--------|--------|--------|--------|-------------|--------------|-------------|------------|
B|--------|--------|--------|--------|-------------|--------------|-------------|------------|
G|--------|--------|--------|--------|-------------|--------------|-------------|------------|
D|--------|--------|--------|--------|-------------|--------------|-------------|------------|
A|--------|--------|--------|--------|-------------|--------------|-------------|------------|
E|--------|--------|--------|--------|-------------|--------------|-------------|------------|


E|------------|---------------------|---------------------|--------------------|----------------|
B|------------|-----------6----13---|-13---10----8----8---|-----6----6---13----|-13--13--10-----|
G|------------|---------------------|---------------------|--------------------|----------------|
D|------------|---------------------|---------------------|--------------------|----------------|
A|------------|---------------------|---------------------|--------------------|----------------|
E|------------|---------------------|---------------------|--------------------|----------------|


E|--------|--------|--------|--------|
B|--------|--------|--------|--------|
G|--------|--------|--------|--------|
D|--------|--------|--------|--------|
A|--------|--------|--------|--------|
E|--------|--------|--------|--------|