Menu:

 

Search:

 

dream theater - octavarium iii full circle:

 



Title: Octavarium: III. Full Circle
Artist: 
Album: Octavarium
Author: Dream Theater


Track 1: Dist. Gtr._Petrucci

E|--------|--------|--------|-------------|--------|--------|--------|-----------------------------|
B|--------|--------|--------|-------------|--------|--------|--------|-----------------------------|
G|--------|--------|--------|-------------|--------|-4------|--------|-----------------------------|
D|--------|--------|--------|-------------|--------|--------|--------|-----------------------------|
A|-7------|-7------|-7------|-2-----------|-7------|-2------|--------|-5----4----2-----------------|
E|-0------|-0------|-0------|--------16---|-0------|--------|-0------|----------------5----4---2---|


E|-------------------------------------|-------------------------------------|-------------------------------------|
B|-------------------------------------|-------------------------------------|-------------------------------------|
G|-------------------------------------|-------------------------------------|-------------------------------------|
D|-----------2----2--------2--2--------|-----------2----2--------2--2--------|-----------2----2--------2--2--------|
A|-------------------------------------|-------------------------------------|-------------------------------------|
E|-0----0------------0--0--------0--0--|-0----0------------0--0--------0--0--|-0----0------------0--0--------0--0--|


E|-------------------------------------|-------------------------------------|-------------------------------------|
B|-------------------------------------|-------------------------------------|-------------------------------------|
G|-----------4-------------4--4--------|-------------------------------------|-----------4-------------4--4--------|
D|-------------------------------------|-----------2----2--------2--2--------|-------------------------------------|
A|-2----2---------2--2--2--------2--2--|-------------------------------------|-2----2---------2--2--2--------2--2--|
E|-------------------------------------|-0----0------------0--0--------0--0--|-------------------------------------|


E|-------------------------------------|-----------------------------|-----------------------------------------|
B|-------------------------------------|-----------------------------|-----------------------------------------|
G|-------------------------------------|-----------------------------|-----------------------------------------|
D|-----------2----2--------2--2--------|-----------------------------|-----------------------------------------|
A|-------------------------------------|-5----4----2-------------2---|-4---4--4---4--4----4--4--4--4--4--4--4--|
E|-0----0------------0--0--------0--0--|----------------5----4-------|-----------------------------------------|


E|-------------------------------------------------|-----------------------------------------|
B|-------------------------------------------------|-----------------------------------------|
G|-------------------------------------------------|-----------------------------------------|
D|-------------------------------------------------|-----------------------------------------|
A|-3--3--3--3--3--3--3--3--3--3--3--3--3--3--3--3--|-4---4--4---4--4----4--4--4--4--4--4--4--|
E|-------------------------------------------------|-----------------------------------------|


E|-----------------------------------------|-------------------------------------|
B|-----------------------------------------|-------------------------------------|
G|-----------------------------------------|-------------------------------------|
D|-----------------------------------------|-----------2----2--------2--2--------|
A|-----------------------------------------|-------------------------------------|
E|-5---5--5---5--5----5--5--5--5--5--5--5--|-0----0------------0--0--------0--0--|


E|-----------------------------|-------------------------------------|-----------------------------|
B|-----------------------------|-------------------------------------|-----------------------------|
G|-----------------------------|-------------------------------------|-----------------------------|
D|-----------------------------|-----------2----2--------2--2--------|-----------------------------|
A|-5----4----2-----------------|-------------------------------------|-5----4----2-------------2---|
E|----------------5----4---2---|-0----0------------0--0--------0--0--|----------------5----4-------|


E|-------------------------------------|-----------------------------|-------------------------------------|
B|-------------------------------------|-----------------------------|-------------------------------------|
G|-------------------------------------|-----------------------------|-------------------------------------|
D|-----------2----2--------2--2--------|-----------------------------|-----------2----2--------2--2--------|
A|-------------------------------------|-5----4----2-----------------|-------------------------------------|
E|-0----0------------0--0--------0--0--|----------------5----4---2---|-0----0------------0--0--------0--0--|


E|-----------------------------|-----------------------------------------|-------------------------------------------------|
B|-----------------------------|-----------------------------------------|-------------------------------------------------|
G|-----------------------------|-----------------------------------------|-------------------------------------------------|
D|-----------------------------|-----------------------------------------|-------------------------------------------------|
A|-5----4----2-------------2---|-4---4--4---4--4----4--4--4--4--4--4--4--|-3--3--3--3--3--3--3--3--3--3--3--3--3--3--3--3--|
E|----------------5----4-------|-----------------------------------------|-------------------------------------------------|


E|-----------------------------------------|-----------------------------------------|
B|-----------------------------------------|-----------------------------------------|
G|-----------------------------------------|-----------------------------------------|
D|-----------------------------------------|-----------------------------------------|
A|-4---4--4---4--4----4--4--4--4--4--4--4--|-----------------------------------------|
E|-----------------------------------------|-5---5--5---5--5----5--5--5--5--5--5--5--|


E|-----------------------------------------|-------------------------------------------------|
B|-----------------------------------------|-------------------------------------------------|
G|-----------------------------------------|-------------------------------------------------|
D|-----------------------------------------|-------------------------------------------------|
A|-4---4--4---4--4----4--4--4--4--4--4--4--|-3--3--3--3--3--3--3--3--3--3--3--3--3--3--3--3--|
E|-----------------------------------------|-------------------------------------------------|


E|-----------------------------------------|-------------------------------------------------|
B|-----------------------------------------|-------------------------------------------------|
G|-----------------------------------------|-------------------------------------------------|
D|-----------------------------------------|-------------------------------------------------|
A|-4---4--4---4--4----4--4--4--4--4--4--4--|-------------------------------------------------|
E|-----------------------------------------|-5--5--5--5--5--5--5--5--5--5--5--5--5--5--5--5--|


E|---------------------------------|-------------------------------------|-----------------------------------|
B|---------------------------------|-------------------------------------|-----------------------------------|
G|---------------------------------|-------------------------------------|-----------------------------------|
D|---------------------------------|---------------------2---2--2--2--2--|-------------2---2--2--------------|
A|---------------------------------|-------------------------------------|-----------------------4----4---4--|
E|-4----4---4--3---3---2----2---2--|-1---1---0----0---0------------------|-0----0---0------------------------|


E|---------------------------------|-----------------------------------------|-----------------------------------------|
B|---------------------------------|-----------------------------------------|-----------------------------------------|
G|---------------------------------|-----------------------------------------|-----------------------------------------|
D|---------------------------------|-----------7--7--7--7--7--7--------------|-7---7-----------------------------------|
A|-3---3---2----2---2--1---1---0---|----0---0--------------------0----0---0--|-----------------------------------------|
E|---------------------------------|-----------------------------------------|---------4---4--4--4--4--3---3--3--3--3--|


E|--------------------------------------|---------------------------------------|---------------------------------|
B|--------------------------------------|---------------------------------------|---------------------------------|
G|--------------------------------------|---------------------------------------|---------------------------------|
D|--------------------------------------|-1---1--1--0---0--0--------------------|---------------------------------|
A|--------------------------------------|---------------------4---4--4--3----2--|-----1----0----------------------|
E|-2---2--2--2--2--1---1--1--1--1--0----|---------------------------------------|---------------4---3---2---1--1--|


E|-----------------------------------------|-----------------------------------------|
B|-----------------------------------------|-----------------------------------------|
G|-----------------------------------------|-----------------------------------------|
D|-------------3-------3-------------------|-------3-------3-------------------------|
A|-----------------------------------------|-----------------------------------------|
E|-1--1--1--1------1-------1---1--1--1--1--|-1--1------1-------1---1--1--1--1--1--1--|


E|---------------------------------------|---------------------------------------|
B|---------------------------------------|---------------------------------------|
G|---------------------------------------|---------------------------------------|
D|-3-------3-------------------------3---|-----3-------------------------3-------|
A|---------------------------------------|---------------------------------------|
E|-----1-------1---1--1--1--1--1--1------|-1-------1---1--1--1--1--1--1------1---|


E|---------------------------------------|---------------------------------------|
B|---------------------------------------|---------------------------------------|
G|---------------------------------------|---------------------------------------|
D|-3-------------------------3-------3---|-----------------------3-------3-------|
A|---------------------------------------|---------------------------------------|
E|-----1---1--1--1--1--1--1------1-------|-1---1--1--1--1--1--1------1-------1---|


E|-----------------------------------------|-----------------------------------------|
B|-----------------------------------------|-----------------------------------------|
G|-----------------------------------------|-----------------------------------------|
D|-------------------3-------3-------------|-------------3-------3-------------------|
A|-----------------------------------------|-----------------------------------------|
E|-1--1--1--1--1--1------1-------1---1--1--|-1--1--1--1------1-------1---1--1--1--1--|


E|-----------------------------------------|-----------------------------------|---------------------------------------|
B|-----------------------------------------|-----------------------------------|---------------------------------------|
G|-----------------------------------------|-----------------------------------|---------------------------------------|
D|-------3-------3-------------------------|-3-------3---------------------3---|-3--3---3------------------3-------3---|
A|-----------------------------------------|-----------------------------------|---------------------------------------|
E|-1--1------1-------1---1--1--1--1--1--1--|-----1-------1---1---1--1---1------|-----------1---1--1--1--1------1-------|


E|---------------------------------------|-----------------------------------------|
B|---------------------------------------|-----------------------------------------|
G|---------------------------------------|-----------------------------------------|
D|-----------------------3-------3-------|-------------------3-------3-------8-----|
A|---------------------------------------|--------------------------------------8--|
E|-1---1--1--1--1--1--1------1-------1---|-1--1--1--1--1--1------1-------1---------|


E|-------------------------------------------------|---------------------------------------|
B|-------------------------------------------------|---------------------------------------|
G|-------------------------------------------------|---------------------------------------|
D|----8--------6-----------------------------------|-3-------3-------------------------3---|
A|-------8--------6-----6--------------------------|---------------------------------------|
E|-6--------6--------3-----6--3--1--1--1--1--1--1--|-----1-------1---1--1--1--1--1--1------|


E|---------------------------------------|-------------------------------------|---------------------------------------|
B|---------------------------------------|-------------------------------------|---------------------------------------|
G|---------------------------------------|-------------------------------------|---------------------------------------|
D|-----3-------------------------3-------|-3---------------------3---3--3---3--|-----------------3-------3-------------|
A|---------------------------------------|-------------------------------------|---------------------------------------|
E|-1-------1---1--1--1--1--1--1------1---|-----1---1---1--1---1----------------|-1---1--1--1--1------1-------1---1--1--|


E|-----------------------------------------|-----------------------------------------|
B|-----------------------------------------|-----------------------------------------|
G|-----------------------------------------|-----------------------------------------|
D|-------------3-------3-------------------|-------3-------3-------------3--------5--|
A|-----------------------------------------|--------------------------4--------6-----|
E|-1--1--1--1------1-------1---1--1--1--1--|-1--1------1-------1---6--------8--------|


E|---------------------------------------|-------------------------------|-----------------------------|
B|---------------------------------------|-------------------------------|-----------------------------|
G|---------------------------------------|-------------------------------|-----------------------------|
D|-------8--------8--------------8-------|-------------8----8------------|-------3-----------------3---|
A|----8--------10--------------------8---|-------------------------------|-----------------------------|
E|-9--------11-------6----6---6----------|-6----6---6------------1----1--|----1--------1----1---1------|


E|---------------------------------|---------------------------------|------------------------------|
B|---------------------------------|---------------------------------|------------------------------|
G|---------------------------------|---------------------------------|------------------------------|
D|-----------------8---------------|-------8----8----------------3---|------------------3-----------|
A|-3-------------------8-----------|---------------------------------|----------------------3-------|
E|-----6----6---6----------6----6--|----6------------1----1---1------|------1----1---1----------6---|


E|-----------------------------------|--------------------------------|-------------------------------------|
B|-----------------------------------|--------------------------------|-------------------------------------|
G|-----------------------------------|--------------------------------|-------------------------------------|
D|-----------8-------------------5---|-----5------------------3-------|---------------3---------------------|
A|---------------8---------------3---|-----3----------------------3---|-------------------3-----------------|
E|----6---6----------1----1---1------|----------1--1---1---1----------|-1--1---1---1----------1--1---1---1--|


E|-----------------------------|-------------------------------------|-------------------------------------|
B|-----------------------------|-------------------------------------|-------------------------------------|
G|-----------------------------|-------------------------------------|-------------------------------------|
D|-3---------------------------|---------------3---------------------|-3---------------------3-------------|
A|-----3---4----3----1---------|-------------------3-----------------|-----3---------------------3---1--1--|
E|------------------------3----|-1--1---1---1----------1--1---1---1--|---------1--1---1---1----------------|


E|-------------------------------------|-------------------------------------|---------------------------------|
B|-------------------------------------|-------------------------------------|---------------------------------|
G|-------------------------------------|-------------------------------------|---------------------------------|
D|------------1--5---------------------|-3---------------------3-------------|-----------3---------------------|
A|----3---4----------------------------|-----3---------------------3---------|---------------3---4----3----1---|
E|-------------------3---1--1---1---1--|---------1--1---1---1----------1--1--|----1---1------------------------|


E|-------------------------------------|-------------------------------------|-------------------------------|
B|-------------------------------------|-------------------------------------|-------------------------------|
G|-------------------------------------|-------------------------------------|-------------------------------|
D|-----------------------3-------------|-----------3---------------------3---|--------------------5----------|
A|---------------------------3---------|---------------3---------------------|-3---1----3----4---------------|
E|----3----1--1---1---1----------1--1--|----1---1----------1--1---1---1------|-------------------------1--1--|


E|-------------------------------------|---------------------------------------|-------------------------------------------|
B|-------------------------------------|---------------------------------------|-------------------------------------------|
G|-------------------------------------|---------------------------------------|-------------------------------------------|
D|-----------3---------------------3---|-------------------3-------------------|---------------------------------------3---|
A|---------------3---------------------|-3---------------------3---4--4--4--3--|-3--3--1--1--1-----------------------------|
E|----1---1----------1--1---1---1------|-----1--1---1---1----------------------|----------------3--3--3--1--1---1---1------|


E|-------------------------------------|---------------------------------------------|
B|-------------------------------------|---------------------------------------------|
G|-------------------------------------|---------------------------------------------|
D|-------------------3-----------------|-------3----------------------------------5--|
A|-3---------------------3-------------|-----------3---1--1--1--3--3--3--4--4--4-----|
E|-----1--1---1---1----------1--1---1--|----1----------------------------------------|


E|-----------------------------------|---------------------------------|------------------------------|
B|-----------------------------------|---------------------------------|------------------------------|
G|-----------------------------------|---------------------------------|------------------------------|
D|-5--5--------------8---------------|-------8----8----------------3---|------------------3-----------|
A|-----------------------8-----------|---------------------------------|----------------------3-------|
E|-------6----6---6----------6----6--|----6------------1----1---1------|------1----1---1----------6---|


E|-----------------------------------|---------------------------|---------------------------------|
B|-----------------------------------|---------------------------|---------------------------------|
G|-----------------------------------|---------------------------|---------------------------------|
D|-----------8-------------------8---|----8----------------3-----|-------------3-------------------|
A|---------------8-------------------|---------------------------|-----------------3---------------|
E|----6---6----------6----6---6------|---------1----1---1--------|-1----1---1----------6----6---6--|


E|---------------------------------|---------------------------------|-----------------------------------|
B|---------------------------------|---------------------------------|-----------------------------------|
G|---------------------------------|---------------------------------|-----------------------------------|
D|-8-------------------5-------5---|----------3---3------------------|-------6----------------9---9------|
A|-----8---------------3-------3---|---------------------------------|-----------------------------------|
E|---------1----1---1--------------|-----1-----------1---3---4----4--|----4------4---6---7-----------7---|


E|---------------------------------|-----------------------------------|---------------------------------|
B|---------------------------------|-----------------------------------|---------------------------------|
G|---------------------------------|-----------------------------------|---------------------------------|
D|-----------------12--------------|----3---3----------------------6---|--------------9---9--------------|
A|---------------------------------|-----------------------------------|---------------------------------|
E|-9---10---10--10-----10--13--1---|-----------1---3---4----4---4------|-4---6---7-----------7---9---10--|


E|-----------------------------------|-----------------------------------|---------------------------------|
B|-----------------------------------|-----------------------------------|---------------------------------|
G|-----------------------------------|-----------------------------------|---------------------------------|
D|-----------12-------------------3--|----3----------------------6-------|----------9---9------------------|
A|-----------------------------------|-----------------------------------|---------------------------------|
E|----10--10-----10--13--0---1-------|-------1---3---4----4---4------4---|-6---7-----------7---9---10---10-|


E|-----------------------------------|-------------------------------------|----------------------------|
B|-----------------------------------|-------------------------------------|----------------------------|
G|-----------------------------------|-------------------------------------|----------------------------|
D|-------12---------------3---3------|-------------------------------------|----------------------------|
A|-----------------------------------|-------------------2---2--2---2--5---|---------4---------6--------|
E|----10-----10--13--1-----------1---|-3---4---4--4---4--------------------|----4---------3-------------|


E|-----------------------------|--------------------------|---------------------------|
B|-----------------------------|--------------------------|---------------------------|
G|-----------------------------|--------------------------|---------------------------|
D|-----------------------------|--------------------------|---------------------------|
A|----5--------8-----------7---|-------6-----------5------|------8-----------7--------|
E|-----------------------------|--------------------------|---------------------------|


E|-------------------------------------------|------------------------------------------|
B|-------------------------------------------|------------------------------------------|
G|--------------------------------3--4----3--|-------3--4--3----------------------------|
D|-----3--5--6--5--3--5--3--5--6-------------|----6-------------6--8--9--8--6--8--6--8--|
A|-------------------------------------------|------------------------------------------|
E|-------------------------------------------|------------------------------------------|


E|------------------------------------|-------------------------------------------|
B|------------------------------------|-------------------------------------------|
G|----6--7----6------6--7--6----------|----------------------3--4----3------3--4--|
D|-9--------------9-------------3--5--|-6--5--3--5--3--5--6--------------6--------|
A|------------------------------------|-------------------------------------------|
E|------------------------------------|-------------------------------------------|


E|----------------------------------------|----------------------------------------|
B|----------------------------------------|----------------------5--5--------------|
G|-3-------------------------------6--7---|----6------6--7--6----3--3--------------|
D|------6--8--9--8--6--8--6--8--9---------|--------9-------------------3--5--6--5--|
A|----------------------------------------|----------------------------------------|
E|----------------------------------------|----------------------------------------|


E|-----------------------------------------|-------------------------------------------|
B|-----------------------------------------|-------------------------------------------|
G|----------------3--4----3------3--4--3---|--------------------------------6--7----6--|
D|-3--5--3--5--6--------------6------------|-----6--8--9--8--6--8--6--8--9-------------|
A|-----------------------------------------|-------------------------------------------|
E|-----------------------------------------|-------------------------------------------|


E|------------------------------------------|-------------------------------------|
B|------------------------------------------|-------------------------------13----|
G|-------6--7--6----------------------------|----9--10---9------13---12--10----13-|
D|----9-------------9--11-12-11-9--11-9--11-|-12-------------12-------------------|
A|------------------------------------------|-------------------------------------|
E|------------------------------------------|-------------------------------------|


E|-------------------------------10-7--------------|----9--6--------------12-9-----------------11-8--|
B|-13-14----14-15----15-16----16-------8-----------|----------7-----------------10-------------------|
G|-------14-------15-------16-------------7--------|-------------6-----------------9-----------------|
D|-------------------------------------------9-----|----------------8-----------------11-------------|
A|----------------------------------------------10-|-------------------9-----------------12----------|
E|-------------------------------------------------|-7--------------------------------------9--------|


E|-------------------10-7-----------------9--6-----|----------12-9-----------------11-8--------------|
B|-9-----------------------8--------------------7--|----------------10-------------------9-----------|
G|----8-----------------------7--------------------|-6-----------------9--------------------8--------|
D|-------10----------------------9-----------------|----8-----------------11-------------------10----|
A|----------11----11----------------10-------------|-------9-----------------12-------------------11-|
E|-------------8-----------------------7-----------|----------------------------9--------------------|


E|----------------8--11-8--------------|-----------------|-------------|-------------|
B|-------------9-----------9-----------|-----------------|-------------|-------------|
G|----------8-----------------8--------|-----------------|-------------|-------------|
D|-------10----------------------3-----|-----------3-----|-------3-----|-------3-----|
A|----11-------------------------3-----|-----------3-----|-------3-----|-------3-----|
E|-8-----------------------------1-----|-----------1-----|-------1-----|-------1-----|


E|-----------------|--------------|-------------|---------------------|-----------------------------------------------|
B|-----------------|--------------|-------------|---------------------|-----------------------------------------------|
G|-----------------|--------------|-------------|-----------24---20---|-16--------------------------------------------|
D|------3---3------|-------3------|------3------|------3----24---20---|-16-----------------------------------------8--|
A|------3---3------|-------3------|------3------|------3----24---20---|-16--8--10-11-10-8--7--8--10-8--7--8--10-11----|
E|------1---1------|-------1------|------1------|------1--------------|-----------------------------------------------|


E|-------------------------------------------------|-------------------------------------------------|
B|-------------------------------------------------|-------------------------------------------------|
G|-------------------------------------------------|-------------------------------------------------|
D|-9--11-9--8--9--11-12-11-9--8--9--11-9--8--------|----------------------------------------8--9--11-|
A|-------------------------------------------11-10-|-8--10-11-10-8--7--8--10-8--7--8--10-11----------|
E|-------------------------------------------------|-------------------------------------------------|


E|-------------------------------------------------|-------------------------------------------------|
B|-------------------------------------------------|-------------------------------------------------|
G|-------------------------------------------------|-------------------------------------------------|
D|-9--8--9--11-12-11-9--8--9--11-9--8--------------|----------------------------------8--9--11-9--8--|
A|-------------------------------------11-10-8--10-|-11-10-8--7--8--10-8--7--8--10-11----------------|
E|-------------------------------------------------|-------------------------------------------------|


E|-------------------------------------------------|-------------------------------------------------|
B|-------------------------------------------------|-------------------------------------------------|
G|-------------------------------------------------|-------------------------------------------------|
D|-9--11-12-11-9--8--9--11-9--8--------------------|----------------------------8--9--11-9--8--9--11-|
A|-------------------------------11-10-8--10-11-10-|-8--7--8--10-8--7--8--10-11----------------------|
E|-------------------------------------------------|-------------------------------------------------|


E|-------------------------------------------------|-------------------------------------------------|
B|-------------------------------------------------|-------------------------------------------------|
G|-------------------------------------------------|-------------------------------------------------|
D|-12-11-9--8--9--11-9--8--------------------------|----------------------8--9--11-9--8--9--11-12-11-|
A|-------------------------11-10-8--10-11-10-8--7--|-8--10-8--7--8--10-11----------------------------|
E|-------------------------------------------------|-------------------------------------------------|


E|-------------------------------------------------|-------------------------------------------------|
B|-------------------------------------------------|-------------------------------------------------|
G|-------------------------------------------------|-------------------------------------------------|
D|-9--8--9--11-9--8--------------------------------|----------------8--9--11-9--8--9--11-12-11-9--8--|
A|-------------------11-10-8--10-11-10-8--7--8--10-|-8--7--8--10-11----------------------------------|
E|-------------------------------------------------|-------------------------------------------------|


E|-------------------------------------------------|-------------------------------------------------|
B|-------------------------------------------------|-------------------------------------------------|
G|-------------------------------------------------|-------------------------------------------------|
D|-9--11-9--8--------------------------------------|----------------------------11-12-14-12-11-12-14-|
A|-------------11-10-8--7--11-13-11-10-11-13-14-13-|-11-10-11-13-11-10-11-13-14----------------------|
E|-------------------------------------------------|-------------------------------------------------|


E|-------------------------------------------------|-------------------------------------------------|
B|-------------------------------------------------|-------------------------------------------------|
G|-------------------------------------------------|-------------------------------------------------|
D|-15-14-12-11-12-14-12-11-------------------------|----------------------11-12-14-12-11-12-14-15-14-|
A|-------------------------14-13-11-13-14-13-11-10-|-11-13-11-10-11-13-14----------------------------|
E|-------------------------------------------------|-------------------------------------------------|


E|-------------------------------------------------|-------------------------------------------------|
B|-------------------------------------------------|-------------------------------------------------|
G|-------------------------------------------------|-------------------------------------------------|
D|-12-11-12-14-12-11-------------------------------|----------------------------------11-12-14-12-11-|
A|-------------------14-13-11-10-11-13-11-10-11-13-|-14-13-11-10-11-13-11-10-11-13-14----------------|
E|-------------------------------------------------|-------------------------------------------------|


E|-------------------------------------------------|-------------------------------------------------|
B|-------------------------------------------------|-------------------------------------------------|
G|-------------------------------------------------|-------------------------------------------------|
D|-12-14-15-14-12-11-12-14-12-11-------------------|----------------------------11-12-14-12-11-12-14-|
A|-------------------------------14-13-11-13-14-13-|-11-10-11-13-11-10-11-13-14----------------------|
E|-------------------------------------------------|-------------------------------------------------|


E|-------------------------------------------------|-------------------------------------------------|
B|-------------------------------------------------|-------------------------------------------------|
G|-------------------------------------------------|-------------------------------------------------|
D|-15-14-12-11-12-14-12-11-------------------------|----------------------------------------14-15-17-|
A|-------------------------14-13-11----14-16-14-13-|-14-16-17-16-14-13-14-16-14-13-14-16-17----------|
E|----------------------------------15-------------|-------------------------------------------------|


E|-------------------------------------------------|-------------------------------------------------|
B|-------------------------------------------------|-------------------------------------------------|
G|-------------------------------------------------|-------------------------------------------------|
D|-15-14-15-17-18-17-15-14-15-17-15-14-------------|----------------------------------14-15-17-15-14-|
A|-------------------------------------17-16-14-16-|-17-16-14-13-14-16-14-13-14-16-17----------------|
E|-------------------------------------------------|-------------------------------------------------|


E|-------------------------------------------------|-------------------------------------------------|
B|-------------------------------------------------|-------------------------------------------------|
G|-------------------------------------------------|----------------------------------------------12-|
D|-15-17-18-17-15-14-15-17-15-14-------------12-14-|-12-11-12-14-15-14-12-11-12-14-12-11-12-14-15----|
A|-------------------------------17-16-14-13-------|-------------------------------------------------|
E|-------------------------------------------------|-------------------------------------------------|


E|-------------------------------------------------|-------------------------------------------------|
B|-------------------------------------------------|-------------------------------------------------|
G|-13-15-13-12-13-15-16-15-13-12-13-15-13-12-------|----------------------------------------12-13-15-|
D|-------------------------------------------15-14-|-12-14-15-14-12-11-12-14-12-11-12-14-15----------|
A|-------------------------------------------------|-------------------------------------------------|
E|-------------------------------------------------|-------------------------------------------------|


E|-------------------------------------------------|-------------------------------------------------|
B|-------------------------------------------------|-------------------------------------------------|
G|-13-12-13-15-16-15-13-12-13-15-13-12-------------|----------------------------------15-16-18-19-18-|
D|-------------------------------------15-14-12----|-15-17-15-14-15-17-18-17-15-17-18----------------|
A|----------------------------------------------16-|-------------------------------------------------|
E|-------------------------------------------------|-------------------------------------------------|


E|----------------------------------18-19-21-22-21-|-19-21-22-24-19-15-17-18-19-17-15-18-16-14-------|
B|----------17-18-20-21-20-18-20-21----------------|-------------------------------------------17-15-|
G|-16-18-19----------------------------------------|-------------------------------------------------|
D|-------------------------------------------------|-------------------------------------------------|
A|-------------------------------------------------|-------------------------------------------------|
E|-------------------------------------------------|-------------------------------------------------|


E|----21-17-19-20-21-19-17-20-18-16----------------|-19-15-17-18-19-17-15-18-16-14----------21-17-19-|
B|-13-------------------------------19-17-15-------|-------------------------------17-15-13----------|
G|-------------------------------------------17-15-|-------------------------------------------------|
D|-------------------------------------------------|-------------------------------------------------|
A|-------------------------------------------------|-------------------------------------------------|
E|-------------------------------------------------|-------------------------------------------------|


E|-20-21-19-17-20-18-16-------18-16-14-------16-14-12-------|-14-------------------------------|
B|----------------------19-17----------17-15----------15-13-|----17-15-13----------------------|
G|----------------------------------------------------------|-------------15-13--13------------|
D|----------------------------------------------------------|----------------------------------|
A|----------------------------------------------------------|----------------------------------|
E|----------------------------------------------------------|----------------------------------|


E|--------|--------|--------|--------|--------|--------|--------|--------|--------------------------------|
B|--------|--------|--------|--------|--------|--------|--------|--------|------13--11-----11-13------14--|
G|--------|--------|--------|--------|--------|--------|--------|--------|-------------13---------10------|
D|--------|--------|--------|--------|--------|--------|--------|--------|--------------------------------|
A|--------|--------|--------|--------|--------|--------|--------|--------|--------------------------------|
E|--------|--------|--------|--------|--------|--------|--------|--------|--------------------------------|


E|-------------------------------------|-------------------------------------|-------------------------------------|
B|-----11--9------11-9-------------13--|-11-----11-13------14------11--9-----|----11-9---------------13--11-----11-|
G|-10---------12---------12-10---------|----13---------10------10---------12-|-----------10-----------------13-----|
D|------------------------------10-----|-------------------------------------|---------------10--------------------|
A|-------------------------------------|-------------------------------------|-------------------11----------------|
E|-------------------------------------|-------------------------------------|-------------------------------------|


E|-----------------------------------|-------------------------------------|-----4--2--0--7--4--0--4--2--0--7--4--0--4--2--|
B|-13------14------11--9------11-9---|-----------13--11-----11-13------14--|-----------------------------------------------|
G|-----10------10---------12---------|-12-10------------13---------10------|-10--------------------------------------------|
D|-----------------------------------|--------10---------------------------|-----------------------------------------------|
A|-----------------------------------|-------------------------------------|-----------------------------------------------|
E|-----------------------------------|-------------------------------------|-----------------------------------------------|


E|-0--0--10-9--0--9--7--0--7--5--0--5--4--0--4--2--|-0--0--4--2--0--7--4--0--4--2--0--7--4--0--4--2--|
B|-------------------------------------------------|-------------------------------------------------|
G|-------------------------------------------------|-------------------------------------------------|
D|-------------------------------------------------|-------------------------------------------------|
A|-------------------------------------------------|-------------------------------------------------|
E|-------------------------------------------------|-------------------------------------------------|


E|-0--0--10-9--0--12-10-0--14-12-0--16-14-0--17-16-|-0--0--16-14-0--19-16-0--16-14-0--19-16-0--16-14-|
B|-------------------------------------------------|-------------------------------------------------|
G|-------------------------------------------------|-------------------------------------------------|
D|-------------------------------------------------|-------------------------------------------------|
A|-------------------------------------------------|-------------------------------------------------|
E|-------------------------------------------------|-------------------------------------------------|


E|-0--0--22-21-0--21-19-0--19-17-0--17-16-0--16-14-|-----------------------------------------------|
B|-------------------------------------------------|-----------------------------------------------|
G|-------------------------------------------------|-----------------------------------------------|
D|-------------------------------------------------|-----------------------------------------------|
A|-------------------------------------------------|--------------------------------13-14-13----13-|
E|-------------------------------------------------|-----13-15-16-15-13-15-13-15-16----------16----|


E|-------------------------------------------------|-------------------------------------------------|
B|-------------------------------------------------|-------------------------------------------------|
G|-------------------------------------------------|-------------------------------------------------|
D|----------------------------------------------14-|-15-14----14-15-14----14-15-17-18-17-15----------|
A|-14-13----13-14-16-14-16-17-16-14-16-14-16-17----|-------17----------17----------------------------|
E|-------16----------------------------------------|----------------------------------------16-15-13-|


E|----------------------------------------------21-|-19-18-21-15-18----------------------------------|
B|----------------------------21-20-18-------------|----------------17-20-14-17----------------------|
G|----------18-16-15-------------------18-16-15----|----------------------------15-18-12-15----------|
D|-------------------18-17-15----------------------|----------------------------------------14-17-11-|
A|-16-14-13----------------------------------------|-------------------------------------------------|
E|-------------------------------------------------|-------------------------------------------------|


E|-------------------------|
B|-------------------------|
G|-------------------------|
D|-14----------------------|
A|----13-16-10-13----------|
E|-------------------------|





Track 2: Synth. - Lead_Rudess

E|---------------------------------------------|---------------------------------------------|
B|----------12--------------12-----------12----|----------12--------------10-----------------|
G|-13--------------13--------------13----------|-11--------------11--------------13----11----|
D|----14--------------14--------------14----14-|----12--------------12-----------------------|
A|-------14-----14-------14-----14-------------|-------14-----14-------14-----14----14----14-|
E|---------------------------------------------|---------------------------------------------|


E|---------------------------------------------|--------------------------------------------------------------|
B|----------12--------------12-----------12----|-15-----14-15-12----------12----------------------------------|
G|-13--------------13--------------13----------|--------------------14-------14-13-14-13-11-13-11----11-------|
D|----14--------------14--------------14----14-|-----------------12----12-------------------------14----14-12-|
A|-------14-----14-------14-----14-------------|--------------------------------------------------------------|
E|---------------------------------------------|--------------------------------------------------------------|


E|---------------------------------------------|-------------------------------------------------12-14-17-14-|
B|----------12--------------12-----------12----|----------------------------------------12-14-15-------------|
G|-13--------------13--------------13----------|-------------------------11----11-13-14----------------------|
D|----14--------------14--------------14----14-|----11-12-11-12-14-12-14----14-------------------------------|
A|-------14-----14-------14-----14-------------|-14----------------------------------------------------------|
E|---------------------------------------------|-------------------------------------------------------------|


E|-16-------19-----16-------19-----16----16----|-22----17-------------------------------------------|
B|----17--------------17--------------17----17-|----17----17-15-------15----------------------------|
G|-------16-----16-------16-----16-------------|----------------16-------16-------------------------|
D|---------------------------------------------|-------------------16-------16----------------------|
A|---------------------------------------------|-------------------------------17-16-14-17-16-14-12-|
E|---------------------------------------------|----------------------------------------------------|


E|---------------------------------------------|---------------------------------------------|
B|----------12--------------12-----------12----|----------12--------------10-----------------|
G|-13--------------13--------------13----------|-11--------------11--------------13----11----|
D|-------14-----------14--------------14----14-|----12--------------12-----------------------|
A|----14--------14-------14-----14-------------|-------14-----14-------14-----14----14----14-|
E|---------------------------------------------|---------------------------------------------|


E|---------------------------------------------|-------------------------------------------------------------|
B|----------12--------------12-----------12----|-15-14-12-14-12----12----------------------------------------|
G|-13--------------13--------------13----------|----------------14----14-13-14-13-11-13-11-------------------|
D|----14--------------14--------------14----14-|-------------------------------------------14-12-11----------|
A|-------14-----14-------14-----14-------------|----------------------------------------------------14-12-11-|
E|---------------------------------------------|-------------------------------------------------------------|


E|---------------------------------------------|----------------------------------19-22-21-19----------------|
B|----------12--------------12-----------12----|-------------------------------19-------------22-21-19-------|
G|-13--------------13--------------13----------|-------------------------16-19-------------------------21-19-|
D|-------14--------------14-----------14----14-|----------------16----16-------------------------------------|
A|----14--------14----14--------14-------------|----14-17----17----17----------------------------------------|
E|---------------------------------------------|-14-------19-------------------------------------------------|


E|----------19-17191716------------------------------|-------------------------------------------------------17-19-|
B|-17----17------------19-17-------17----------------|----------------------------------------------17-19-21-------|
G|----16---------------------16----------13----------|-------------------------16----16-19-16-18-19----------------|
D|------------------------------18----14-------14----|----------------16----16----16-------------------------------|
A|------------------------------------------14----11-|----14-17----17----17----------------------------------------|
E|---------------------------------------------------|-14-------19-------------------------------------------------|


E|-24----23-21----19-------------------------------|----------------------------------------------19-20-22-24-27-|
B|----21-------17----21----19----------------------|-------------------------------17-20-19-20-22----------------|
G|----------------------18----21----20-18----------|-------------------------16-17-------------------------------|
D|-------------------------------18-------18-------|----14-17-16-17-19-17-19-------------------------------------|
A|-------------------------------------------19-16-|-15----------------------------------------------------------|
E|-------------------------------------------------|-------------------------------------------------------------|


E|-28-21----24-------24-------21-------21----------------------------------|-------------------------------------------------|
B|-------21----21-------21-------17-------17----21-------21----------------|-17----15-13-------------------------------------|
G|----------------21-------21-------18-------18----18-------18----18-------|----------------16-14----12-11-------------------|
D|----------------------------------------------------18-------18----18----|----------------------------------14-12----------|
A|----------------------------------------------------------------------19-|----------------------------------------15-14-12-|
E|-------------------------------------------------------------------------|-------------------------------------------------|


E|-16-------19-----16-------19-----16----19----|-14-------19-----14-------17-----16----14----|
B|-------17-----------17--------------17----17-|----15--------------15-----------------------|
G|----16--------16-------16-----16-------------|-------16-----16-------16-----16----16----16-|
D|---------------------------------------------|---------------------------------------------|
A|---------------------------------------------|---------------------------------------------|
E|---------------------------------------------|---------------------------------------------|


E|-16-------19-----16-------19-----16----19----|-22-------21-------19-------17-------16----------|
B|----17--------------17--------------17----17-|----19-------19-------15-------15-------17-19-15-|
G|-------16-----16-------16-----16-------------|-------19-------19-------16-------16-------------|
D|---------------------------------------------|-------------------------------------------------|
A|---------------------------------------------|-------------------------------------------------|
E|---------------------------------------------|-------------------------------------------------|


E|-16-------------------------------24-28-29-28-24-19-|-22-----21-----19-----17--------------------19-21-22-19----|
B|----17----------------------17----------------------|----19-----19-----15-----15--------------19-------------19-|
G|-------16-------------14-16----16-------------------|------19-----19-----16-----16------16-19-------------------|
D|-------------14-16-18-------------------------------|--------------------------------16-------------------------|
A|----------14----------------------------------------|-----------------------------17----------------------------|
E|----------------------------------------------------|-----------------------------------------------------------|


E|----24----19-------------------------------------------|-------------------------------------------------|
B|----------------17----17----12-------------------------|----------19-17----------------------------------|
G|-21----16----21----16----16-------------------14-16-18-|-19-18-16-------19-18-19-16-19-16-18----16-------|
D|-------------------------------14-14-14-16-18----------|-------------------------------------19----18-19-|
A|-------------------------------------------------------|-------------------------------------------------|
E|-------------------------------------------------------|-------------------------------------------------|


E|----------------------16-------23-24-21----------|-------------------------------------------------19-20-22-24-|
B|----------16-17-16-------19-17----------21-------|----20-19-17-------------------------17-19-20-22-------------|
G|-------18----------18----------------------21----|-17----------16-14----------14----17-------------------------|
D|----18----------------------------------------23-|-------------------17-16-17----17----------------------------|
A|-19----------------------------------------------|-------------------------------------------------------------|
E|-------------------------------------------------|-------------------------------------------------------------|


E|-21-------24-------28-26-24----------------------------|----------------------------------------------------------------20-24-|
B|----17-------17-------------21-19-17-------------------|----------------------------------17-------------------------22-------|
G|-------18-------18-------------------------------------|----------------------------14-17-------------------16-17-21----------|
D|-------------------------------------18-16-14----------|-------------------------14-------------------17-19-------------------|
A|-------------------------------------------------------|----------------14----15-------------15-17-19-------------------------|
E|----------------------------------------------16-14-12-|-14-15-17-15-17----17-------------------------------------------------|


E|-23-24-21----------------------------------------|----------------------------------------------------------19-20-22-|
B|----------21-------------------------------------|-------------------------------------------------19-20-22----------|
G|-------------21-18-20-21-18----------------------|-------------------------14-16----------17-19-21-------------------|
D|----------------------------18-------------------|----------------14-16-17-------17-19-21----------------------------|
A|-------------------------------19-16-18-19-16----|-------14-15-17----------------------------------------------------|
E|----------------------------------------------16-|-15-17-------------------------------------------------------------|


E|-24----21----28-------------------24-23-21----------24-23-21-|-20-19-17----------27----------------------------------------------------|
B|-------------------------------------------21----------------|----------20-19-17----20-19----------20-19-17----------------------------|
G|----18----------20-21-23-21-20-18-------------23-21----------|----------------------------21-19-17----------19-17-16-------------------|
D|----------18-------------------------------------------------|-------------------------------------------------------19-17-16----------|
A|-------------------------------------------------------------|----------------------------------------------------------------19-17-15-|
E|-------------------------------------------------------------|-------------------------------------------------------------------------|


E|----------------16-19-15----------------------14-|-17-13----------------------16-19-17-161716-----------|
B|-------------17----------15----------------15----|-------13----------------17----------------1917-16----|
G|----------16----------------16----------14-------|----------14----------16---------------------------18-|
D|-------18----------------------------16----------|-------------------18---------------------------------|
A|----19----------------------------17-------------|----------------14------------------------------------|
E|-19----------------------------17----------------|-------------12---------------------------------------|


E|------------------------------------------------21|-23-19-----------------------192221-18-------------|
B|----------------------------------------------21--|-------21------------------19----------19----------|
G|-16-------------------------------------18-21-----|----------20----------16-19---------------18-------|
D|----19-18-16-------------------------18-----------|-------------------16------------------------------|
A|-------------19-18-16-------------19--------------|----------------17------------------------------16-|
E|----------------------19-17-16-21-----------------|-------------19------------------------------17----|


E|-------------17-21-29----24----17----17-16-14-------------------|----------------------------------12----------11-------|
B|----------17----------------------------------17-15-14----------|-------------------------------12----------------11----|
G|-------18-------------21----14----14-------------------16-14-13-|----------------------------13----------------------12-|
D|----19----------------------------------------------------------|-16-14-12----------------14----------------13----------|
A|-19-------------------------------------------------------------|----------16-14-12----14----------------13-------------|
E|----------------------------------------------------------------|-------------------16----------------15----------------|


E|----------------10-21-16-------------------------------------12-|----------------11----------------10----------------9------------------|
B|-------------10----------17-------------------------------12----|-------------11----------------10----------------9---------------------|
G|----------11----------------18-------------------------13-------|----------12----------------11----------------10-----------------------|
D|-------12----------------------18-------------------14----------|-------13----------------12----------------11----------109-109-109-9-8-|
A|----12----------------------------19-------------14-------------|----13----------------12----------------11-----------------------------|
E|-14----------------------------------21-19-17-16----------------|-15----------------14----------------13--------------------------------|


E|-------------------------------------------------------------|-------------|-----------------|
B|-------------------------------------------------------------|-------------|-----------------|
G|-------------------------------------------------------------|-------------|-----------------|
D|-9-8-9-8-8-7-8-7-8-7-7-6-7-6-7-6-6-5-6-5-5-4-5-4-4-3-4-3-3---|--------3----|-----------3-----|
A|-------------------------------------------------------------|-------------|-----------------|
E|---------------------------------------------------------1---|--------1----|-----------1-----|


E|-------------|--------|--------|--------|--------|--------|--------|--------|--------|
B|-------------|--------|--------|--------|--------|--------|--------|--------|--------|
G|-------------|--------|--------|--------|--------|--------|--------|--------|--------|
D|-------3-----|--------|--------|--------|--------|--------|--------|--------|--------|
A|-------------|--------|--------|--------|--------|--------|--------|--------|--------|
E|-------1-----|--------|--------|--------|--------|--------|--------|--------|--------|


E|--------|--------|--------|--------|--------|--------|--------|--------|--------|
B|--------|--------|--------|--------|--------|--------|--------|--------|--------|
G|--------|--------|--------|--------|--------|--------|--------|--------|--------|
D|--------|--------|--------|--------|--------|--------|--------|--------|--------|
A|--------|--------|--------|--------|--------|--------|--------|--------|--------|
E|--------|--------|--------|--------|--------|--------|--------|--------|--------|


E|--------|--------|--------|--------|--------|--------|--------|--------|--------|
B|--------|--------|--------|--------|--------|--------|--------|--------|--------|
G|--------|--------|--------|--------|--------|--------|--------|--------|--------|
D|--------|--------|--------|--------|--------|--------|--------|--------|--------|
A|--------|--------|--------|--------|--------|--------|--------|--------|--------|
E|--------|--------|--------|--------|--------|--------|--------|--------|--------|


E|--------|--------|--------|--------|--------|--------|--------|--------|--------|
B|--------|--------|--------|--------|--------|--------|--------|--------|--------|
G|--------|--------|--------|--------|--------|--------|--------|--------|--------|
D|--------|--------|--------|--------|--------|--------|--------|--------|--------|
A|--------|--------|--------|--------|--------|--------|--------|--------|--------|
E|--------|--------|--------|--------|--------|--------|--------|--------|--------|


E|--------|--------|--------|--------|--------|--------|--------|--------|--------|
B|--------|--------|--------|--------|--------|--------|--------|--------|--------|
G|--------|--------|--------|--------|--------|--------|--------|--------|--------|
D|--------|--------|--------|--------|--------|--------|--------|--------|--------|
A|--------|--------|--------|--------|--------|--------|--------|--------|--------|
E|--------|--------|--------|--------|--------|--------|--------|--------|--------|


E|--------|--------|--------|--------|--------|--------|--------|--------|--------|
B|--------|--------|--------|--------|--------|--------|--------|--------|--------|
G|--------|--------|--------|--------|--------|--------|--------|--------|--------|
D|--------|--------|--------|--------|--------|--------|--------|--------|--------|
A|--------|--------|--------|--------|--------|--------|--------|--------|--------|
E|--------|--------|--------|--------|--------|--------|--------|--------|--------|


E|--------|--------|--------|--------|--------|--------|--------|--------|--------|
B|--------|--------|--------|--------|--------|--------|--------|--------|--------|
G|--------|--------|--------|--------|--------|--------|--------|--------|--------|
D|--------|--------|--------|--------|--------|--------|--------|--------|--------|
A|--------|--------|--------|--------|--------|--------|--------|--------|--------|
E|--------|--------|--------|--------|--------|--------|--------|--------|--------|


E|--------|--------|--------|--------|--------|--------|--------|--------|--------|
B|--------|--------|--------|--------|--------|--------|--------|--------|--------|
G|--------|--------|--------|--------|--------|--------|--------|--------|--------|
D|--------|--------|--------|--------|--------|--------|--------|--------|--------|
A|--------|--------|--------|--------|--------|--------|--------|--------|--------|
E|--------|--------|--------|--------|--------|--------|--------|--------|--------|


E|--------|--------|--------|--------|--------|--------|--------|--------|--------|
B|--------|--------|--------|--------|--------|--------|--------|--------|--------|
G|--------|--------|--------|--------|--------|--------|--------|--------|--------|
D|--------|--------|--------|--------|--------|--------|--------|--------|--------|
A|--------|--------|--------|--------|--------|--------|--------|--------|--------|
E|--------|--------|--------|--------|--------|--------|--------|--------|--------|


E|--------|--------|--------|--------|--------|--------|--------|--------|--------|
B|--------|--------|--------|--------|--------|--------|--------|--------|--------|
G|--------|--------|--------|--------|--------|--------|--------|--------|--------|
D|--------|--------|--------|--------|--------|--------|--------|--------|--------|
A|--------|--------|--------|--------|--------|--------|--------|--------|--------|
E|--------|--------|--------|--------|--------|--------|--------|--------|--------|


E|--------|--------|--------|--------|--------|--------|--------|--------|--------|
B|--------|--------|--------|--------|--------|--------|--------|--------|--------|
G|--------|--------|--------|--------|--------|--------|--------|--------|--------|
D|--------|--------|--------|--------|--------|--------|--------|--------|--------|
A|--------|--------|--------|--------|--------|--------|--------|--------|--------|
E|--------|--------|--------|--------|--------|--------|--------|--------|--------|


E|------------------|-------------------------------------------------|-------------------------------------------------|
B|------------------|-------------------------------------------------|-------------------------------------------------|
G|------------------|-------------------------------------------------|-------------------------------------------------|
D|------------------|-------------------------------------------------|-------------------------------------------------|
A|------------------|----------------------------------13-14-16-14-13-|-14-16-17-16-14-13-14-16-14-13-------------------|
E|------------13-15-|-16-15-13-12-13-15-13-12-13-15-16----------------|-------------------------------16-15-13-15-16-15-|


E|-------------------------------------------------|-------------------------------------------------|
B|-------------------------------------------------|-------------------------------------------------|
G|-------------------------------------------------|-------------------------------------------------|
D|-------------------------------------------------|-------------------------------------------------|
A|----------------------------13-14-16-14-13-14-16-|-17-16-14-13-14-16-14-13-------------11-13-11-10-|
E|-13-12-13-15-13-12-13-15-16----------------------|-------------------------16-15-13-12-------------|


E|-------------------------------------------------|-------------------------------------------------|
B|-------------------------------------------------|-------------------------------------------------|
G|-------------------------------------------------|-------------------------------------------------|
D|----------------------------------------11-12-14-|-12-11-12-14-15-14-12-11-12-14-12-11-------------|
A|-11-13-14-13-11-10-11-13-11-10-11-13-14----------|-------------------------------------14-13-11-13-|
E|-------------------------------------------------|-------------------------------------------------|


E|-------------------------------------------------|-------------------------------------------------|
B|-------------------------------------------------|-------------------------------------------------|
G|-------------------------------------------------|-------------------------------------------------|
D|----------------------------------11-12-14-12-11-|-12-14-15-14-12-11-12-14-12-11-------------9--11-|
A|-14-13-11-10-11-13-11-10-11-13-14----------------|-------------------------------14-13-11-10-------|
E|-------------------------------------------------|-------------------------------------------------|


E|-------------------------------------------------|-------------------------------------------------|
B|-------------------------------------------------|-------------------------------------------------|
G|-------------------------------------------------|-------------------------------------------------|
D|-9--8-----------------------------------------14-|-15-17-12-11-12-14-15-14-12-11-12-14-12-11-------|
A|-------14-16-17-16-14-13-14-16-14-13-14-16-17----|-------------------------------------------14-13-|
E|-------------------------------------------------|-------------------------------------------------|


E|-------------------------------------------------|-------------------------------------------------|
B|-------------------------------------------------|-------------------------------------------------|
G|-------------------------------------------------|-------------------------------------------------|
D|----------------------------------------14-15-17-|-15-14-15-17-18-17-15-14-15-17-15-14-------------|
A|-14-16-17-16-14-13-14-16-14-13-14-16-17----------|-------------------------------------17-16-14-13-|
E|-------------------------------------------------|-------------------------------------------------|


E|-------------------------------------------------|----------------------------------15-16-18-19-18-|
B|-------------------------------------------------|----------14-15-17-18-17-15-17-18----------------|
G|----------------------------------12-13-15-16-15-|-13-15-16----------------------------------------|
D|-12-14-12-11-12-14-15-14-12-14-15----------------|-------------------------------------------------|
A|-------------------------------------------------|-------------------------------------------------|
E|-------------------------------------------------|-------------------------------------------------|


E|-16-18-19-21--------|--------|--------|--------|--------|--------|--------|--------|
B|--------------------|--------|--------|--------|--------|--------|--------|--------|
G|--------------------|--------|--------|--------|--------|--------|--------|--------|
D|--------------------|--------|--------|--------|--------|--------|--------|--------|
A|--------------------|--------|--------|--------|--------|--------|--------|--------|
E|--------------------|--------|--------|--------|--------|--------|--------|--------|


E|--------|--------|--------|--------|--------|--------|--------|--------|--------|
B|--------|--------|--------|--------|--------|--------|--------|--------|--------|
G|--------|--------|--------|--------|--------|--------|--------|--------|--------|
D|--------|--------|--------|--------|--------|--------|--------|--------|--------|
A|--------|--------|--------|--------|--------|--------|--------|--------|--------|
E|--------|--------|--------|--------|--------|--------|--------|--------|--------|


E|--------|--------|--------|--------|--------|--------|--------|--------|--------|
B|--------|--------|--------|--------|--------|--------|--------|--------|--------|
G|--------|--------|--------|--------|--------|--------|--------|--------|--------|
D|--------|--------|--------|--------|--------|--------|--------|--------|--------|
A|--------|--------|--------|--------|--------|--------|--------|--------|--------|
E|--------|--------|--------|--------|--------|--------|--------|--------|--------|


E|--------|--------|--------|--------|--------|
B|--------|--------|--------|--------|--------|
G|--------|--------|--------|--------|--------|
D|--------|--------|--------|--------|--------|
A|--------|--------|--------|--------|--------|
E|--------|--------|--------|--------|--------|





Track 3: Synth. - Organ1_Rudess

E|--------|--------|--------|--------|--------|--------|--------|--------|--------|
B|--------|--------|--------|--------|--------|--------|--------|--------|--------|
G|--------|--------|--------|--------|--------|--------|--------|--------|--------|
D|--------|--------|--------|--------|--------|--------|--------|--------|--------|
A|--------|--------|--------|--------|--------|--------|--------|--------|--------|
E|--------|--------|--------|--------|--------|--------|--------|--------|--------|


E|--------|--------|--------|--------|--------|--------|--------|--------|--------|
B|--------|--------|--------|--------|--------|--------|--------|--------|--------|
G|--------|--------|--------|--------|--------|--------|--------|--------|--------|
D|--------|--------|--------|--------|--------|--------|--------|--------|--------|
A|--------|--------|--------|--------|--------|--------|--------|--------|--------|
E|--------|--------|--------|--------|--------|--------|--------|--------|--------|


E|--------|--------|--------|--------|--------|--------|--------|--------|--------|
B|--------|--------|--------|--------|--------|--------|--------|--------|--------|
G|--------|--------|--------|--------|--------|--------|--------|--------|--------|
D|--------|--------|--------|--------|--------|--------|--------|--------|--------|
A|--------|--------|--------|--------|--------|--------|--------|--------|--------|
E|--------|--------|--------|--------|--------|--------|--------|--------|--------|


E|--------|--------|--------|--------|--------|--------|--------|--------|--------|
B|--------|--------|--------|--------|--------|--------|--------|--------|--------|
G|--------|--------|--------|--------|--------|--------|--------|--------|--------|
D|--------|--------|--------|--------|--------|--------|--------|--------|--------|
A|--------|--------|--------|--------|--------|--------|--------|--------|--------|
E|--------|--------|--------|--------|--------|--------|--------|--------|--------|


E|--------|--------|--------|--------|--------|--------|--------|--------|--------|
B|--------|--------|--------|--------|--------|--------|--------|--------|--------|
G|--------|--------|--------|--------|--------|--------|--------|--------|--------|
D|--------|--------|--------|--------|--------|--------|--------|--------|--------|
A|--------|--------|--------|--------|--------|--------|--------|--------|--------|
E|--------|--------|--------|--------|--------|--------|--------|--------|--------|


E|--------|--------|--------|-------------------------------|-----------------------------------|
B|--------|--------|--------|-------4------4-----4----------|-------------------------------6---|
G|--------|--------|--------|-------5------5-----5--3-------|-3-------5------5------6-------6---|
D|--------|--------|--------|-------3------3-----3--3-------|-3-------3------3------3-------3---|
A|--------|--------|--------|-------------------------------|-----------------------------------|
E|--------|--------|--------|-------------------------------|-----------------------------------|


E|----------------|--------|--------|--------|--------|--------|--------|--------|
B|----------------|--------|--------|--------|--------|--------|--------|--------|
G|----------------|--------|--------|--------|--------|--------|--------|--------|
D|----------------|--------|--------|--------|--------|--------|--------|--------|
A|----------------|--------|--------|--------|--------|--------|--------|--------|
E|----------------|--------|--------|--------|--------|--------|--------|--------|


E|--------|--------|--------|--------|----------------|-------------------------------------|
B|--------|--------|--------|--------|----------------|-----------6-------6-------4------4--|
G|--------|--------|--------|--------|------------5---|----5------6-------6-------5------5--|
D|--------|--------|--------|--------|------------3---|----3------3-------3-------3------3--|
A|--------|--------|--------|--------|----------------|-------------------------------------|
E|--------|--------|--------|--------|----------------|-------------------------------------|


E|-------1-------1-------1--------3--------|-4--------6--------6-----------------6-----8-----|
B|-------2-------2-------2--------4--------|-6--------6--------6--------6--------6-----6-----|
G|-------3-------3-------------3--------3--|----3--------6--------6--------6-----------------|
D|-------3-------3----------3--------5-----|-------3--------8--------8--------6--------------|
A|-----------------------------------------|-------------------------------------------------|
E|-----------------------------------------|-------------------------------------------------|


E|-9------9------11----4------4--|-------3------3------6------6------3---|-------6------6-----6--6-----8-----9------9--|
B|-6------6------6-----6------6--|-------6------6------6------6------6---|-------6------6-----6--6-----6-----6------6--|
G|-------------------------------|---------------------------------------|---------------------------------------------|
D|-------------------------------|---------------------------------------|---------------------------------------------|
A|-------------------------------|---------------------------------------|---------------------------------------------|
E|-------------------------------|---------------------------------------|---------------------------------------------|


E|-------11----4------4------3---|----3------6------6------3-------6---|----6-----6--6-----8-----------|
B|-------6-----6------6------6---|----6------6------6------6-------6---|----6-----6--6-----6-----------|
G|-------------------------------|-------------------------------------|-------------------------------|
D|-------------------------------|-------------------------------------|-------------------------------|
A|-------------------------------|-------------------------------------|-------------------------------|
E|-------------------------------|-------------------------------------|-------------------------------|


E|--------|--------|--------|--------|--------|--------|--------|--------|--------|
B|--------|--------|--------|--------|--------|--------|--------|--------|--------|
G|--------|--------|--------|--------|--------|--------|--------|--------|--------|
D|--------|--------|--------|--------|--------|--------|--------|--------|--------|
A|--------|--------|--------|--------|--------|--------|--------|--------|--------|
E|--------|--------|--------|--------|--------|--------|--------|--------|--------|


E|--------|--------|--------|--------|--------|--------|----------------------------3--|
B|--------|--------|--------|--------|--------|--------|---------------------2---------|
G|--------|--------|--------|--------|--------|--------|-------3------5------1------3--|
D|--------|--------|--------|--------|--------|--------|-------3------3----------------|
A|--------|--------|--------|--------|--------|--------|-------------------------------|
E|--------|--------|--------|--------|--------|--------|-------------------------------|


E|-------6-----------------6-----8-----9------9--|-------11----4------4------3---|
B|-------6--------6--------6-----6-----6------6--|-------6-----6------6------6---|
G|----------6--------6---------------------------|-------------------------------|
D|-------------8--------6------------------------|-------------------------------|
A|-----------------------------------------------|-------------------------------|
E|-----------------------------------------------|-------------------------------|


E|----3------6------6------3-------6---|----6-----6--6-----8-----9------9------11--|
B|----6------6------6------6-------6---|----6-----6--6-----6-----6------6------6---|
G|-------------------------------------|-------------------------------------------|
D|-------------------------------------|-------------------------------------------|
A|-------------------------------------|-------------------------------------------|
E|-------------------------------------|-------------------------------------------|


E|------4------4------3------3------|-6------6------3-------6------6-----6--|-6-----8-----6------6------3-------8---|
B|------6------6------6------6------|-6------6------6-------6------6-----6--|-6-----6-----6------6------6-------8---|
G|----------------------------------|---------------------------------------|-----------------------------------10--|
D|----------------------------------|---------------------------------------|---------------------------------------|
A|----------------------------------|---------------------------------------|---------------------------------------|
E|----------------------------------|---------------------------------------|---------------------------------------|


E|-------------------------------------------|---------------------------------------------|
B|-------------------------------------------|---------------------------------------------|
G|--------------------------------3--4----3--|-------3--4--3----3--------------------------|
D|-----3--5--6--5--3--5--3--5--6-------------|----6----------------6--8--9--8--6--8--6--8--|
A|-------------------------------------------|---------------------------------------------|
E|-------------------------------------------|---------------------------------------------|


E|------------------------------------|-------------------------------------------|
B|------------------------------------|-------------------------------------------|
G|----6--7----6------6--7--6----------|----------------------3--4----3------3--4--|
D|-9--------------9-------------3--5--|-6--5--3--5--3--5--6--------------6--------|
A|------------------------------------|-------------------------------------------|
E|------------------------------------|-------------------------------------------|


E|----------------------------------------|-----------------------------------|-----------------------------------------|
B|----------------------------------------|-----------------------------------|-----------------------------------------|
G|-3-------------------------------6--7---|----6------6--7--6-----------------|----------------3--4----3------3--4--3---|
D|------6--8--9--8--6--8--6--8--9---------|--------9--------------3--5--6--5--|-3--5--3--5--6--------------6------------|
A|----------------------------------------|-----------------------------------|-----------------------------------------|
E|----------------------------------------|-----------------------------------|-----------------------------------------|


E|-------------------------------------------|------------------------------------------|
B|-------------------------------------------|------------------------------------------|
G|--------------------------------6--7----6--|-------6--7--6----4--6--7--6--4--6--4--6--|
D|-----6--8--9--8--6--8--6--8--9-------------|----9-------------------------------------|
A|-------------------------------------------|------------------------------------------|
E|-------------------------------------------|------------------------------------------|


E|-------------------------------8---|----9------10-----11-----19-15-------------|
B|----5--6----5------9----8---6--9---|----10-----11-----12-----------15----------|
G|-7--------------7------------------|----------------------------------16-------|
D|-----------------------------------|-------------------------------------17----|
A|-----------------------------------|----------------------------------------17-|
E|-----------------------------------|-------------------------------------------|


E|----18-14-------------21-17----------------20-16-|-------------------19-15----------------18-14----|
B|----------14----------------17-------------------|-16----------------------15-------------------14-|
G|-------------15----------------18----------------|----17----------------------16-------------------|
D|----------------16----------------19-------------|-------18----------------------17----------------|
A|-14----------------16----------------19-16-------|----------18----------------------17-14----------|
E|-------------------------------------------------|-------------20-16-------------------------------|


E|----------21-17----------------20-16-------------|------------------|--------|--------|
B|----------------17-------------------16----------|------------------|--------|--------|
G|-15----------------18-------------------17-------|------------------|--------|--------|
D|----16----------------19-------------------18----|------------------|--------|--------|
A|-------16----------------19-16----------------18-|------------------|--------|--------|
E|-------------------------------------------------|-20-16------------|--------|--------|


E|--------|--------|--------|--------|--------|--------|--------|-----------19-15-------------|
B|--------|--------|--------|--------|--------|--------|--------|-----------------15----------|
G|--------|--------|--------|--------|--------|--------|--------|--------------------16-------|
D|--------|--------|--------|--------|--------|--------|--------|-----------------------17----|
A|--------|--------|--------|--------|--------|--------|--------|--------------------------17-|
E|--------|--------|--------|--------|--------|--------|--------|-----------------------------|


E|----18-14-------------21-17----------------20-16-|-------------------19-15----------------18-14----|
B|----------14----------------17-------------------|-16----------------------15-------------------14-|
G|-------------15----------------18----------------|----17----------------------16-------------------|
D|----------------16----------------19-------------|-------18----------------------17----------------|
A|-14----------------16----------------19-16-------|----------18----------------------17-14----------|
E|-------------------------------------------------|-------------20-16-------------------------------|


E|----------21-17----------------20-16-------------|------------------|--------|--------|
B|----------------17-------------------16----------|------------------|--------|--------|
G|-15----------------18-------------------17-------|------------------|--------|--------|
D|----16----------------19-------------------18----|------------------|--------|--------|
A|-------16----------------19-16----------------18-|------------------|--------|--------|
E|-------------------------------------------------|-20-16------------|--------|--------|


E|--------|--------|--------|--------|--------|--------|--------|--------|--------|
B|--------|--------|--------|--------|--------|--------|--------|--------|--------|
G|--------|--------|--------|--------|--------|--------|--------|--------|--------|
D|--------|--------|--------|--------|--------|--------|--------|--------|--------|
A|--------|--------|--------|--------|--------|--------|--------|--------|--------|
E|--------|--------|--------|--------|--------|--------|--------|--------|--------|


E|--------|--------|--------|--------|--------|--------|--------|--------|--------|
B|--------|--------|--------|--------|--------|--------|--------|--------|--------|
G|--------|--------|--------|--------|--------|--------|--------|--------|--------|
D|--------|--------|--------|--------|--------|--------|--------|--------|--------|
A|--------|--------|--------|--------|--------|--------|--------|--------|--------|
E|--------|--------|--------|--------|--------|--------|--------|--------|--------|


E|--------|--------|--------|--------|--------|--------|--------|--------|--------|
B|--------|--------|--------|--------|--------|--------|--------|--------|--------|
G|--------|--------|--------|--------|--------|--------|--------|--------|--------|
D|--------|--------|--------|--------|--------|--------|--------|--------|--------|
A|--------|--------|--------|--------|--------|--------|--------|--------|--------|
E|--------|--------|--------|--------|--------|--------|--------|--------|--------|


E|--------|--------|--------|--------|--------|--------|--------|--------|--------|
B|--------|--------|--------|--------|--------|--------|--------|--------|--------|
G|--------|--------|--------|--------|--------|--------|--------|--------|--------|
D|--------|--------|--------|--------|--------|--------|--------|--------|--------|
A|--------|--------|--------|--------|--------|--------|--------|--------|--------|
E|--------|--------|--------|--------|--------|--------|--------|--------|--------|


E|--------|--------|------20-18-16-------18-16-14-------16-14-12-------|-14----------------------------|
B|--------|--------|---------------19-17----------17-15----------15-13-|----17-15-13-------------------|
G|--------|--------|---------------------------------------------------|-------------15-13-------------|
D|--------|--------|---------------------------------------------------|-------------------------------|
A|--------|--------|---------------------------------------------------|-------------------------------|
E|--------|--------|---------------------------------------------------|-------------------------------|


E|--------|--------|--------|--------|--------|--------|--------|--------|--------------------------------|
B|--------|--------|--------|--------|--------|--------|--------|--------|------13--11-----11-13------14--|
G|--------|--------|--------|--------|--------|--------|--------|--------|------13-----13-----13--10--13--|
D|--------|--------|--------|--------|--------|--------|--------|--------|------15-----15-----15------15--|
A|--------|--------|--------|--------|--------|--------|--------|--------|-------------15-----------------|
E|--------|--------|--------|--------|--------|--------|--------|--------|--------------------------------|


E|-------------------------------------|---------------------------6----|-----------------------------|
B|-----11--9------11-9-------------13--|-11-----11-13------14------8----|-----9---------13--11-----11-|
G|-10--12-----12-----10--12-10-----13--|----13-----13--10--13--10--8----|-----8---------13-----13-----|
D|-----13-----13-----11-----11--10-15--|----15-----15------15------8----|-----10--------15-----15-----|
A|------------13------------11---------|----15--------------------------|----------------------15-----|
E|-------------------------------------|--------------------------------|-----------------------------|


E|-----------------------------------|-------------------------------------|----------------|
B|-13------14------11--9------11-9---|-----------13--11-----11-13------14--|----------------|
G|-13--10--13--10--12-----12-----10--|-12-10-----13-----13-----13--10--13--|-10-------------|
D|-15------15------13-----13-----11--|----11--10-15-----15-----15------15--|----------------|
A|------------------------13---------|----11------------15-----------------|----------------|
E|-----------------------------------|-------------------------------------|----------------|


E|--------|--------|--------|--------|--------|--------|--------|--------|--------|
B|--------|--------|--------|--------|--------|--------|--------|--------|--------|
G|--------|--------|--------|--------|--------|--------|--------|--------|--------|
D|--------|--------|--------|--------|--------|--------|--------|--------|--------|
A|--------|--------|--------|--------|--------|--------|--------|--------|--------|
E|--------|--------|--------|--------|--------|--------|--------|--------|--------|


E|--------|--------|
B|--------|--------|
G|--------|--------|
D|--------|--------|
A|--------|--------|
E|--------|--------|





Track 4: Synth. - String_Rudess

E|--------|--------|--------|--------|--------|--------|--------|--------|--------|
B|--------|--------|--------|--------|--------|--------|--------|--------|--------|
G|--------|--------|--------|--------|--------|--------|--------|--------|--------|
D|--------|--------|--------|--------|--------|--------|--------|--------|--------|
A|--------|--------|--------|--------|--------|--------|--------|--------|--------|
E|--------|--------|--------|--------|--------|--------|--------|--------|--------|


E|--------|--------|--------|--------|--------|--------|--------|--------|--------|
B|--------|--------|--------|--------|--------|--------|--------|--------|--------|
G|--------|--------|--------|--------|--------|--------|--------|--------|--------|
D|--------|--------|--------|--------|--------|--------|--------|--------|--------|
A|--------|--------|--------|--------|--------|--------|--------|--------|--------|
E|--------|--------|--------|--------|--------|--------|--------|--------|--------|


E|--------|--------|--------|--------|--------|--------|--------|--------|--------|
B|--------|--------|--------|--------|--------|--------|--------|--------|--------|
G|--------|--------|--------|--------|--------|--------|--------|--------|--------|
D|--------|--------|--------|--------|--------|--------|--------|--------|--------|
A|--------|--------|--------|--------|--------|--------|--------|--------|--------|
E|--------|--------|--------|--------|--------|--------|--------|--------|--------|


E|--------|--------|--------|--------|--------|--------|--------|--------|--------|
B|--------|--------|--------|--------|--------|--------|--------|--------|--------|
G|--------|--------|--------|--------|--------|--------|--------|--------|--------|
D|--------|--------|--------|--------|--------|--------|--------|--------|--------|
A|--------|--------|--------|--------|--------|--------|--------|--------|--------|
E|--------|--------|--------|--------|--------|--------|--------|--------|--------|


E|--------|--------|--------|--------|--------|--------|--------|--------|--------|
B|--------|--------|--------|--------|--------|--------|--------|--------|--------|
G|--------|--------|--------|--------|--------|--------|--------|--------|--------|
D|--------|--------|--------|--------|--------|--------|--------|--------|--------|
A|--------|--------|--------|--------|--------|--------|--------|--------|--------|
E|--------|--------|--------|--------|--------|--------|--------|--------|--------|


E|--------|--------|--------|--------|--------|--------|--------|--------|--------|
B|--------|--------|--------|--------|--------|--------|--------|--------|--------|
G|--------|--------|--------|--------|--------|--------|--------|--------|--------|
D|--------|--------|--------|--------|--------|--------|--------|--------|--------|
A|--------|--------|--------|--------|--------|--------|--------|--------|--------|
E|--------|--------|--------|--------|--------|--------|--------|--------|--------|


E|--------|--------|--------|--------|--------|--------|--------|--------|--------|
B|--------|--------|--------|--------|--------|--------|--------|--------|--------|
G|--------|--------|--------|--------|--------|--------|--------|--------|--------|
D|--------|--------|--------|--------|--------|--------|--------|--------|--------|
A|--------|--------|--------|--------|--------|--------|--------|--------|--------|
E|--------|--------|--------|--------|--------|--------|--------|--------|--------|


E|--------|--------|--------|--------|--------|--------|--------|--------|--------|
B|--------|--------|--------|--------|--------|--------|--------|--------|--------|
G|--------|--------|--------|--------|--------|--------|--------|--------|--------|
D|--------|--------|--------|--------|--------|--------|--------|--------|--------|
A|--------|--------|--------|--------|--------|--------|--------|--------|--------|
E|--------|--------|--------|--------|--------|--------|--------|--------|--------|


E|--------|--------|--------|--------|--------|--------|--------|--------|--------|
B|--------|--------|--------|--------|--------|--------|--------|--------|--------|
G|--------|--------|--------|--------|--------|--------|--------|--------|--------|
D|--------|--------|--------|--------|--------|--------|--------|--------|--------|
A|--------|--------|--------|--------|--------|--------|--------|--------|--------|
E|--------|--------|--------|--------|--------|--------|--------|--------|--------|


E|--------|--------|--------|--------|--------|--------|--------|--------|--------|
B|--------|--------|--------|--------|--------|--------|--------|--------|--------|
G|--------|--------|--------|--------|--------|--------|--------|--------|--------|
D|--------|--------|--------|--------|--------|--------|--------|--------|--------|
A|--------|--------|--------|--------|--------|--------|--------|--------|--------|
E|--------|--------|--------|--------|--------|--------|--------|--------|--------|


E|--------|--------|--------|--------|--------|--------|--------|--------|--------|
B|--------|--------|--------|--------|--------|--------|--------|--------|--------|
G|--------|--------|--------|--------|--------|--------|--------|--------|--------|
D|--------|--------|--------|--------|--------|--------|--------|--------|--------|
A|--------|--------|--------|--------|--------|--------|--------|--------|--------|
E|--------|--------|--------|--------|--------|--------|--------|--------|--------|


E|--------|--------|--------|--------|--------|--------|--------|--------|--------|
B|--------|--------|--------|--------|--------|--------|--------|--------|--------|
G|--------|--------|--------|--------|--------|--------|--------|--------|--------|
D|--------|--------|--------|--------|--------|--------|--------|--------|--------|
A|--------|--------|--------|--------|--------|--------|--------|--------|--------|
E|--------|--------|--------|--------|--------|--------|--------|--------|--------|


E|--------|-----15----15--13---|--------|--------|--------|--------|--------|--------|
B|--------|-----15----15--15---|--------|--------|--------|--------|--------|--------|
G|--------|-----16----16--16---|--------|--------|--------|--------|--------|--------|
D|--------|--------------------|--------|--------|--------|--------|--------|--------|
A|--------|-----17----17--17---|--------|--------|--------|--------|--------|--------|
E|--------|-----15----15--13---|--------|--------|--------|--------|--------|--------|


E|--------|--------|------------8-----|-8--9-----9--10----10-11----11-------|--------|
B|--------|--------|---------------9--|-------10-------11-------12----------|--------|
G|--------|--------|------------8-----|----9--------10-------11-------------|--------|
D|--------|--------|------------------|-------------------------------------|--------|
A|--------|--------|------------------|-------------------------------------|--------|
E|--------|--------|------------------|-------------------------------------|--------|


E|--------|--------|--------|--------|--------|--------|--------|--------|--------|
B|--------|--------|--------|--------|--------|--------|--------|--------|--------|
G|--------|--------|--------|--------|--------|--------|--------|--------|--------|
D|--------|--------|--------|--------|--------|--------|--------|--------|--------|
A|--------|--------|--------|--------|--------|--------|--------|--------|--------|
E|--------|--------|--------|--------|--------|--------|--------|--------|--------|


E|--------|--------|--------|--------|--------|--------|--------|--------|--------|
B|--------|--------|--------|--------|--------|--------|--------|--------|--------|
G|--------|--------|--------|--------|--------|--------|--------|--------|--------|
D|--------|--------|--------|--------|--------|--------|--------|--------|--------|
A|--------|--------|--------|--------|--------|--------|--------|--------|--------|
E|--------|--------|--------|--------|--------|--------|--------|--------|--------|


E|--------|--------|--------|--------|--------|--------|--------|--------|--------|
B|--------|--------|--------|--------|--------|--------|--------|--------|--------|
G|--------|--------|--------|--------|--------|--------|--------|--------|--------|
D|--------|--------|--------|--------|--------|--------|--------|--------|--------|
A|--------|--------|--------|--------|--------|--------|--------|--------|--------|
E|--------|--------|--------|--------|--------|--------|--------|--------|--------|


E|--------|--------|--------|--------|--------|--------|--------|--------|--------|
B|--------|--------|--------|--------|--------|--------|--------|--------|--------|
G|--------|--------|--------|--------|--------|--------|--------|--------|--------|
D|--------|--------|--------|--------|--------|--------|--------|--------|--------|
A|--------|--------|--------|--------|--------|--------|--------|--------|--------|
E|--------|--------|--------|--------|--------|--------|--------|--------|--------|


E|--------|--------|--------|--------|--------|--------|--------|--------|--------|
B|--------|--------|--------|--------|--------|--------|--------|--------|--------|
G|--------|--------|--------|--------|--------|--------|--------|--------|--------|
D|--------|--------|--------|--------|--------|--------|--------|--------|--------|
A|--------|--------|--------|--------|--------|--------|--------|--------|--------|
E|--------|--------|--------|--------|--------|--------|--------|--------|--------|


E|--------|--------|--------|--------|--------|--------|--------|--------|--------|
B|--------|--------|--------|--------|--------|--------|--------|--------|--------|
G|--------|--------|--------|--------|--------|--------|--------|--------|--------|
D|--------|--------|--------|--------|--------|--------|--------|--------|--------|
A|--------|--------|--------|--------|--------|--------|--------|--------|--------|
E|--------|--------|--------|--------|--------|--------|--------|--------|--------|


E|--------|--------|--------|--------|--------|--------|--------|--------|--------|
B|--------|--------|--------|--------|--------|--------|--------|--------|--------|
G|--------|--------|--------|--------|--------|--------|--------|--------|--------|
D|--------|--------|--------|--------|--------|--------|--------|--------|--------|
A|--------|--------|--------|--------|--------|--------|--------|--------|--------|
E|--------|--------|--------|--------|--------|--------|--------|--------|--------|


E|--------|--------|--------|--------|--------|--------|--------|--------|
B|--------|--------|--------|--------|--------|--------|--------|--------|
G|--------|--------|--------|--------|--------|--------|--------|--------|
D|--------|--------|--------|--------|--------|--------|--------|--------|
A|--------|--------|--------|--------|--------|--------|--------|--------|
E|--------|--------|--------|--------|--------|--------|--------|--------|





Track 5: Dist. Gtr._Petrucci

E|--------|--------|--------|--------|--------|--------|--------|--------|--------|
B|--------|--------|--------|--------|--------|--------|--------|--------|--------|
G|--------|--------|--------|--------|--------|--------|--------|--------|--------|
D|--------|--------|--------|--------|--------|--------|--------|--------|--------|
A|--------|--------|--------|--------|--------|--------|--------|--------|--------|
E|--------|--------|--------|--------|--------|--------|--------|--------|--------|


E|--------|--------|--------|--------|--------|--------|--------|--------|--------|
B|--------|--------|--------|--------|--------|--------|--------|--------|--------|
G|--------|--------|--------|--------|--------|--------|--------|--------|--------|
D|--------|--------|--------|--------|--------|--------|--------|--------|--------|
A|--------|--------|--------|--------|--------|--------|--------|--------|--------|
E|--------|--------|--------|--------|--------|--------|--------|--------|--------|


E|--------|--------|--------|--------|--------|--------|--------|--------|--------|
B|--------|--------|--------|--------|--------|--------|--------|--------|--------|
G|--------|--------|--------|--------|--------|--------|--------|--------|--------|
D|--------|--------|--------|--------|--------|--------|--------|--------|--------|
A|--------|--------|--------|--------|--------|--------|--------|--------|--------|
E|--------|--------|--------|--------|--------|--------|--------|--------|--------|


E|--------|--------|--------|--------|--------|--------|--------|--------|--------|
B|--------|--------|--------|--------|--------|--------|--------|--------|--------|
G|--------|--------|--------|--------|--------|--------|--------|--------|--------|
D|--------|--------|--------|--------|--------|--------|--------|--------|--------|
A|--------|--------|--------|--------|--------|--------|--------|--------|--------|
E|--------|--------|--------|--------|--------|--------|--------|--------|--------|


E|--------|--------|--------|--------|--------|--------|--------|--------|--------|
B|--------|--------|--------|--------|--------|--------|--------|--------|--------|
G|--------|--------|--------|--------|--------|--------|--------|--------|--------|
D|--------|--------|--------|--------|--------|--------|--------|--------|--------|
A|--------|--------|--------|--------|--------|--------|--------|--------|--------|
E|--------|--------|--------|--------|--------|--------|--------|--------|--------|


E|--------|--------|--------|--------|--------|--------|--------|--------|--------|
B|--------|--------|--------|--------|--------|--------|--------|--------|--------|
G|--------|--------|--------|--------|--------|--------|--------|--------|--------|
D|--------|--------|--------|--------|--------|--------|--------|--------|--------|
A|--------|--------|--------|--------|--------|--------|--------|--------|--------|
E|--------|--------|--------|--------|--------|--------|--------|--------|--------|


E|--------|--------|--------|--------|--------|--------|--------|--------|--------|
B|--------|--------|--------|--------|--------|--------|--------|--------|--------|
G|--------|--------|--------|--------|--------|--------|--------|--------|--------|
D|--------|--------|--------|--------|--------|--------|--------|--------|--------|
A|--------|--------|--------|--------|--------|--------|--------|--------|--------|
E|--------|--------|--------|--------|--------|--------|--------|--------|--------|


E|--------|--------|--------|--------|--------|--------|--------|--------|--------|
B|--------|--------|--------|--------|--------|--------|--------|--------|--------|
G|--------|--------|--------|--------|--------|--------|--------|--------|--------|
D|--------|--------|--------|--------|--------|--------|--------|--------|--------|
A|--------|--------|--------|--------|--------|--------|--------|--------|--------|
E|--------|--------|--------|--------|--------|--------|--------|--------|--------|


E|--------|--------|--------|--------|--------|--------|--------|--------|--------|
B|--------|--------|--------|--------|--------|--------|--------|--------|--------|
G|--------|--------|--------|--------|--------|--------|--------|--------|--------|
D|--------|--------|--------|--------|--------|--------|--------|--------|--------|
A|--------|--------|--------|--------|--------|--------|--------|--------|--------|
E|--------|--------|--------|--------|--------|--------|--------|--------|--------|


E|--------|--------|--------|--------|--------|--------|--------|--------|--------|
B|--------|--------|--------|--------|--------|--------|--------|--------|--------|
G|--------|--------|--------|--------|--------|--------|--------|--------|--------|
D|--------|--------|--------|--------|--------|--------|--------|--------|--------|
A|--------|--------|--------|--------|--------|--------|--------|--------|--------|
E|--------|--------|--------|--------|--------|--------|--------|--------|--------|


E|--------|--------|--------|--------|--------|--------|--------|--------|--------|
B|--------|--------|--------|--------|--------|--------|--------|--------|--------|
G|--------|--------|--------|--------|--------|--------|--------|--------|--------|
D|--------|--------|--------|--------|--------|--------|--------|--------|--------|
A|--------|--------|--------|--------|--------|--------|--------|--------|--------|
E|--------|--------|--------|--------|--------|--------|--------|--------|--------|


E|--------|--------|--------|--------|--------|--------|--------|--------|--------|
B|--------|--------|--------|--------|--------|--------|--------|--------|--------|
G|--------|--------|--------|--------|--------|--------|--------|--------|--------|
D|--------|--------|--------|--------|--------|--------|--------|--------|--------|
A|--------|--------|--------|--------|--------|--------|--------|--------|--------|
E|--------|--------|--------|--------|--------|--------|--------|--------|--------|


E|--------|--------|--------|--------|--------|-----------------|--------------------|
B|--------|--------|--------|--------|--------|-----------------|--------------------|
G|--------|--------|--------|--------|--------|-----------------|--------------------|
D|--------|--------|--------|--------|--------|-----------------|--------6--8--9--8--|
A|--------|--------|--------|--------|--------|-----------------|--------------------|
E|--------|--------|--------|--------|--------|-----------------|--------------------|


E|-----------------------------------------|-------------------------------------------|
B|-----------------------------------------|-------------------------------------------|
G|----------------6--7----6------6--7--6---|--------------------------------9--10---9--|
D|-6--8--6--8--9--------------9------------|-----9--11-12-11-9--11-9--11-12------------|
A|-----------------------------------------|-------------------------------------------|
E|-----------------------------------------|-------------------------------------------|


E|------------------------------------------|-----------------------------------|--------|
B|------------------------------------------|-----------------------------------|--------|
G|-------9--10-9----------------------------|----12-13---12-----16---15--13-----|--------|
D|----12------------12-14-15-14-12-14-12-14-|-15-------------15-----------------|--------|
A|------------------------------------------|-----------------------------------|--------|
E|------------------------------------------|-----------------------------------|--------|


E|--------|--------|--------|--------|--------|--------|--------|--------|--------|
B|--------|--------|--------|--------|--------|--------|--------|--------|--------|
G|--------|--------|--------|--------|--------|--------|--------|--------|--------|
D|--------|--------|--------|--------|--------|--------|--------|--------|--------|
A|--------|--------|--------|--------|--------|--------|--------|--------|--------|
E|--------|--------|--------|--------|--------|--------|--------|--------|--------|


E|--------|--------|--------|--------|--------|--------|--------|--------|--------|
B|--------|--------|--------|--------|--------|--------|--------|--------|--------|
G|--------|--------|--------|--------|--------|--------|--------|--------|--------|
D|--------|--------|--------|--------|--------|--------|--------|--------|--------|
A|--------|--------|--------|--------|--------|--------|--------|--------|--------|
E|--------|--------|--------|--------|--------|--------|--------|--------|--------|


E|--------|--------|--------|--------|--------|--------|--------|--------|--------|
B|--------|--------|--------|--------|--------|--------|--------|--------|--------|
G|--------|--------|--------|--------|--------|--------|--------|--------|--------|
D|--------|--------|--------|--------|--------|--------|--------|--------|--------|
A|--------|--------|--------|--------|--------|--------|--------|--------|--------|
E|--------|--------|--------|--------|--------|--------|--------|--------|--------|


E|--------|--------|--------|--------|--------|--------|--------|--------|--------|
B|--------|--------|--------|--------|--------|--------|--------|--------|--------|
G|--------|--------|--------|--------|--------|--------|--------|--------|--------|
D|--------|--------|--------|--------|--------|--------|--------|--------|--------|
A|--------|--------|--------|--------|--------|--------|--------|--------|--------|
E|--------|--------|--------|--------|--------|--------|--------|--------|--------|


E|--------|--------|--------|--------|--------|--------|--------|--------|--------|
B|--------|--------|--------|--------|--------|--------|--------|--------|--------|
G|--------|--------|--------|--------|--------|--------|--------|--------|--------|
D|--------|--------|--------|--------|--------|--------|--------|--------|--------|
A|--------|--------|--------|--------|--------|--------|--------|--------|--------|
E|--------|--------|--------|--------|--------|--------|--------|--------|--------|


E|--------|--------|--------|--------|--------|--------|--------|--------|--------|
B|--------|--------|--------|--------|--------|--------|--------|--------|--------|
G|--------|--------|--------|--------|--------|--------|--------|--------|--------|
D|--------|--------|--------|--------|--------|--------|--------|--------|--------|
A|--------|--------|--------|--------|--------|--------|--------|--------|--------|
E|--------|--------|--------|--------|--------|--------|--------|--------|--------|


E|--------------------------------|-------------------------------------|-------------------------------------|
B|------9---8------8--9-------11--|-----8----------8----------------9---|-8------8--9-------11------8---------|
G|-------------10-----------------|---------10-8------10--8-------------|----10-------------------------10-8--|
D|------------------------10------|-10-----------------------11---------|---------------10------10------------|
A|--------------------------------|------------------------------11-----|-------------------------------------|
E|--------------------------------|-------------------------------------|-------------------------------------|


E|-------------------------------------|-----------------------------------|-------------------------------------|
B|----8------------------9---8------8--|-9-------11------8----------8------|-----------9---8------8--9-------11--|
G|-------10---------------------10-----|---------------------10-8------10--|-8----------------10-----------------|
D|-----------10------------------------|-----10------10--------------------|----11-----------------------10------|
A|---------------11--------------------|-----------------------------------|--------11---------------------------|
E|-------------------13----------------|-----------------------------------|-------------------------------------|


E|----------------|--------|--------|-----7--5--0--9--7--0--10-9--0--12-10-0--14-12-|
B|----------------|--------|--------|-----------------------------------------------|
G|----------------|--------|--------|-----------------------------------------------|
D|-10-------------|--------|--------|-----------------------------------------------|
A|----------------|--------|--------|-----------------------------------------------|
E|----------------|--------|--------|-----------------------------------------------|


E|-0--0--12-10-0--16-12-0--12-10-0--16-12-0--12-10-|-0--0--19-17-0--17-16-0--16-14-0--14-12-0--12-10-|
B|-------------------------------------------------|-------------------------------------------------|
G|-------------------------------------------------|-------------------------------------------------|
D|-------------------------------------------------|-------------------------------------------------|
A|-------------------------------------------------|-------------------------------------------------|
E|-------------------------------------------------|-------------------------------------------------|


E|-----------------------------------------------|-------------------------------------------------|
B|-----------------------------------------------|-------------------------------------------------|
G|-----------------------------------------------|-------------------------------------------------|
D|-----------------------------------------------|----------------------------------------------17-|
A|--------------------------------16-17-16----16-|-17-16----16-17-19-17-19-20-19-17-19-17-19-20----|
E|-----16-18-19-18-16-18-16-18-19----------19----|-------19----------------------------------------|


E|-------------------------------------------------|----------------------------19-18-16----------24-|
B|-------------------------------------------------|-------------------------------------------------|
G|-------------------------------------------------|----------21-19-18-------------------21-19-18----|
D|-18-17----17-18-17----17-18-20-21-20-18----------|-------------------21-20-18----------------------|
A|-------20----------20----------------------------|-19-17-16----------------------------------------|
E|----------------------------------------19-18-16-|-------------------------------------------------|


E|-22-21-24-18-21----------------------------------|-------------------------|
B|----------------20-23-17-20----------------------|-------------------------|
G|----------------------------18-21-15-18----------|-------------------------|
D|----------------------------------------17-20-14-|-17----------------------|
A|-------------------------------------------------|----16-19-13-16----------|
E|-------------------------------------------------|-------------------------|





Track 6: Synth. - Organ2_Rudess

E|--------|--------|--------|--------|--------|--------|--------|--------|--------|
B|--------|--------|--------|--------|--------|--------|--------|--------|--------|
G|--------|--------|--------|--------|--------|--------|--------|--------|--------|
D|--------|--------|--------|--------|--------|--------|--------|--------|--------|
A|--------|--------|--------|--------|--------|--------|--------|--------|--------|
E|--------|--------|--------|--------|--------|--------|--------|--------|--------|


E|--------|--------|--------|--------|--------|--------|--------|--------|--------|
B|--------|--------|--------|--------|--------|--------|--------|--------|--------|
G|--------|--------|--------|--------|--------|--------|--------|--------|--------|
D|--------|--------|--------|--------|--------|--------|--------|--------|--------|
A|--------|--------|--------|--------|--------|--------|--------|--------|--------|
E|--------|--------|--------|--------|--------|--------|--------|--------|--------|


E|--------|--------|--------|--------|--------|--------|--------|--------|--------|
B|--------|--------|--------|--------|--------|--------|--------|--------|--------|
G|--------|--------|--------|--------|--------|--------|--------|--------|--------|
D|--------|--------|--------|--------|--------|--------|--------|--------|--------|
A|--------|--------|--------|--------|--------|--------|--------|--------|--------|
E|--------|--------|--------|--------|--------|--------|--------|--------|--------|


E|--------|--------|--------|--------|--------|--------|--------|--------|--------|
B|--------|--------|--------|--------|--------|--------|--------|--------|--------|
G|--------|--------|--------|--------|--------|--------|--------|--------|--------|
D|--------|--------|--------|--------|--------|--------|--------|--------|--------|
A|--------|--------|--------|--------|--------|--------|--------|--------|--------|
E|--------|--------|--------|--------|--------|--------|--------|--------|--------|


E|--------|--------|--------|--------|--------|--------|--------|--------|--------|
B|--------|--------|--------|--------|--------|--------|--------|--------|--------|
G|--------|--------|--------|--------|--------|--------|--------|--------|--------|
D|--------|--------|--------|--------|--------|--------|--------|--------|--------|
A|--------|--------|--------|--------|--------|--------|--------|--------|--------|
E|--------|--------|--------|--------|--------|--------|--------|--------|--------|


E|--------|--------|--------|--------|--------|--------|--------|--------|--------|
B|--------|--------|--------|--------|--------|--------|--------|--------|--------|
G|--------|--------|--------|--------|--------|--------|--------|--------|--------|
D|--------|--------|--------|--------|--------|--------|--------|--------|--------|
A|--------|--------|--------|--------|--------|--------|--------|--------|--------|
E|--------|--------|--------|--------|--------|--------|--------|--------|--------|


E|--------|--------|--------|--------|--------|--------|--------|--------|--------|
B|--------|--------|--------|--------|--------|--------|--------|--------|--------|
G|--------|--------|--------|--------|--------|--------|--------|--------|--------|
D|--------|--------|--------|--------|--------|--------|--------|--------|--------|
A|--------|--------|--------|--------|--------|--------|--------|--------|--------|
E|--------|--------|--------|--------|--------|--------|--------|--------|--------|


E|--------|--------|--------|--------|--------|--------|--------|--------|--------|
B|--------|--------|--------|--------|--------|--------|--------|--------|--------|
G|--------|--------|--------|--------|--------|--------|--------|--------|--------|
D|--------|--------|--------|--------|--------|--------|--------|--------|--------|
A|--------|--------|--------|--------|--------|--------|--------|--------|--------|
E|--------|--------|--------|--------|--------|--------|--------|--------|--------|


E|--------|--------|--------|--------|--------|--------|--------|--------|--------|
B|--------|--------|--------|--------|--------|--------|--------|--------|--------|
G|--------|--------|--------|--------|--------|--------|--------|--------|--------|
D|--------|--------|--------|--------|--------|--------|--------|--------|--------|
A|--------|--------|--------|--------|--------|--------|--------|--------|--------|
E|--------|--------|--------|--------|--------|--------|--------|--------|--------|


E|--------|--------|--------|--------|--------|--------|--------|--------|--------|
B|--------|--------|--------|--------|--------|--------|--------|--------|--------|
G|--------|--------|--------|--------|--------|--------|--------|--------|--------|
D|--------|--------|--------|--------|--------|--------|--------|--------|--------|
A|--------|--------|--------|--------|--------|--------|--------|--------|--------|
E|--------|--------|--------|--------|--------|--------|--------|--------|--------|


E|--------|--------|--------|--------|--------|--------|--------|--------|--------|
B|--------|--------|--------|--------|--------|--------|--------|--------|--------|
G|--------|--------|--------|--------|--------|--------|--------|--------|--------|
D|--------|--------|--------|--------|--------|--------|--------|--------|--------|
A|--------|--------|--------|--------|--------|--------|--------|--------|--------|
E|--------|--------|--------|--------|--------|--------|--------|--------|--------|


E|--------|--------|--------|--------|--------|--------|--------|--------|--------|
B|--------|--------|--------|--------|--------|--------|--------|--------|--------|
G|--------|--------|--------|--------|--------|--------|--------|--------|--------|
D|--------|--------|--------|--------|--------|--------|--------|--------|--------|
A|--------|--------|--------|--------|--------|--------|--------|--------|--------|
E|--------|--------|--------|--------|--------|--------|--------|--------|--------|


E|--------|--------|--------|--------|--------|--------|--------|--------|--------|
B|--------|--------|--------|--------|--------|--------|--------|--------|--------|
G|--------|--------|--------|--------|--------|--------|--------|--------|--------|
D|--------|--------|--------|--------|--------|--------|--------|--------|--------|
A|--------|--------|--------|--------|--------|--------|--------|--------|--------|
E|--------|--------|--------|--------|--------|--------|--------|--------|--------|


E|--------|--------|--------|--------|--------|--------|---------------------|------------------|
B|--------|--------|--------|--------|--------|--------|---------------18----|-------18---18----|
G|--------|--------|--------|--------|--------|--------|---------------17----|-------17---17----|
D|--------|--------|--------|--------|--------|--------|---------------------|------------------|
A|--------|--------|--------|--------|--------|--------|---------------20----|-------20---20----|
E|--------|--------|--------|--------|--------|--------|---------------20----|-------20---20----|


E|-------17----|-------17----|-------18---18----|-------18-----|---------------------18-----|
B|-------19----|-------19----|-------18---18----|-------18-----|---------------------19-----|
G|-------20----|-------20----|-------18---18----|-------18-----|---------------------20-----|
D|-------22----|-------22----|------------------|--------------|-----------------1415-------|
A|-------24----|-------24----|-------25---25----|-------25-----|-----------141517----27-----|
E|-------23----|-------23----|-------25---25----|-------25-----|-----131517----------25-----|


E|-18---18-----|-----13-----|-----13-----|-17-----|-17-----18--|------------18--|--------18---|
B|-19---19-----|-----13-----|-----13-----|-19-----|-19-----18--|------------18--|--------19---|
G|-20---20-----|------------|------------|-20-----|-20-----18--|------------18--|--------20---|
D|-------------|------------|------------|-22-----|-22---------|----------------|-------------|
A|-27---27-----|------------|------------|--------|------------|----------------|-------------|
E|-25---25-----|------------|------------|--------|------------|----------------|-------------|


E|--------18---|--------|--------|--------|--------|--------|--------|--------|--------|
B|--------19---|--------|--------|--------|--------|--------|--------|--------|--------|
G|--------20---|--------|--------|--------|--------|--------|--------|--------|--------|
D|-------------|--------|--------|--------|--------|--------|--------|--------|--------|
A|-------------|--------|--------|--------|--------|--------|--------|--------|--------|
E|-------------|--------|--------|--------|--------|--------|--------|--------|--------|


E|--------|--------|--------|--------|--------|--------|--------|--------|--------|
B|--------|--------|--------|--------|--------|--------|--------|--------|--------|
G|--------|--------|--------|--------|--------|--------|--------|--------|--------|
D|--------|--------|--------|--------|--------|--------|--------|--------|--------|
A|--------|--------|--------|--------|--------|--------|--------|--------|--------|
E|--------|--------|--------|--------|--------|--------|--------|--------|--------|


E|--------|--------|--------|--------|--------|--------|--------|--------|--------|
B|--------|--------|--------|--------|--------|--------|--------|--------|--------|
G|--------|--------|--------|--------|--------|--------|--------|--------|--------|
D|--------|--------|--------|--------|--------|--------|--------|--------|--------|
A|--------|--------|--------|--------|--------|--------|--------|--------|--------|
E|--------|--------|--------|--------|--------|--------|--------|--------|--------|


E|--------|--------|--------|--------|--------|--------|--------|--------|--------|
B|--------|--------|--------|--------|--------|--------|--------|--------|--------|
G|--------|--------|--------|--------|--------|--------|--------|--------|--------|
D|--------|--------|--------|--------|--------|--------|--------|--------|--------|
A|--------|--------|--------|--------|--------|--------|--------|--------|--------|
E|--------|--------|--------|--------|--------|--------|--------|--------|--------|


E|--------|--------|--------|--------|--------|--------|--------|--------|--------|
B|--------|--------|--------|--------|--------|--------|--------|--------|--------|
G|--------|--------|--------|--------|--------|--------|--------|--------|--------|
D|--------|--------|--------|--------|--------|--------|--------|--------|--------|
A|--------|--------|--------|--------|--------|--------|--------|--------|--------|
E|--------|--------|--------|--------|--------|--------|--------|--------|--------|


E|--------|--------|--------|--------|--------|--------|--------|--------|--------|
B|--------|--------|--------|--------|--------|--------|--------|--------|--------|
G|--------|--------|--------|--------|--------|--------|--------|--------|--------|
D|--------|--------|--------|--------|--------|--------|--------|--------|--------|
A|--------|--------|--------|--------|--------|--------|--------|--------|--------|
E|--------|--------|--------|--------|--------|--------|--------|--------|--------|


E|--------|
B|--------|
G|--------|
D|--------|
A|--------|
E|--------|





Track 7: Cln. Gtr._Petrucci

E|--------|--------|--------|--------|--------|--------|--------|--------|--------|
B|--------|--------|--------|--------|--------|--------|--------|--------|--------|
G|--------|--------|--------|--------|--------|--------|--------|--------|--------|
D|--------|--------|--------|--------|--------|--------|--------|--------|--------|
A|--------|--------|--------|--------|--------|--------|--------|--------|--------|
E|--------|--------|--------|--------|--------|--------|--------|--------|--------|


E|--------|--------|--------|--------|--------|--------|--------|--------|--------|
B|--------|--------|--------|--------|--------|--------|--------|--------|--------|
G|--------|--------|--------|--------|--------|--------|--------|--------|--------|
D|--------|--------|--------|--------|--------|--------|--------|--------|--------|
A|--------|--------|--------|--------|--------|--------|--------|--------|--------|
E|--------|--------|--------|--------|--------|--------|--------|--------|--------|


E|--------|--------|--------|--------|--------|--------|--------|--------|--------|
B|--------|--------|--------|--------|--------|--------|--------|--------|--------|
G|--------|--------|--------|--------|--------|--------|--------|--------|--------|
D|--------|--------|--------|--------|--------|--------|--------|--------|--------|
A|--------|--------|--------|--------|--------|--------|--------|--------|--------|
E|--------|--------|--------|--------|--------|--------|--------|--------|--------|


E|--------|--------|--------|--------|--------|--------|--------|--------|--------|
B|--------|--------|--------|--------|--------|--------|--------|--------|--------|
G|--------|--------|--------|--------|--------|--------|--------|--------|--------|
D|--------|--------|--------|--------|--------|--------|--------|--------|--------|
A|--------|--------|--------|--------|--------|--------|--------|--------|--------|
E|--------|--------|--------|--------|--------|--------|--------|--------|--------|


E|--------|--------|--------|--------|--------|--------|--------|--------|--------|
B|--------|--------|--------|--------|--------|--------|--------|--------|--------|
G|--------|--------|--------|--------|--------|--------|--------|--------|--------|
D|--------|--------|--------|--------|--------|--------|--------|--------|--------|
A|--------|--------|--------|--------|--------|--------|--------|--------|--------|
E|--------|--------|--------|--------|--------|--------|--------|--------|--------|


E|--------|--------|--------|--------|--------|--------|--------|--------|--------|
B|--------|--------|--------|--------|--------|--------|--------|--------|--------|
G|--------|--------|--------|--------|--------|--------|--------|--------|--------|
D|--------|--------|--------|--------|--------|--------|--------|--------|--------|
A|--------|--------|--------|--------|--------|--------|--------|--------|--------|
E|--------|--------|--------|--------|--------|--------|--------|--------|--------|


E|--------|--------|--------|--------|--------|--------|--------|--------|--------|
B|--------|--------|--------|--------|--------|--------|--------|--------|--------|
G|--------|--------|--------|--------|--------|--------|--------|--------|--------|
D|--------|--------|--------|--------|--------|--------|--------|--------|--------|
A|--------|--------|--------|--------|--------|--------|--------|--------|--------|
E|--------|--------|--------|--------|--------|--------|--------|--------|--------|


E|--------|--------|--------|--------|--------|--------|--------|--------|--------|
B|--------|--------|--------|--------|--------|--------|--------|--------|--------|
G|--------|--------|--------|--------|--------|--------|--------|--------|--------|
D|--------|--------|--------|--------|--------|--------|--------|--------|--------|
A|--------|--------|--------|--------|--------|--------|--------|--------|--------|
E|--------|--------|--------|--------|--------|--------|--------|--------|--------|


E|--------|--------|--------|--------|--------|--------|--------|--------|--------|
B|--------|--------|--------|--------|--------|--------|--------|--------|--------|
G|--------|--------|--------|--------|--------|--------|--------|--------|--------|
D|--------|--------|--------|--------|--------|--------|--------|--------|--------|
A|--------|--------|--------|--------|--------|--------|--------|--------|--------|
E|--------|--------|--------|--------|--------|--------|--------|--------|--------|


E|--------|--------|--------|--------|--------|--------|--------|--------|--------|
B|--------|--------|--------|--------|--------|--------|--------|--------|--------|
G|--------|--------|--------|--------|--------|--------|--------|--------|--------|
D|--------|--------|--------|--------|--------|--------|--------|--------|--------|
A|--------|--------|--------|--------|--------|--------|--------|--------|--------|
E|--------|--------|--------|--------|--------|--------|--------|--------|--------|


E|--------|--------|--------|--------|--------|--------|--------|--------|--------|
B|--------|--------|--------|--------|--------|--------|--------|--------|--------|
G|--------|--------|--------|--------|--------|--------|--------|--------|--------|
D|--------|--------|--------|--------|--------|--------|--------|--------|--------|
A|--------|--------|--------|--------|--------|--------|--------|--------|--------|
E|--------|--------|--------|--------|--------|--------|--------|--------|--------|


E|--------|--------|--------|--------|--------|--------|--------|--------|--------|
B|--------|--------|--------|--------|--------|--------|--------|--------|--------|
G|--------|--------|--------|--------|--------|--------|--------|--------|--------|
D|--------|--------|--------|--------|--------|--------|--------|--------|--------|
A|--------|--------|--------|--------|--------|--------|--------|--------|--------|
E|--------|--------|--------|--------|--------|--------|--------|--------|--------|


E|--------|--------|--------|--------|--------|--------|--------|--------|--------|
B|--------|--------|--------|--------|--------|--------|--------|--------|--------|
G|--------|--------|--------|--------|--------|--------|--------|--------|--------|
D|--------|--------|--------|--------|--------|--------|--------|--------|--------|
A|--------|--------|--------|--------|--------|--------|--------|--------|--------|
E|--------|--------|--------|--------|--------|--------|--------|--------|--------|


E|--------|--------|--------|--------|--------|--------|--------|--------|--------|
B|--------|--------|--------|--------|--------|--------|--------|--------|--------|
G|--------|--------|--------|--------|--------|--------|--------|--------|--------|
D|--------|--------|--------|--------|--------|--------|--------|--------|--------|
A|--------|--------|--------|--------|--------|--------|--------|--------|--------|
E|--------|--------|--------|--------|--------|--------|--------|--------|--------|


E|--------|--------|--------|--------|--------|--------|--------|--------|--------|
B|--------|--------|--------|--------|--------|--------|--------|--------|--------|
G|--------|--------|--------|--------|--------|--------|--------|--------|--------|
D|--------|--------|--------|--------|--------|--------|--------|--------|--------|
A|--------|--------|--------|--------|--------|--------|--------|--------|--------|
E|--------|--------|--------|--------|--------|--------|--------|--------|--------|


E|--------|--------|--------|--------|--------|--------|--------|--------|--------|
B|--------|--------|--------|--------|--------|--------|--------|--------|--------|
G|--------|--------|--------|--------|--------|--------|--------|--------|--------|
D|--------|--------|--------|--------|--------|--------|--------|--------|--------|
A|--------|--------|--------|--------|--------|--------|--------|--------|--------|
E|--------|--------|--------|--------|--------|--------|--------|--------|--------|


E|--------|--------|--------|--------|--------|--------|--------|--------|--------|
B|--------|--------|--------|--------|--------|--------|--------|--------|--------|
G|--------|--------|--------|--------|--------|--------|--------|--------|--------|
D|--------|--------|--------|--------|--------|--------|--------|--------|--------|
A|--------|--------|--------|--------|--------|--------|--------|--------|--------|
E|--------|--------|--------|--------|--------|--------|--------|--------|--------|


E|--------|--------|--------|--------|--------|--------|--------|--------|--------|
B|--------|--------|--------|--------|--------|--------|--------|--------|--------|
G|--------|--------|--------|--------|--------|--------|--------|--------|--------|
D|--------|--------|--------|--------|--------|--------|--------|--------|--------|
A|--------|--------|--------|--------|--------|--------|--------|--------|--------|
E|--------|--------|--------|--------|--------|--------|--------|--------|--------|


E|--------|--------|--------|--------7-------|-------7---8---5-----------3-------|
B|--------|--------|--------|--------8----8--|-------8---9---6----6------4----4--|
G|--------|--------|--------|--------7----8--|-------7---8---5----6------3----4--|
D|--------|--------|--------|-------------8--|--------------------6-----------4--|
A|--------|--------|--------|----------------|-----------------------------------|
E|--------|--------|--------|----------------|-----------------------------------|


E|-------7-----------7---8---9---9--9--|-------8-------7-----------7---8---|-5-----------3-----------7-------|
B|-------8----8------8---9---10--10-10-|-------9-------8----8------8---9---|-6----6------4----4------8----8--|
G|-------7----8------7---8---9---9--9--|-------8-------7----8------7---8---|-5----6------3----4------7----8--|
D|------------8------------------------|--------------------8--------------|------6-----------4-----------8--|
A|-------------------------------------|-----------------------------------|---------------------------------|
E|-------------------------------------|-----------------------------------|---------------------------------|


E|-------7---8---9---9--9-----9---9--9-----9---|-----8----8-----------------------------|
B|-------8---9---10--10-10----10--10-10----10--|-----9-------9-----9--------7-----------|
G|-------7---8---9---9--9-----9---9--9-----9---|-----8----------8-----9--------7--------|
D|---------------------------------------------|-------------------------10-------8-----|
A|---------------------------------------------|-------------------------------------9--|
E|---------------------------------------------|----------------------------------------|


E|----------------------7-----------------7--------|----------7--10-9--7--9--7-----7-----------------|
B|-------------9--7--5-----7--5--9--7--5-----7--5--|-9--7--5--------------------10----10-9--10-9--7--|
G|-6-----------------------------------------------|-------------------------------------------------|
D|----7--------------------------------------------|-------------------------------------------------|
A|-------8-----------------------------------------|-------------------------------------------------|
E|----------9--------------------------------------|-------------------------------------------------|


E|--------------------|--------|--------|--------|--------|--------|--------|--------|
B|-9--7-----0---------|--------|--------|--------|--------|--------|--------|--------|
G|-------9------------|--------|--------|--------|--------|--------|--------|--------|
D|--------------------|--------|--------|--------|--------|--------|--------|--------|
A|--------------------|--------|--------|--------|--------|--------|--------|--------|
E|--------------------|--------|--------|--------|--------|--------|--------|--------|


E|--------|--------|--------|--------|--------|--------|--------|--------|--------|
B|--------|--------|--------|--------|--------|--------|--------|--------|--------|
G|--------|--------|--------|--------|--------|--------|--------|--------|--------|
D|--------|--------|--------|--------|--------|--------|--------|--------|--------|
A|--------|--------|--------|--------|--------|--------|--------|--------|--------|
E|--------|--------|--------|--------|--------|--------|--------|--------|--------|


E|--------|
B|--------|
G|--------|
D|--------|
A|--------|
E|--------|





Track 8: Dist. Gtr._Petrucci

E|--------|--------|--------|--------|--------|--------|--------|--------|--------|
B|--------|--------|--------|--------|--------|--------|--------|--------|--------|
G|--------|--------|--------|--------|--------|--------|--------|--------|--------|
D|--------|--------|--------|--------|--------|--------|--------|--------|--------|
A|--------|--------|--------|--------|--------|--------|--------|--------|--------|
E|--------|--------|--------|--------|--------|--------|--------|--------|--------|


E|--------|--------|--------|--------|--------|--------|--------|--------|--------|
B|--------|--------|--------|--------|--------|--------|--------|--------|--------|
G|--------|--------|--------|--------|--------|--------|--------|--------|--------|
D|--------|--------|--------|--------|--------|--------|--------|--------|--------|
A|--------|--------|--------|--------|--------|--------|--------|--------|--------|
E|--------|--------|--------|--------|--------|--------|--------|--------|--------|


E|--------|--------|--------|--------|--------|--------|--------|--------|--------|
B|--------|--------|--------|--------|--------|--------|--------|--------|--------|
G|--------|--------|--------|--------|--------|--------|--------|--------|--------|
D|--------|--------|--------|--------|--------|--------|--------|--------|--------|
A|--------|--------|--------|--------|--------|--------|--------|--------|--------|
E|--------|--------|--------|--------|--------|--------|--------|--------|--------|


E|--------|--------|--------|--------|--------|--------|--------|--------|--------|
B|--------|--------|--------|--------|--------|--------|--------|--------|--------|
G|--------|--------|--------|--------|--------|--------|--------|--------|--------|
D|--------|--------|--------|--------|--------|--------|--------|--------|--------|
A|--------|--------|--------|--------|--------|--------|--------|--------|--------|
E|--------|--------|--------|--------|--------|--------|--------|--------|--------|


E|--------|--------|--------|--------|--------|--------|--------|--------|--------|
B|--------|--------|--------|--------|--------|--------|--------|--------|--------|
G|--------|--------|--------|--------|--------|--------|--------|--------|--------|
D|--------|--------|--------|--------|--------|--------|--------|--------|--------|
A|--------|--------|--------|--------|--------|--------|--------|--------|--------|
E|--------|--------|--------|--------|--------|--------|--------|--------|--------|


E|--------|--------|--------|--------|--------|--------|--------|--------|--------|
B|--------|--------|--------|--------|--------|--------|--------|--------|--------|
G|--------|--------|--------|--------|--------|--------|--------|--------|--------|
D|--------|--------|--------|--------|--------|--------|--------|--------|--------|
A|--------|--------|--------|--------|--------|--------|--------|--------|--------|
E|--------|--------|--------|--------|--------|--------|--------|--------|--------|


E|--------|--------|--------|--------|--------|--------|--------|--------|--------|
B|--------|--------|--------|--------|--------|--------|--------|--------|--------|
G|--------|--------|--------|--------|--------|--------|--------|--------|--------|
D|--------|--------|--------|--------|--------|--------|--------|--------|--------|
A|--------|--------|--------|--------|--------|--------|--------|--------|--------|
E|--------|--------|--------|--------|--------|--------|--------|--------|--------|


E|--------|--------|--------|--------|--------|--------|--------|--------|--------|
B|--------|--------|--------|--------|--------|--------|--------|--------|--------|
G|--------|--------|--------|--------|--------|--------|--------|--------|--------|
D|--------|--------|--------|--------|--------|--------|--------|--------|--------|
A|--------|--------|--------|--------|--------|--------|--------|--------|--------|
E|--------|--------|--------|--------|--------|--------|--------|--------|--------|


E|--------|--------|--------|--------|--------|--------|--------|--------|--------|
B|--------|--------|--------|--------|--------|--------|--------|--------|--------|
G|--------|--------|--------|--------|--------|--------|--------|--------|--------|
D|--------|--------|--------|--------|--------|--------|--------|--------|--------|
A|--------|--------|--------|--------|--------|--------|--------|--------|--------|
E|--------|--------|--------|--------|--------|--------|--------|--------|--------|


E|--------|--------|--------|--------|--------|--------|--------|--------|--------|
B|--------|--------|--------|--------|--------|--------|--------|--------|--------|
G|--------|--------|--------|--------|--------|--------|--------|--------|--------|
D|--------|--------|--------|--------|--------|--------|--------|--------|--------|
A|--------|--------|--------|--------|--------|--------|--------|--------|--------|
E|--------|--------|--------|--------|--------|--------|--------|--------|--------|


E|--------|--------|--------|--------|--------|--------|--------|--------|--------|
B|--------|--------|--------|--------|--------|--------|--------|--------|--------|
G|--------|--------|--------|--------|--------|--------|--------|--------|--------|
D|--------|--------|--------|--------|--------|--------|--------|--------|--------|
A|--------|--------|--------|--------|--------|--------|--------|--------|--------|
E|--------|--------|--------|--------|--------|--------|--------|--------|--------|


E|--------|--------|--------|--------|--------|--------|--------|--------|--------|
B|--------|--------|--------|--------|--------|--------|--------|--------|--------|
G|--------|--------|--------|--------|--------|--------|--------|--------|--------|
D|--------|--------|--------|--------|--------|--------|--------|--------|--------|
A|--------|--------|--------|--------|--------|--------|--------|--------|--------|
E|--------|--------|--------|--------|--------|--------|--------|--------|--------|


E|--------|--------|--------|--------|--------|--------|--------|--------|--------|
B|--------|--------|--------|--------|--------|--------|--------|--------|--------|
G|--------|--------|--------|--------|--------|--------|--------|--------|--------|
D|--------|--------|--------|--------|--------|--------|--------|--------|--------|
A|--------|--------|--------|--------|--------|--------|--------|--------|--------|
E|--------|--------|--------|--------|--------|--------|--------|--------|--------|


E|--------|--------|--------|--------|--------|--------|--------|--------|--------|
B|--------|--------|--------|--------|--------|--------|--------|--------|--------|
G|--------|--------|--------|--------|--------|--------|--------|--------|--------|
D|--------|--------|--------|--------|--------|--------|--------|--------|--------|
A|--------|--------|--------|--------|--------|--------|--------|--------|--------|
E|--------|--------|--------|--------|--------|--------|--------|--------|--------|


E|--------|--------|--------|--------|--------|--------|--------|--------|--------|
B|--------|--------|--------|--------|--------|--------|--------|--------|--------|
G|--------|--------|--------|--------|--------|--------|--------|--------|--------|
D|--------|--------|--------|--------|--------|--------|--------|--------|--------|
A|--------|--------|--------|--------|--------|--------|--------|--------|--------|
E|--------|--------|--------|--------|--------|--------|--------|--------|--------|


E|--------|--------|--------|--------|--------|--------|--------|--------|--------|
B|--------|--------|--------|--------|--------|--------|--------|--------|--------|
G|--------|--------|--------|--------|--------|--------|--------|--------|--------|
D|--------|--------|--------|--------|--------|--------|--------|--------|--------|
A|--------|--------|--------|--------|--------|--------|--------|--------|--------|
E|--------|--------|--------|--------|--------|--------|--------|--------|--------|


E|--------|--------|--------|--------|--------|--------|--------|--------|--------|
B|--------|--------|--------|--------|--------|--------|--------|--------|--------|
G|--------|--------|--------|--------|--------|--------|--------|--------|--------|
D|--------|--------|--------|--------|--------|--------|--------|--------|--------|
A|--------|--------|--------|--------|--------|--------|--------|--------|--------|
E|--------|--------|--------|--------|--------|--------|--------|--------|--------|


E|--------|--------|--------|--------|--------|--------|--------|--------|--------|
B|--------|--------|--------|--------|--------|--------|--------|--------|--------|
G|--------|--------|--------|--------|--------|--------|--------|--------|--------|
D|--------|--------|--------|--------|--------|--------|--------|--------|--------|
A|--------|--------|--------|--------|--------|--------|--------|--------|--------|
E|--------|--------|--------|--------|--------|--------|--------|--------|--------|


E|--------|--------|--------|--------7---5-----|---------------5-----------3-------|
B|--------|--------|--------|--------8------8--|-------8---9---6----6------4----4--|
G|--------|--------|--------|--------7------8--|-------7---8---5----6------3----4--|
D|--------|--------|--------|---------------8--|---------------7----6------5----4--|
A|--------|--------|--------|------------------|--------------------8-----------6--|
E|--------|--------|--------|------------------|-----------------------------------|


E|-------7---5-----------------9---10-9--|----4--8-----------------|--------|--------|
B|-------8------8------8---9---10-----8--|-------9-----------------|--------|--------|
G|-------7------8------7---8---9------8--|-------8-----------------|--------|--------|
D|--------------8--------------11-----8--|-------10----------------|--------|--------|
A|---------------------------------------|-------------------------|--------|--------|
E|---------------------------------------|-------------------------|--------|--------|


E|--------|--------|--------|--------|--------|--------|--------|--------|--------|
B|--------|--------|--------|--------|--------|--------|--------|--------|--------|
G|--------|--------|--------|--------|--------|--------|--------|--------|--------|
D|--------|--------|--------|--------|--------|--------|--------|--------|--------|
A|--------|--------|--------|--------|--------|--------|--------|--------|--------|
E|--------|--------|--------|--------|--------|--------|--------|--------|--------|


E|--------|--------|--------|--------|--------|--------|--------|--------|--------|
B|--------|--------|--------|--------|--------|--------|--------|--------|--------|
G|--------|--------|--------|--------|--------|--------|--------|--------|--------|
D|--------|--------|--------|--------|--------|--------|--------|--------|--------|
A|--------|--------|--------|--------|--------|--------|--------|--------|--------|
E|--------|--------|--------|--------|--------|--------|--------|--------|--------|


E|--------|--------|--------|
B|--------|--------|--------|
G|--------|--------|--------|
D|--------|--------|--------|
A|--------|--------|--------|
E|--------|--------|--------|





Track 9: Dist. Gtr._Petrucci

E|--------|--------|--------|--------|--------|--------|--------|--------|--------|
B|--------|--------|--------|--------|--------|--------|--------|--------|--------|
G|--------|--------|--------|--------|--------|--------|--------|--------|--------|
D|--------|--------|--------|--------|--------|--------|--------|--------|--------|
A|--------|--------|--------|--------|--------|--------|--------|--------|--------|
E|--------|--------|--------|--------|--------|--------|--------|--------|--------|


E|--------|--------|--------|--------|--------|--------|--------|--------|--------|
B|--------|--------|--------|--------|--------|--------|--------|--------|--------|
G|--------|--------|--------|--------|--------|--------|--------|--------|--------|
D|--------|--------|--------|--------|--------|--------|--------|--------|--------|
A|--------|--------|--------|--------|--------|--------|--------|--------|--------|
E|--------|--------|--------|--------|--------|--------|--------|--------|--------|


E|--------|--------|--------|--------|--------|--------|--------|--------|--------|
B|--------|--------|--------|--------|--------|--------|--------|--------|--------|
G|--------|--------|--------|--------|--------|--------|--------|--------|--------|
D|--------|--------|--------|--------|--------|--------|--------|--------|--------|
A|--------|--------|--------|--------|--------|--------|--------|--------|--------|
E|--------|--------|--------|--------|--------|--------|--------|--------|--------|


E|--------|--------|--------|--------|--------|--------|--------|--------|--------|
B|--------|--------|--------|--------|--------|--------|--------|--------|--------|
G|--------|--------|--------|--------|--------|--------|--------|--------|--------|
D|--------|--------|--------|--------|--------|--------|--------|--------|--------|
A|--------|--------|--------|--------|--------|--------|--------|--------|--------|
E|--------|--------|--------|--------|--------|--------|--------|--------|--------|


E|--------|--------|--------|--------|--------|--------|--------|--------|--------|
B|--------|--------|--------|--------|--------|--------|--------|--------|--------|
G|--------|--------|--------|--------|--------|--------|--------|--------|--------|
D|--------|--------|--------|--------|--------|--------|--------|--------|--------|
A|--------|--------|--------|--------|--------|--------|--------|--------|--------|
E|--------|--------|--------|--------|--------|--------|--------|--------|--------|


E|--------|--------|--------|--------|--------|--------|--------|--------|--------|
B|--------|--------|--------|--------|--------|--------|--------|--------|--------|
G|--------|--------|--------|--------|--------|--------|--------|--------|--------|
D|--------|--------|--------|--------|--------|--------|--------|--------|--------|
A|--------|--------|--------|--------|--------|--------|--------|--------|--------|
E|--------|--------|--------|--------|--------|--------|--------|--------|--------|


E|--------|--------|--------|--------|--------|--------|--------|--------|--------|
B|--------|--------|--------|--------|--------|--------|--------|--------|--------|
G|--------|--------|--------|--------|--------|--------|--------|--------|--------|
D|--------|--------|--------|--------|--------|--------|--------|--------|--------|
A|--------|--------|--------|--------|--------|--------|--------|--------|--------|
E|--------|--------|--------|--------|--------|--------|--------|--------|--------|


E|--------|--------|--------|--------|--------|--------|--------|--------|--------|
B|--------|--------|--------|--------|--------|--------|--------|--------|--------|
G|--------|--------|--------|--------|--------|--------|--------|--------|--------|
D|--------|--------|--------|--------|--------|--------|--------|--------|--------|
A|--------|--------|--------|--------|--------|--------|--------|--------|--------|
E|--------|--------|--------|--------|--------|--------|--------|--------|--------|


E|--------|--------|--------|--------|--------|--------|--------|--------|--------|
B|--------|--------|--------|--------|--------|--------|--------|--------|--------|
G|--------|--------|--------|--------|--------|--------|--------|--------|--------|
D|--------|--------|--------|--------|--------|--------|--------|--------|--------|
A|--------|--------|--------|--------|--------|--------|--------|--------|--------|
E|--------|--------|--------|--------|--------|--------|--------|--------|--------|


E|--------|--------|--------|--------|--------|--------|--------|--------|--------|
B|--------|--------|--------|--------|--------|--------|--------|--------|--------|
G|--------|--------|--------|--------|--------|--------|--------|--------|--------|
D|--------|--------|--------|--------|--------|--------|--------|--------|--------|
A|--------|--------|--------|--------|--------|--------|--------|--------|--------|
E|--------|--------|--------|--------|--------|--------|--------|--------|--------|


E|--------|--------|--------|--------|--------|--------|--------|--------|--------|
B|--------|--------|--------|--------|--------|--------|--------|--------|--------|
G|--------|--------|--------|--------|--------|--------|--------|--------|--------|
D|--------|--------|--------|--------|--------|--------|--------|--------|--------|
A|--------|--------|--------|--------|--------|--------|--------|--------|--------|
E|--------|--------|--------|--------|--------|--------|--------|--------|--------|


E|--------|--------|--------|--------|--------|--------|--------|--------|--------|
B|--------|--------|--------|--------|--------|--------|--------|--------|--------|
G|--------|--------|--------|--------|--------|--------|--------|--------|--------|
D|--------|--------|--------|--------|--------|--------|--------|--------|--------|
A|--------|--------|--------|--------|--------|--------|--------|--------|--------|
E|--------|--------|--------|--------|--------|--------|--------|--------|--------|


E|--------|--------|--------|--------|--------|--------|--------|--------|--------|
B|--------|--------|--------|--------|--------|--------|--------|--------|--------|
G|--------|--------|--------|--------|--------|--------|--------|--------|--------|
D|--------|--------|--------|--------|--------|--------|--------|--------|--------|
A|--------|--------|--------|--------|--------|--------|--------|--------|--------|
E|--------|--------|--------|--------|--------|--------|--------|--------|--------|


E|--------|--------|--------|--------|--------|--------|--------|--------|--------|
B|--------|--------|--------|--------|--------|--------|--------|--------|--------|
G|--------|--------|--------|--------|--------|--------|--------|--------|--------|
D|--------|--------|--------|--------|--------|--------|--------|--------|--------|
A|--------|--------|--------|--------|--------|--------|--------|--------|--------|
E|--------|--------|--------|--------|--------|--------|--------|--------|--------|


E|--------|--------|--------|--------|--------|--------|--------|--------|--------|
B|--------|--------|--------|--------|--------|--------|--------|--------|--------|
G|--------|--------|--------|--------|--------|--------|--------|--------|--------|
D|--------|--------|--------|--------|--------|--------|--------|--------|--------|
A|--------|--------|--------|--------|--------|--------|--------|--------|--------|
E|--------|--------|--------|--------|--------|--------|--------|--------|--------|


E|--------|--------|--------|--------|--------|--------|--------|--------|--------|
B|--------|--------|--------|--------|--------|--------|--------|--------|--------|
G|--------|--------|--------|--------|--------|--------|--------|--------|--------|
D|--------|--------|--------|--------|--------|--------|--------|--------|--------|
A|--------|--------|--------|--------|--------|--------|--------|--------|--------|
E|--------|--------|--------|--------|--------|--------|--------|--------|--------|


E|--------|--------|--------|--------|--------|--------|--------|--------|--------|
B|--------|--------|--------|--------|--------|--------|--------|--------|--------|
G|--------|--------|--------|--------|--------|--------|--------|--------|--------|
D|--------|--------|--------|--------|--------|--------|--------|--------|--------|
A|--------|--------|--------|--------|--------|--------|--------|--------|--------|
E|--------|--------|--------|--------|--------|--------|--------|--------|--------|


E|--------|--------|--------|--------|--------|--------|--------|--------|--------|
B|--------|--------|--------|--------|--------|--------|--------|--------|--------|
G|--------|--------|--------|--------|--------|--------|--------|--------|--------|
D|--------|--------|--------|--------|--------|--------|--------|--------|--------|
A|--------|--------|--------|--------|--------|--------|--------|--------|--------|
E|--------|--------|--------|--------|--------|--------|--------|--------|--------|


E|--------|--------|--------|--------|--------|--------|-------7---5-----------------|
B|--------|--------|--------|--------|--------|--------|-------8------8------8---9---|
G|--------|--------|--------|--------|--------|--------|-------7------8------7---8---|
D|--------|--------|--------|--------|--------|--------|--------------8--------------|
A|--------|--------|--------|--------|--------|--------|-----------------------------|
E|--------|--------|--------|--------|--------|--------|-----------------------------|


E|-5-----------3-----------7---5-----|---------------9---9--9-----9---9--9-----9---12-|
B|-6----6------4----4------8------8--|-------8---9---10--10-10----10--10-10----10-----|
G|-5----6------3----4------7------8--|-------7---8---9---9--9-----9---9--9-----9------|
D|-7----6------5----4-------------8--|---------------11--11-11----11--11-11----11-----|
A|------8-----------6----------------|------------------------------------------------|
E|-----------------------------------|------------------------------------------------|


E|-5---7--8----8-----------------------------|--------------------|--------|--------|
B|--------9-------9-----9--------7-----------|--------------------|--------|--------|
G|--------8----------8-----9--------7--------|-6------------------|--------|--------|
D|--------10------------------10-------8-----|----7---------------|--------|--------|
A|----------------------------------------9--|-------8------------|--------|--------|
E|-------------------------------------------|----------9---------|--------|--------|


E|--------|--------|--------|--------|--------|--------|--------|--------|--------|
B|--------|--------|--------|--------|--------|--------|--------|--------|--------|
G|--------|--------|--------|--------|--------|--------|--------|--------|--------|
D|--------|--------|--------|--------|--------|--------|--------|--------|--------|
A|--------|--------|--------|--------|--------|--------|--------|--------|--------|
E|--------|--------|--------|--------|--------|--------|--------|--------|--------|


E|--------|--------|--------|--------|--------|--------|--------|--------|
B|--------|--------|--------|--------|--------|--------|--------|--------|
G|--------|--------|--------|--------|--------|--------|--------|--------|
D|--------|--------|--------|--------|--------|--------|--------|--------|
A|--------|--------|--------|--------|--------|--------|--------|--------|
E|--------|--------|--------|--------|--------|--------|--------|--------|





Track 10: Bass_Myung

B|--------|--------|--------|--------|--------|--------|-----------------------------|
G|--------|--------|--------|--------|--------|--------|-----------------------------|
D|--------|--------|--------|--------|--------|--------|-----------------------------|
A|--------|--------|--------|-2------|--------|-2------|-5----4----2-----------------|
E|-0------|-0------|-0------|--------|-0------|--------|----------------5----4---2---|
B|--------|--------|--------|--------|--------|--------|-----------------------------|


B|-------------------------------------|-------------------------------------|-------------------------------------|
G|-------------------------------------|-------------------------------------|-------------------------------------|
D|-----------2----2--------2--2--------|-----------2----2--------2--2--------|-----------2----2--------2--2--------|
A|-------------------------------------|-------------------------------------|-------------------------------------|
E|-0----0------------0--0--------0--0--|-0----0------------0--0--------0--0--|-0----0------------0--0--------0--0--|
B|-------------------------------------|-------------------------------------|-------------------------------------|


B|-------------------------------------|-------------------------------------|-------------------------------------|
G|-----------4-------------4--4--------|-------------------------------------|-----------4-------------4--4--------|
D|-------------------------------------|-----------2----2--------2--2--------|-------------------------------------|
A|-2----2---------2--2--2--------2--2--|-------------------------------------|-2----2---------2--2--2--------2--2--|
E|-------------------------------------|-0----0------------0--0--------0--0--|-------------------------------------|
B|-------------------------------------|-------------------------------------|-------------------------------------|


B|-------------------------------------|-----------------------------|-----------------------------------------|
G|-------------------------------------|-----------------------------|-----------------------------------------|
D|-----------2----2--------2--2--------|-----------------------------|-----------------------------------------|
A|-------------------------------------|-5----4----2-------------2---|-4---4--4---4--4----4--4--4--4--4--4--4--|
E|-0----0------------0--0--------0--0--|----------------5----4-------|-----------------------------------------|
B|-------------------------------------|-----------------------------|-----------------------------------------|


B|-------------------------------------------------|-----------------------------------------|
G|-------------------------------------------------|-----------------------------------------|
D|-------------------------------------------------|-----------------------------------------|
A|-3--3--3--3--3--3--3--3--3--3--3--3--3--3--3--3--|-4---4--4---4--4----4--4--4--4--4--4--4--|
E|-------------------------------------------------|-----------------------------------------|
B|-------------------------------------------------|-----------------------------------------|


B|-----------------------------------------|-------------------------------------|
G|-----------------------------------------|-------------------------------------|
D|-----------------------------------------|-----------2----2--------2--2--------|
A|-----------------------------------------|-------------------------------------|
E|-5---5--5---5--5----5--5--5--5--5--5--5--|-0----0------------0--0--------0--0--|
B|-----------------------------------------|-------------------------------------|


B|-------------------------------------------------|-------------------------------------|
G|-------------------------------------------------|-------------------------------------|
D|-------------------------------------------------|-----------2----2--------2--2--------|
A|-5--5--5--4--4--4--2--2--2-----------------------|-------------------------------------|
E|----------------------------5--5--5--4--4--2--2--|-0----0------------0--0--------0--0--|
B|-------------------------------------------------|-------------------------------------|


B|-------------------------------------------------|-------------------------------------|
G|-------------------------------------------------|-------------------------------------|
D|-------------------------------------------------|-----------2----2--------2--2--------|
A|-5--5--5--4--4--4--2--2--2-----------------2--2--|-------------------------------------|
E|----------------------------5--5--5--4--4--------|-0----0------------0--0--------0--0--|
B|-------------------------------------------------|-------------------------------------|


B|-------------------------------------------------|-------------------------------------|
G|-------------------------------------------------|-------------------------------------|
D|-------------------------------------------------|-----------2----2--------2--2--------|
A|-5--5--5--4--4--4--2--2--2-----------------------|-------------------------------------|
E|----------------------------5--5--5--4--4--2--2--|-0----0------------0--0--------0--0--|
B|-------------------------------------------------|-------------------------------------|


B|-------------------------------------------------|-----------------------------------------|
G|-------------------------------------------------|-----------------------------------------|
D|-------------------------------------------------|-----------------------------------------|
A|-5--5--5--4--4--4--2--2--2-----------------2--2--|-4---4--4---4--4----4--4--4--4--4--4--4--|
E|----------------------------5--5--5--4--4--------|-----------------------------------------|
B|-------------------------------------------------|-----------------------------------------|


B|-------------------------------------------------|-----------------------------------------|
G|-------------------------------------------------|-----------------------------------------|
D|-------------------------------------------------|-----------------------------------------|
A|-3--3--3--3--3--3--3--3--3--3--3--3--3--3--3--3--|-4---4--4---4--4----4--4--4--4--4--4--4--|
E|-------------------------------------------------|-----------------------------------------|
B|-------------------------------------------------|-----------------------------------------|


B|-----------------------------------------|-----------------------------------------|
G|-----------------------------------------|-----------------------------------------|
D|-----------------------------------------|-----------------------------------------|
A|-----------------------------------------|-4---4--4---4--4----4--4--4--4--4--4--4--|
E|-5---5--5---5--5----5--5--5--5--5--5--5--|-----------------------------------------|
B|-----------------------------------------|-----------------------------------------|


B|-------------------------------------------------|-----------------------------------------|
G|-------------------------------------------------|-----------------------------------------|
D|-------------------------------------------------|-----------------------------------------|
A|-3--3--3--3--3--3--3--3--3--3--3--3--3--3--3--3--|-4---4--4---4--4----4--4--4--4--4--4--4--|
E|-------------------------------------------------|-----------------------------------------|
B|-------------------------------------------------|-----------------------------------------|


B|-------------------------------------------------|---------------------------------|
G|-------------------------------------------------|---------------------------------|
D|-------------------------------------------------|---------------------------------|
A|-------------------------------------------------|---------------------------------|
E|-5--5--5--5--5--5--5--5--5--5--5--5--5--5--5--5--|-4----4---4--3---3---2----2---2--|
B|-------------------------------------------------|---------------------------------|


B|-------------------------------------|-----------------------------------|---------------------------------|
G|-------------------------------------|-----------------------------------|---------------------------------|
D|---------------------2---2--2--2--2--|-------------2---2--2--------------|---------------------------------|
A|-------------------------------------|-----------------------4----4---4--|-3---3---2----2---2--1---1---0---|
E|-1---1---0----0---0------------------|-0----0---0------------------------|---------------------------------|
B|-------------------------------------|-----------------------------------|---------------------------------|


B|-----------------------------------------|-----------------------------------------|
G|-----------------------------------------|-----------------------------------------|
D|-----------7--7--7--7--7--7--------------|-7---7-----------------------------------|
A|----0---0--------------------0----0---0--|-----------------------------------------|
E|-----------------------------------------|---------4---4--4--4--4--3---3--3--3--3--|
B|-----------------------------------------|-----------------------------------------|


B|--------------------------------------|---------------------------------------|---------------------------------|
G|--------------------------------------|---------------------------------------|---------------------------------|
D|--------------------------------------|-1---1--1--0---0--0--------------------|---------------------------------|
A|--------------------------------------|---------------------4---4--4--3----2--|-----1----0----------------------|
E|-2---2--2--2--2--1---1--1--1--1--0----|---------------------------------------|---------------4---3---2---1--1--|
B|--------------------------------------|---------------------------------------|---------------------------------|


B|-----------------------------------------|-----------------------------------------|
G|-----------------------------------------|-----------------------------------------|
D|-------------3-------3-------------------|-------3-------3-------------------------|
A|-----------------------------------------|-----------------------------------------|
E|-1--1--1--1------1-------1---1--1--1--1--|-1--1------1-------1---1--1--1--1--1--1--|
B|-----------------------------------------|-----------------------------------------|


B|---------------------------------------|---------------------------------------|
G|---------------------------------------|---------------------------------------|
D|-3-------3-------------------------3---|-----3-------------------------3-------|
A|---------------------------------------|---------------------------------------|
E|-----1-------1---1--1--1--1--1--1------|-1-------1---1--1--1--1--1--1------1---|
B|---------------------------------------|---------------------------------------|


B|---------------------------------------|---------------------------------------|
G|---------------------------------------|---------------------------------------|
D|-3-------------------------3-------3---|-----------------------3-------3-------|
A|---------------------------------------|---------------------------------------|
E|-----1---1--1--1--1--1--1------1-------|-1---1--1--1--1--1--1------1-------1---|
B|---------------------------------------|---------------------------------------|


B|-----------------------------------------|-----------------------------------------|
G|-----------------------------------------|-----------------------------------------|
D|-------------------3-------3-------------|-------------3-------3-------------------|
A|-----------------------------------------|-----------------------------------------|
E|-1--1--1--1--1--1------1-------1---1--1--|-1--1--1--1------1-------1---1--1--1--1--|
B|-----------------------------------------|-----------------------------------------|


B|-----------------------------------------|-----------------------------------|---------------------------------------|
G|-----------------------------------------|-----------------------------------|---------------------------------------|
D|-------3-------3-------------------------|-3-------3---------------------3---|-3--3---3------------------3-------3---|
A|-----------------------------------------|-----------------------------------|---------------------------------------|
E|-1--1------1-------1---1--1--1--1--1--1--|-----1-------1---1---1--1---1------|-----------1---1--1--1--1------1-------|
B|-----------------------------------------|-----------------------------------|---------------------------------------|


B|---------------------------------------|-----------------------------------------|
G|---------------------------------------|-----------------------------------------|
D|-----------------------3-------3-------|-------------------3-------3-------8-----|
A|---------------------------------------|--------------------------------------8--|
E|-1---1--1--1--1--1--1------1-------1---|-1--1--1--1--1--1------1-------1---------|
B|---------------------------------------|-----------------------------------------|


B|-------------------------------------------------|---------------------------------------|
G|-------------------------------------------------|---------------------------------------|
D|----8--------6-----------------------------------|-3-------3-------------------------3---|
A|-------8--------6-----6--------------------------|---------------------------------------|
E|-6--------6--------3-----6--3--1--1--1--1--1--1--|-----1-------1---1--1--1--1--1--1------|
B|-------------------------------------------------|---------------------------------------|


B|---------------------------------------|-------------------------------------|---------------------------------------|
G|---------------------------------------|-------------------------------------|---------------------------------------|
D|-----3-------------------------3-------|-3---------------------3---3--3---3--|-----------------3-------3-------------|
A|---------------------------------------|-------------------------------------|---------------------------------------|
E|-1-------1---1--1--1--1--1--1------1---|-----1---1---1--1---1----------------|-1---1--1--1--1------1-------1---1--1--|
B|---------------------------------------|-------------------------------------|---------------------------------------|


B|-----------------------------------------|-----------------------------------------|
G|-----------------------------------------|-----------------------------------------|
D|-------------3-------3-------------------|-------3-------3-------------3--------5--|
A|-----------------------------------------|--------------------------4--------6-----|
E|-1--1--1--1------1-------1---1--1--1--1--|-1--1------1-------1---6--------8--------|
B|-----------------------------------------|-----------------------------------------|


B|---------------------------------------|-------------------------------|-----------------------------|
G|---------------------------------------|-------------------------------|-----------------------------|
D|-------8--------8--------------8-------|-------------8----8------------|-------3-----------------3---|
A|----8--------10--------------------8---|-------------------------------|-----------------------------|
E|-9--------11-------6----6---6----------|-6----6---6------------1----1--|----1--------1----1---1------|
B|---------------------------------------|-------------------------------|-----------------------------|


B|---------------------------------|---------------------------------|------------------------------|
G|---------------------------------|---------------------------------|------------------------------|
D|-----------------8---------------|-------8----8----------------3---|------------------3-----------|
A|-3-------------------8-----------|---------------------------------|----------------------3-------|
E|-----6----6---6----------6----6--|----6------------1----1---1------|------1----1---1----------1---|
B|---------------------------------|---------------------------------|------------------------------|


B|----------------------------------|-------------------------------------|---------------------------------|
G|----------------------------------|-------------------------------------|---------------------------------|
D|----------------------------------|-------3---------------------3-------|---------------3-----------------|
A|-----------3-------3--------------|-----------3---------------------3---|-------------------3---4----3----|
E|----1---1---------------1--1---1--|----1----------1--1---1---1----------|-1--1---1---1--------------------|
B|----------------------------------|-------------------------------------|---------------------------------|


B|---------------------------------|-------------------------------------|-----------------------------------|
G|---------------------------------|-------------------------------------|-----------------------------------|
D|-------------------------3-------|---------------3---------------------|-3----------------------1--5-------|
A|-1---------------------------3---|-------------------3-----------------|-----3---1--1---3---4--------------|
E|------3----1--1---1---1----------|-1--1---1---1----------1--1---1---1--|-------------------------------3---|
B|---------------------------------|-------------------------------------|-----------------------------------|


B|-------------------------------------|-----------------------------------|---------------------------------|
G|-------------------------------------|-----------------------------------|---------------------------------|
D|---------------3---------------------|-3---------------------3-----------|---------------------------------|
A|-------------------3-----------------|-----3---------------------3---4---|----3----1-----------------------|
E|-1--1---1---1----------1--1---1---1--|---------1--1---1---1--------------|--------------3----1--1---1---1--|
B|-------------------------------------|-----------------------------------|---------------------------------|


B|-------------------------------------|---------------------------------|-------------------------------------|
G|-------------------------------------|---------------------------------|-------------------------------------|
D|-3---------------------3-------------|-----------3---------------------|----5------------------3-------------|
A|-----3---------------------3---------|---------------3---1----3----4---|---------------------------3---------|
E|---------1--1---1---1----------1--1--|----1---1------------------------|---------1--1---1---1----------1--1--|
B|-------------------------------------|---------------------------------|-------------------------------------|


B|-------------------------------------|-----------------------------------------------|
G|-------------------------------------|-----------------------------------------------|
D|-----------3---------------------3---|-----------------------------------------------|
A|---------------3---------------------|-3---4--4--4--3--3--3--1--1--1-----------------|
E|----1---1----------1--1---1---1------|--------------------------------3--3--3--1--1--|
B|-------------------------------------|-----------------------------------------------|


B|-------------------------------------|---------------------------------------|-----------------------------------------|
G|-------------------------------------|---------------------------------------|-----------------------------------------|
D|-----------3---------------------3---|-------------------3-------------------|----------------5--5--5--------------8---|
A|---------------3---------------------|-3---------------------3---1--1--1--3--|-3--3--4--4--4---------------------------|
E|----1---1----------1--1---1---1------|-----1--1---1---1----------------------|-------------------------6----6---6------|
B|-------------------------------------|---------------------------------------|-----------------------------------------|


B|-------------------------------|-----------------------------|---------------------------------|
G|-------------------------------|-----------------------------|---------------------------------|
D|-----------------8----8--------|-----------3-----------------|-3-------------------8-----------|
A|-8-----------------------------|-----------------------------|-----3-------------------8-------|
E|-----6----6---6------------1---|----1---1--------1----1---1--|---------6----6---6----------6---|
B|-------------------------------|-----------------------------|---------------------------------|


B|---------------------------------|---------------------------|------------------------------|
G|---------------------------------|---------------------------|------------------------------|
D|-----------8----8----------------|-3-----------------3-------|------------------------------|
A|---------------------------------|-----------------------3---|-------------3-------3--------|
E|----6---6------------1----1---1--|-------1----1---1----------|-1----1---1---------------1---|
B|---------------------------------|---------------------------|------------------------------|


B|-----------------------------------|---------------------------------|-----------------------------------|
G|-----------------------------------|---------------------------------|-----------------------------------|
D|----3---3----------------------6---|--------------9---9--------------|-----------12---------------3---3--|
A|-----------------------------------|---------------------------------|-----------------------------------|
E|-----------1---3---4----4---4------|-4---6---7-----------7---9---10--|----10--10-----10--13--1-----------|
B|-----------------------------------|---------------------------------|-----------------------------------|


B|---------------------------------|---------------------------------|---------------------------------|
G|---------------------------------|---------------------------------|---------------------------------|
D|---------------------6-----------|------9---9----------------------|-12-------------------3---3------|
A|---------------------------------|---------------------------------|---------------------------------|
E|-1---3---4----4---4------4---6---|-7-----------7---9---10---10--10-|-----10--13--0---1-----------1---|
B|---------------------------------|---------------------------------|---------------------------------|


B|---------------------------------|-----------------------------------|---------------------------------|
G|---------------------------------|-----------------------------------|---------------------------------|
D|-----------------6---------------|----9---9----------------------12--|--------------3---3--------------|
A|---------------------------------|-----------------------------------|---------------------------------|
E|-3---4----4---4------4---6---7---|-----------7---9---10---10--10-----|-10--13--1-----------1---3---4---|
B|---------------------------------|-----------------------------------|---------------------------------|


B|-----------------------------------|------------------------------|---------------------------|
G|-----------------------------------|------------------------------|---------------------------|
D|-----------------------------------|------------------------------|---------------------------|
A|-----------2---2--2---2--5---------|-4----------------------------|---------------------------|
E|-4--4---4---------------------4----|------3-----------------------|---------------------------|
B|-----------------------------------|-----------4-----------3------|------6-----------5--------|


B|-----------------------------|----------------------------|-------------------------------------------|
G|-----------------------------|----------------------------|-------------------------------------------|
D|-----------------------------|----------------------------|----------------------8--9----8------8--9--|
A|-----------------------------|----------------------8--10-|-11-10-8--10-8--10-11-------------11-------|
E|-----------------------------|----------------------------|-------------------------------------------|
B|-----4-----------3--------6--|------------5---------------|-------------------------------------------|


B|----------------------------------------|----------------------------------------|
G|---------------------------------6--7---|----6------6--7--6----------------------|
D|-8----6--8--9--8--6--8--6--8--9---------|--------9-------------------------------|
A|----------------------------------------|----------------------8--10-11-10-8--10-|
E|----------------------------------------|----------------------------------------|
B|----------------------------------------|----------------------------------------|


B|------------------------------------|-------------------------------------------|
G|------------------------------------|----------------------------6--7----6------|
D|----------8--9----8------8--9--8----|-6--8--9--8--6--8--6--8--9--------------9--|
A|-8--10-11-------------11------------|-------------------------------------------|
E|------------------------------------|-------------------------------------------|
B|------------------------------------|-------------------------------------------|


B|------------------------------------------|------------------------------------|
G|-6--7--6----------------------------------|------------------------------------|
D|------------------------------------------|----8--9----8------8--9--8----6--8--|
A|------------7--7--8--10-11-10-8--10-8--10-|-11-------------11------------------|
E|------------------------------------------|------------------------------------|
B|------------------------------------------|------------------------------------|


B|-------------------------------------------|----------------------------------------|
G|----------------------6--7----6------6--7--|-6-------------------------------9--10--|
D|-9--8--6--8--6--8--9--------------9--------|------9--11-12-11-9--11-9--11-12--------|
A|-------------------------------------------|----------------------------------------|
E|-------------------------------------------|----------------------------------------|
B|-------------------------------------------|----------------------------------------|


B|-----------------------13----13-14----14-|-15----15-16----16--------------------|
G|----9------13---12--10----13-------14----|----15-------16-----------------------|
D|--------12-------------------------------|--------------------------------------|
A|-----------------------------------------|--------------------------------------|
E|-----------------------------------------|--------------------------------------|
B|-----------------------------------------|-------------------4-----------3------|


B|---------------------------|-----------------------------|----------------------4-----|
G|---------------------------|-----------------------------|-------------------------5--|
D|---------------------------|-----------------------------|----------------------------|
A|---------------------------|-----------------------------|----------------------------|
E|---------------------------|-----------------------------|----------------------------|
B|------6-----------5--------|-----4-----------3--------6--|------------5---------------|


B|-------4---------------------|---------------------------------|-----------------------|
G|----------5------------------|---------------------------------|-----------------------|
D|-6-----------6---------------|---------------------------------|-----------------------|
A|----6-----------6------------|---------------------------------|-----------------------|
E|-------------------1-----1---|----1----1---1----1--1---1---1---|-----1---1-----1----1--|
B|-----------------------------|---------------------------------|-----------------------|


B|------------------------------|---------------------|------------------------------|
G|------------------------------|---------------------|------------------------------|
D|------------------------------|---------------------|------------------------------|
A|------------------------------|---------------------|------------------------------|
E|-----1---1----1--1---1---1----|-1---1-----1----1----|-1---1----1--1---1---1----1---|
B|------------------------------|---------------------|------------------------------|


B|---------------------|------------------------------|----------------------------|
G|---------------------|------------------------------|----------------------------|
D|---------------------|------------------------------|-----3---------3------------|
A|---------------------|------------------------------|----------------------------|
E|-1-----1----1----1---|-1----1--1---1---1----1---1---|----------1---------1---1---|
B|---------------------|------------------------------|----------------------------|


B|--------------------------|----------------------------|------------------------|
G|--------------------------|----------------------------|------------------------|
D|-------3---------3--------|-3---------3----------------|-3---------3--------3---|
A|--------------------------|----------------------------|------------------------|
E|----1-------1--------1----|------1---------1---1----1--|------1--------1--------|
B|--------------------------|----------------------------|------------------------|


B|-------------------------------|------------------------|-----------------------------------|
G|-------------------------------|------------------------|-----------------------------------|
D|----------3----------------3---|----------3--------3----|---------------3-------------------|
A|-------------------------------|------------------------|-----------1-------3---1---3---4---|
E|-----1---------1---1----1------|-----1--------1---------|-1---3--4--------------------------|
B|-------------------------------|------------------------|-----------------------------------|


B|------------------------------|--------------------------------|------------------------------|
G|------------------------------|--------------------------------|------------------------------|
D|---------------------3--------|-------3------------3-------3---|-----------------5------------|
A|-3---1---3--------------------|--------------------------------|------------------------------|
E|-------------1----1-------1---|----1-------1----1-------1------|-----1---3----3-------3----3--|
B|------------------------------|--------------------------------|------------------------------|


B|---------------------------|---------------------------|------------------------------|
G|---------------------------|---------------------------|------------------------------|
D|-5------------5------------|-5-------5------------6----|---------6------------6-------|
A|---------------------------|---------------------------|------------------------------|
E|------3----3-------3----3--|------3-------4----4-------|-4----4-------4----4-------4--|
B|---------------------------|---------------------------|------------------------------|


B|---------------------------|-----------------------------|--------------------------------|
G|---------------------------|-----------------------------|--------------------------------|
D|-6----------------8--------|-------8------------8--------|-------8-------8------------9---|
A|---------------------------|-----------------------------|--------------------------------|
E|------4---6----6-------6---|----6-------6----6-------6---|----6-------6-------7----7------|
B|---------------------------|-----------------------------|--------------------------------|


B|------------------------------|-----------------------------|---------------------------|
G|------------------------------|-----------------------------|---------------------------|
D|-------------9------------9---|-------9----------------11---|---------11-----------11---|
A|------------------------------|-----------------------------|---------------------------|
E|-----7----7-------7----7------|----7-------7---9----9-------|-9----9-------9----9-------|
B|------------------------------|-----------------------------|---------------------------|


B|------------------------------|---------------------------|------------------------------|
G|------------------------------|---------------------------|------------------------------|
D|---------11------11-----------|-12-----------12-----------|-12------12---------------14--|
A|------------------------------|---------------------------|------------------------------|
E|-9----9-------9-------10---10-|------10---10------10---10-|------10------10--12---12-----|
B|------------------------------|---------------------------|------------------------------|


B|------------------------------|------------------------------|----------------|--------------------|
G|------------------------------|------------------------------|----------------|--------------------|
D|-------------14-----------14--|-------------14------14-------|----------------|--------------------|
A|------------------------------|------------------------------|----------------|--------------------|
E|-----12---12------12---12-----|-----12---12------12------1---|------------3---|-----------3---4----|
B|------------------------------|------------------------------|----------------|--------------------|


B|-----------------|--------------------|---------------------|---------------------|
G|-----------------|--------------------|---------------------|---------------------|
D|-----------------|--------------------|----------------2----|-3-------------------|
A|-------1----1----|-2-----2-------5----|-4-------------------|------2----4---------|
E|-----------------|--------------------|------3----4---------|----------------3----|
B|-----------------|--------------------|---------------------|---------------------|


B|-----------------------------|---------------------------|-----------------------------|
G|-----------------------------|---------------------------|-----------------------------|
D|-----------------------------|---------------------------|-----------------------------|
A|-----------------------------|---------------------------|-----------------------------|
E|-----------------------------|---------------------------|-----------------------------|
B|-4-----------3--------6------|---------5---------4-------|--------3--------6-----------|


B|---------------------------------|---------------------|-----------------------------|
G|---------------------------------|---------------------|-----------------------------|
D|---------------------------------|---------------------|-----------------------------|
A|-9-------7-------5-------3-------|-1---------------6---|-----------------------------|
E|---------------------------------|------------6--------|-7---8---------7-------------|
B|---------------------------------|-------4-------------|----------7---------6----4---|


B|-------------------------------|-------------------------------|-----------------------------|
G|-------------------------------|-------------------------------|-----------------------------|
D|-------------------------------|-------------------------------|-----------------------------|
A|---------6---------------------|---------------6---------------|-------------------------6---|
E|----6--------7---9---------8---|----------6--------7---8-------|-----7--------------6--------|
B|----------------------7--------|-6---4----------------------7--|----------6----4-------------|


B|----------------------------------------|-------------------------|----------------|
G|----------------------------------------|-------------------------|----------------|
D|----------------------------------------|-------------------------|----------------|
A|----------------------------------------|-----5---------3---------|----------------|
E|-7--------------------------------------|----------4---------5----|-0--------------|
B|-----4---4--4-----4---4--4-----4----3---|-------------------------|----------------|


B|----------------|-------------------------------------|-----------------------------------------|
G|----------------|-------------------------------------|-----------------------------------------|
D|----------------|-----------------3-------3-----------|-----------3----------------------3------|
A|-2--------------|-------------------------------------|-----------------------------------------|
E|----------------|-1------1-----1------1-----------1---|----1-------------1------1-----1---------|
B|----------------|-------------------------------------|-----------------------------------------|


B|-----------------------------------|---------------------------------|-------------------------------------|
G|-----------------------------------|---------------------------------|-------------------------------------|
D|---------3-------------------------|-----6---3---------------3-------|-3---------------------3-------------|
A|-----------------------------------|---------------------------------|-------------------------------------|
E|-1---------------3------3------4---|-1-----------1------1--------1---|---------1------1-------------1------|
B|-----------------------------------|---------------------------------|-------------------------------------|


B|-----------------------------------|---------------------------------------|---------------------------------------|
G|-----------------------------------|---------------------------------------|---------------------------------------|
D|---------------3-------------------|---------2-------------2--2------------|---------2-----------------------------|
A|-----------------------------------|---------------------------------------|--------------------------0--1--2------|
E|-1------1--------------1-------0---|----0---------0--0--0--------0--0--0---|----0---------1--2--3--4-----------0---|
B|-----------------------------------|---------------------------------------|---------------------------------------|


B|---------------------------------------|------------------------------------|---------------------------------------|
G|---------------------------------------|---------4----------4--4------------|---------------------------------------|
D|---------2-------------2--2------------|------------------------------------|---------6-------------6--6------------|
A|-----------------------------------2---|----2---------2--2--------2--2------|---------------------------------------|
E|----0---------0--0--0--------0--0------|--------------------------------4---|-4--4---------4--4--4--------4--4--5---|
B|---------------------------------------|------------------------------------|---------------------------------------|


B|-----------------------------------------|-------------------------------------------------|
G|-----------------------------------------|-------------------------------------------------|
D|---------7-------------7--7--------------|----------------------8--9--8-----8--9--8-----8--|
A|-----------------------------------8--10-|-11-10-8--10-8--10-11----------11----------11----|
E|-5--5---------5--5--5--------5--5--------|-------------------------------------------------|
B|-----------------------------------------|-------------------------------------------------|


B|-------------------------------------------------|-------------------9-----------------------------|
G|----------------------------------9--10-9-----9--|-10-9-----9--10-12----12-10----------------------|
D|-9--11-9--11-12-11-9--11-9--11-12----------12----|-------12----------------------------11-9--8--11-|
A|-------------------------------------------------|----------------------------11-10-8--------------|
E|-------------------------------------------------|-------------------------------------------------|
B|-------------------------------------------------|-------------------------------------------------|


B|----------------------------------14-12-11-14-8--|-11----------------------------------------------|
G|----------------13-12-10-------------------------|----9--12-6--9-----------------------------------|
D|-9--8--------------------11-9--8-----------------|----------------8--11-5--8-----------------------|
A|-------11-10-8-----------------------------------|----------------------------7--10-4--7-----------|
E|-------------------------------------------------|----------------------------------------6--9--3--|
B|-------------------------------------------------|-------------------------------------------------|


B|----------------|--------|--------|
G|----------------|--------|--------|
D|----------------|--------|--------|
A|----------------|--------|--------|
E|-6--------------|--------|--------|
B|----------------|--------|--------|