Menu:

 

Search:

 

dream theater - octavarium ii medicate:

 



Title: Octavarium: II. Medicate (Awakening)
Artist: 
Album: Octavarium
Author: Dream Theater


Track 1: Cln. Gtr_Petrucci

E|--------|--------|--------|--------|--------|--------|--------|--------|-----------0-----|
B|--------|--------|--------|--------|--------|--------|--------|--------|-----------0-----|
G|--------|--------|--------|--------|--------|--------|--------|--------|-2---------2-----|
D|--------|--------|--------|--------|--------|--------|--------|--------|------2----------|
A|--------|--------|--------|--------|--------|--------|--------|--------|-----------------|
E|--------|--------|--------|--------|--------|--------|--------|--------|-----------------|


E|-0---------------|---------------------|-0-------------------|-------0-----|-0---------------|
B|-0---------------|-----------3---------|------3--------------|-------0-----|-0---------------|
G|-2-----1----2----|------2---------2----|-----------1----2----|-------2-----|-2-----1----2----|
D|-----------------|-3-------------------|---------------------|-2-----------|-----------------|
A|-----------------|---------------------|---------------------|-------------|-----------------|
E|-----------------|---------------------|---------------------|-------------|-----------------|


E|---------------------|-0---------------|-------0-----|-0---------------|---------------------|
B|-----------0---------|------0----------|-------0-----|-0---------------|-----------3---------|
G|------2---------2----|-----------2-----|-------2-----|-2-----1----2----|------2---------2----|
D|-3-------------------|-----------------|-------2-----|-2---------------|-3-------------------|
A|---------------------|-----------------|-0-----------|-----------------|---------------------|
E|---------------------|-----------------|-------------|-----------------|---------------------|


E|-0-------------------|-------0-----|-0---------------|---------------------|-0---------------|
B|------3--------------|-------0-----|-0---------------|-----------0---------|------0----------|
G|-----------1----2----|-------2-----|-2-----1----2----|------2---------2----|-----------2-----|
D|---------------------|-2-----------|-----------------|-3-------------------|-----------------|
A|---------------------|-------------|-----------------|---------------------|-----------------|
E|---------------------|-------------|-----------------|---------------------|-----------------|


E|-------0-----|-0---------------|---------------------|-0-------------------|---------------------|
B|-------0-----|-0---------------|-----------3---------|------3--------------|-----------2---------|
G|-------2-----|-2-----1----2----|------2---------2----|-----------1----2----|------2---------2----|
D|-------2-----|-2---------------|-3-------------------|---------------------|-4-------------------|
A|-0-----------|-----------------|---------------------|---------------------|---------------------|
E|-------------|-----------------|---------------------|---------------------|---------------------|


E|-2---------------|---------------------|-0------------------0-------|----------------|
B|-------2---------|-----------0---------|------0---------------3-----|----------------|
G|-----------------|------2---------2----|-----------2------------2---|----------------|
D|-----------4-----|-3-------------------|----------------3---------0-|--------0---4---|
A|-----------------|---------------------|----------------------------|-0--------------|
E|-----------------|---------------------|----------------------------|----------------|


E|--------------------|---------------------|---------------------------|--------|
B|-----3--------------|-----------0---------|-----1---------------------|--------|
G|-2-------0----------|------2---------2----|-2-------0---0-------------|--------|
D|--------------4-----|-3-------------------|-----------------3----2----|--------|
A|--------------------|---------------------|---------------------------|--------|
E|--------------------|---------------------|---------------------------|--------|


E|--------|--------|--------|--------|--------|--------|--------|--------|--------|
B|--------|--------|--------|--------|--------|--------|--------|--------|--------|
G|--------|--------|--------|--------|--------|--------|--------|--------|--------|
D|--------|--------|--------|--------|--------|--------|--------|--------|--------|
A|--------|--------|--------|--------|--------|--------|--------|--------|--------|
E|--------|--------|--------|--------|--------|--------|--------|--------|--------|


E|--------|--------|--------|--------|--------|--------|--------|--------|--------|
B|--------|--------|--------|--------|--------|--------|--------|--------|--------|
G|--------|--------|--------|--------|--------|--------|--------|--------|--------|
D|--------|--------|--------|--------|--------|--------|--------|--------|--------|
A|--------|--------|--------|--------|--------|--------|--------|--------|--------|
E|--------|--------|--------|--------|--------|--------|--------|--------|--------|


E|--------|--------|--------|--------|--------|-------0-----|-0---------------|---------------------|
B|--------|--------|--------|--------|--------|-------0-----|-0---------------|-----------3---------|
G|--------|--------|--------|--------|--------|-------2-----|-2-----1----2----|------2---------2----|
D|--------|--------|--------|--------|--------|-2-----------|-----------------|-3-------------------|
A|--------|--------|--------|--------|--------|-------------|-----------------|---------------------|
E|--------|--------|--------|--------|--------|-------------|-----------------|---------------------|


E|-0-------------------|-------0-----|-0---------------|-0------|-0------|-------0-----|
B|------3--------------|-------0-----|-0---------------|-0------|-0------|-------0-----|
G|-----------1----2----|-------2-----|-2-----1----2----|-2------|-2------|-------2-----|
D|---------------------|-2-----------|-----------------|-3------|-3------|-------2-----|
A|---------------------|-------------|-----------------|--------|--------|-0-----------|
E|---------------------|-------------|-----------------|--------|--------|-------------|


E|-0---------------|---------------------|-0-------------------|-------0-----|-0---------------|
B|-0---------------|-----------3---------|------3--------------|-------0-----|-0---------------|
G|-2-----1----2----|------2---------2----|-----------1----2----|-------2-----|-2-----1----2----|
D|-2---------------|-3-------------------|---------------------|-2-----------|-----------------|
A|-----------------|---------------------|---------------------|-------------|-----------------|
E|-----------------|---------------------|---------------------|-------------|-----------------|


E|---------------------|-0---------------|-------0-----|-0---------------|---------------------|
B|-----------0---------|------0----------|-------0-----|-0---------------|-----------3---------|
G|------2---------2----|------------2----|-------2-----|-2-----1----2----|------2---------2----|
D|-3-------------------|-----------------|-------2-----|-2---------------|-3-------------------|
A|---------------------|-----------------|-0-----------|-----------------|---------------------|
E|---------------------|-----------------|-------------|-----------------|---------------------|


E|-0-------------------|---------------------|-2-------------------|---------------------|
B|------3--------------|-----------2---------|------2--------------|-----------0---------|
G|-----------1----2----|------2---------2----|-----------2---------|------2---------2----|
D|---------------------|-4-------------------|----------------4----|-3-------------------|
A|---------------------|---------------------|---------------------|---------------------|
E|---------------------|---------------------|---------------------|---------------------|


E|-0-------------------|--------|--------|--------|--------|--------|--------|--------|
B|------0--------------|--------|--------|--------|--------|--------|--------|--------|
G|-----------2---------|--------|--------|--------|--------|--------|--------|--------|
D|----------------3----|--------|--------|--------|--------|--------|--------|--------|
A|---------------------|--------|--------|--------|--------|--------|--------|--------|
E|---------------------|--------|--------|--------|--------|--------|--------|--------|


E|--------|--------|--------|--------|--------|--------|--------|--------|--------|
B|--------|--------|--------|--------|--------|--------|--------|--------|--------|
G|--------|--------|--------|--------|--------|--------|--------|--------|--------|
D|--------|--------|--------|--------|--------|--------|--------|--------|--------|
A|--------|--------|--------|--------|--------|--------|--------|--------|--------|
E|--------|--------|--------|--------|--------|--------|--------|--------|--------|


E|--------|--------|--------|--------|--------|--------|--------|--------|--------|
B|--------|--------|--------|--------|--------|--------|--------|--------|--------|
G|--------|--------|--------|--------|--------|--------|--------|--------|--------|
D|--------|--------|--------|--------|--------|--------|--------|--------|--------|
A|--------|--------|--------|--------|--------|--------|--------|--------|--------|
E|--------|--------|--------|--------|--------|--------|--------|--------|--------|


E|--------|--------|--------|
B|--------|--------|--------|
G|--------|--------|--------|
D|--------|--------|--------|
A|--------|--------|--------|
E|--------|--------|--------|





Track 2: Piano_Rudess

E|--------|--------|--------|--------|--------|--------|--------|--------|-0-----5-----|
B|-5------|--------|--------|--------|--------|--------|--------|--------|-2-----------|
G|--------|--------|--------|--------|--------|--------|--------|--------|-2-----2-----|
D|-2------|--------|--------|--------|--------|--------|--------|--------|-2-----------|
A|--------|--------|--------|--------|--------|--------|--------|--------|-0-----------|
E|--------|--------|--------|--------|--------|--------|--------|--------|-------------|


E|-5-----4----5----|-1------|-1-----4----5----|-0-----5----5-----|-7----5---5---4----5----|
B|-----------------|-3------|-3---------------|-2----------------|------------------------|
G|-2-----1----2----|-2------|-2-----1----2----|-2-----2----2-----|-4----2---2---1----2----|
D|-2---------------|-3------|-3---------------|-2----------------|------------------------|
A|-0---------------|--------|-----------------|-0----------------|------------------------|
E|-----------------|--------|-----------------|------------------|------------------------|


E|-7-----5-----|-3-----1----0----|-------5----5----|-----------4----5----|-1-----7----5----|
B|-6-----6-----|-------3----3----|-2---------------|------2--------------|-3---------------|
G|-7-----7-----|-----------------|-2-----2----2----|-2----2----1----2----|-2----------2----|
D|-9-----------|-9---------------|-2---------------|-2-------------------|-3---------------|
A|-8-----------|-8---------------|-0---------------|-0-------------------|-----------------|
E|-------------|-----------------|-----------------|---------------------|-----------------|


E|-5----5----4----5----|-------5-----------5---|-5----5----4----5----|-7-----5-----|
B|---------------------|-2-----2-----------5---|-5-------------------|-6-----5-----|
G|-2----2----1----2----|-2-----2-------6-------|-6---------1----2----|-7-----7-----|
D|-3-------------------|-2-----2---7---7-------|-7-------------------|-9-----9-----|
A|---------------------|-----------------------|---------------------|-8-----8-----|
E|---------------------|-----------------------|---------------------|-------------|


E|-3-----1----0----|-------5----5----|-5-----4----5----|--------|-------4----5----|
B|-------3----3----|-2---------------|-----------------|-6------|-6---------------|
G|-----------------|-2-----2----2----|-2-----1----2----|--------|-------1----2----|
D|-9---------------|-2---------------|-2---------------|-3------|-3---------------|
A|-8---------------|-0---------------|-0---------------|--------|-----------------|
E|-----------------|-----------------|-----------------|--------|-----------------|


E|----------------5----|-9-------------------|-5---------5---------|-8----7----5---------|
B|-7---------7----7----|-10----10--7----7----|------6---------6----|-10------------------|
G|------6----6----6----|-11----11------------|-5---------5---------|-10------------------|
D|-4-------------------|-----------4---------|-3-------------------|-10---9----7---------|
A|---------------------|---------------------|-3-------------------|----------------8----|
E|---------------------|---------------------|---------------------|---------------------|


E|-------------|----------------7----|-8-----7-----|-----------------|--------|--------|
B|-------------|-----------3---------|-10----10----|-10----6----5----|--------|--------|
G|-------------|-----------2----4----|-10----10----|-10--------------|--------|--------|
D|-0------4----|-5----5----4---------|-10----10----|-10----3----2----|--------|--------|
A|-0-----------|---------------------|-------------|-----------------|--------|--------|
E|-------------|---------------------|-------------|-----------------|--------|--------|


E|--------|--------|--------|--------|--------|--------|--------|--------|--------|
B|--------|--------|--------|--------|--------|--------|--------|--------|--------|
G|--------|--------|--------|--------|--------|--------|--------|--------|--------|
D|--------|--------|--------|--------|--------|--------|--------|--------|--------|
A|--------|--------|--------|--------|--------|--------|--------|--------|--------|
E|--------|--------|--------|--------|--------|--------|--------|--------|--------|


E|--------|--------|--------|--------|--------|--------|--------|--------|--------|
B|--------|--------|--------|--------|--------|--------|--------|--------|--------|
G|--------|--------|--------|--------|--------|--------|--------|--------|--------|
D|--------|--------|--------|--------|--------|--------|--------|--------|--------|
A|--------|--------|--------|--------|--------|--------|--------|--------|--------|
E|--------|--------|--------|--------|--------|--------|--------|--------|--------|


E|--------|--------|--------|--------|--------|--------|--------|--------|--------|
B|--------|--------|--------|--------|--------|--------|--------|--------|--------|
G|--------|--------|--------|--------|--------|--------|--------|--------|--------|
D|--------|--------|--------|--------|--------|--------|--------|--------|--------|
A|--------|--------|--------|--------|--------|--------|--------|--------|--------|
E|--------|--------|--------|--------|--------|--------|--------|--------|--------|


E|--------|--------|--------|--------|--------|--------|--------|--------|--------|
B|--------|--------|--------|--------|--------|--------|--------|--------|--------|
G|--------|--------|--------|--------|--------|--------|--------|--------|--------|
D|--------|--------|--------|--------|--------|--------|--------|--------|--------|
A|--------|--------|--------|--------|--------|--------|--------|--------|--------|
E|--------|--------|--------|--------|--------|--------|--------|--------|--------|


E|--------|--------|--------|--------|--------|--------|--------|--------|--------|
B|--------|--------|--------|--------|--------|--------|--------|--------|--------|
G|--------|--------|--------|--------|--------|--------|--------|--------|--------|
D|--------|--------|--------|--------|--------|--------|--------|--------|--------|
A|--------|--------|--------|--------|--------|--------|--------|--------|--------|
E|--------|--------|--------|--------|--------|--------|--------|--------|--------|


E|--------|--------|--------|--------|--------|--------|--------|--------|--------|
B|--------|--------|--------|--------|--------|--------|--------|--------|--------|
G|--------|--------|--------|--------|--------|--------|--------|--------|--------|
D|--------|--------|--------|--------|--------|--------|--------|--------|--------|
A|--------|--------|--------|--------|--------|--------|--------|--------|--------|
E|--------|--------|--------|--------|--------|--------|--------|--------|--------|


E|--------|--------|--------|--------|--------|--------|--------|--------|--------|
B|--------|--------|--------|--------|--------|--------|--------|--------|--------|
G|--------|--------|--------|--------|--------|--------|--------|--------|--------|
D|--------|--------|--------|--------|--------|--------|--------|--------|--------|
A|--------|--------|--------|--------|--------|--------|--------|--------|--------|
E|--------|--------|--------|--------|--------|--------|--------|--------|--------|


E|--------|--------|--------|--------|--------|--------|--------|--------|--------|
B|--------|--------|--------|--------|--------|--------|--------|--------|--------|
G|--------|--------|--------|--------|--------|--------|--------|--------|--------|
D|--------|--------|--------|--------|--------|--------|--------|--------|--------|
A|--------|--------|--------|--------|--------|--------|--------|--------|--------|
E|--------|--------|--------|--------|--------|--------|--------|--------|--------|


E|--------|--------|
B|--------|--------|
G|--------|--------|
D|--------|--------|
A|--------|--------|
E|--------|--------|





Track 3: Acous. Gtr_Petrucci

E|--------|--------|--------|--------|--------|--------|--------|--------|--------|
B|--------|--------|--------|--------|--------|--------|--------|--------|--------|
G|--------|--------|--------|--------|--------|--------|--------|--------|--------|
D|--------|--------|--------|--------|--------|--------|--------|--------|--------|
A|--------|--------|--------|--------|--------|--------|--------|--------|--------|
E|--------|--------|--------|--------|--------|--------|--------|--------|--------|


E|--------|--------|--------|--------|--------|--------|--------|--------|--------|
B|--------|--------|--------|--------|--------|--------|--------|--------|--------|
G|--------|--------|--------|--------|--------|--------|--------|--------|--------|
D|--------|--------|--------|--------|--------|--------|--------|--------|--------|
A|--------|--------|--------|--------|--------|--------|--------|--------|--------|
E|--------|--------|--------|--------|--------|--------|--------|--------|--------|


E|--------|--------|--------|--------|--------|--------|--------|--------|--------|
B|--------|--------|--------|--------|--------|--------|--------|--------|--------|
G|--------|--------|--------|--------|--------|--------|--------|--------|--------|
D|--------|--------|--------|--------|--------|--------|--------|--------|--------|
A|--------|--------|--------|--------|--------|--------|--------|--------|--------|
E|--------|--------|--------|--------|--------|--------|--------|--------|--------|


E|--------|--------|--------|--------|--------|--------|--------|--------|--------|
B|--------|--------|--------|--------|--------|--------|--------|--------|--------|
G|--------|--------|--------|--------|--------|--------|--------|--------|--------|
D|--------|--------|--------|--------|--------|--------|--------|--------|--------|
A|--------|--------|--------|--------|--------|--------|--------|--------|--------|
E|--------|--------|--------|--------|--------|--------|--------|--------|--------|


E|-0-----0---0----0---0---|-0---0---0----0---0---0---0---|-0-----0---0----0---0---|
B|-2-----0---2----0---0---|-2---2---0----2---0---2---0---|-2-----0---2----0---0---|
G|-2-----2---2----2---2---|-2---2---2----2---2---2---2---|-2-----2---2----2---2---|
D|-2-----2---2----2---2---|-2---2---2----2---2---2---2---|-2-----2---2----2---2---|
A|-0-----0---0----0---0---|-0---0---0----0---0---0---0---|-0-----0---0----0---0---|
E|------------------------|------------------------------|------------------------|


E|-0--------0---------------0-------|----------------|--------------------|---------------------|
B|-2------------2-------------3-----|----------------|-----3--------------|-----------0---------|
G|-2----------------2-----------2---|----------------|-2-------0----------|------2---------2----|
D|-2--------------------2---------0-|--------0---4---|--------------4-----|-3-------------------|
A|-0----0---------------------------|-0--------------|--------------------|---------------------|
E|----------------------------------|----------------|--------------------|---------------------|


E|---------------------------|-0-----0-----0---|-0-----0---0-----|-0------|-0------|
B|-----1---------------------|-0-----0-----0---|-0-----0---0-----|-0------|-0------|
G|-2-------0---0-------------|-2-----2-----2---|-2-----2---2-----|-2------|-2------|
D|-----------------3----2----|-2-----2-----2---|-2-----2---2-----|-3------|-3------|
A|---------------------------|-0-----0-----0---|-0-----0---0-----|-0------|-0------|
E|---------------------------|-----------------|-----------------|--------|--------|


E|-0-----0-----|-0-----0---0---0---0---|-0-----0-----|-0-----0---0---0----|-0-----0-----0---|
B|-0-----0-----|-0-----0---0---0---0---|-0-----0-----|-0-----0---0---0----|-0-----0-----0---|
G|-2-----2-----|-2-----2---2---2---2---|-2-----2-----|-2-----2---2---2----|-2-----2-----2---|
D|-4-----4-----|-4-----4---4---4---4---|-3-----3-----|-3-----3---3---3----|-2-----2-----2---|
A|-0-----0-----|-0-----0---0---0---0---|-0-----0-----|-0-----0---0---0----|-0-----0-----0---|
E|-------------|-----------------------|-------------|--------------------|-----------------|


E|-0------|-0-----0-----|-0-----0-----|-2-----2----2---2---|-0----2---2---2---2---2---2---|
B|-0------|-0-----0-----|-0-----0-----|-2-----2----2---2---|-0----2---2---2---2---2---2---|
G|-2------|-2-----2-----|-2-----2-----|-2-----2----2---2---|-2----2---2---2---2---2---2---|
D|-2------|-3-----3-----|-3-----3-----|-4-----4----4---4---|-4----4---4---4---4---4---4---|
A|-0------|-3-----3-----|-3-----3-----|--------------------|------------------------------|
E|--------|-1-----1-----|-1-----1-----|--------------------|------------------------------|


E|--------|--------|--------|--------|--------|--------|--------|--------|--------|
B|-3------|-3------|--------|--------|--------|--------|--------|--------|--------|
G|-2------|-2------|--------|--------|--------|--------|--------|--------|--------|
D|-0------|-0------|--------|--------|--------|--------|--------|--------|--------|
A|-0------|-0------|--------|--------|--------|--------|--------|--------|--------|
E|--------|--------|--------|--------|--------|--------|--------|--------|--------|


E|--------|--------|--------|--------|--------|--------|--------|--------|--------|
B|--------|--------|--------|--------|--------|--------|--------|--------|--------|
G|--------|--------|--------|--------|--------|--------|--------|--------|--------|
D|--------|--------|--------|--------|--------|--------|--------|--------|--------|
A|--------|--------|--------|--------|--------|--------|--------|--------|--------|
E|--------|--------|--------|--------|--------|--------|--------|--------|--------|


E|--------|--------|--------|--------|--------|--------|--------|--------|--------|
B|--------|--------|--------|--------|--------|--------|--------|--------|--------|
G|--------|--------|--------|--------|--------|--------|--------|--------|--------|
D|--------|--------|--------|--------|--------|--------|--------|--------|--------|
A|--------|--------|--------|--------|--------|--------|--------|--------|--------|
E|--------|--------|--------|--------|--------|--------|--------|--------|--------|


E|--------|--------|--------|--------|--------|--------|--------|--------|--------|
B|--------|--------|--------|--------|--------|--------|--------|--------|--------|
G|--------|--------|--------|--------|--------|--------|--------|--------|--------|
D|--------|--------|--------|--------|--------|--------|--------|--------|--------|
A|--------|--------|--------|--------|--------|--------|--------|--------|--------|
E|--------|--------|--------|--------|--------|--------|--------|--------|--------|


E|--------|--------|--------|--------|--------|--------|--------|--------|--------|
B|--------|--------|--------|--------|--------|--------|--------|--------|--------|
G|--------|--------|--------|--------|--------|--------|--------|--------|--------|
D|--------|--------|--------|--------|--------|--------|--------|--------|--------|
A|--------|--------|--------|--------|--------|--------|--------|--------|--------|
E|--------|--------|--------|--------|--------|--------|--------|--------|--------|


E|--------|--------|--------|--------|--------|--------|--------|--------|--------|
B|--------|--------|--------|--------|--------|--------|--------|--------|--------|
G|--------|--------|--------|--------|--------|--------|--------|--------|--------|
D|--------|--------|--------|--------|--------|--------|--------|--------|--------|
A|--------|--------|--------|--------|--------|--------|--------|--------|--------|
E|--------|--------|--------|--------|--------|--------|--------|--------|--------|





Track 4: Cln. Gtr_Petrucci

E|--------|--------|--------|--------|--------|--------|--------|--------|--------|
B|--------|--------|--------|--------|--------|--------|--------|--------|--------|
G|--------|--------|--------|--------|--------|--------|--------|--------|--------|
D|--------|--------|--------|--------|--------|--------|--------|--------|--------|
A|--------|--------|--------|--------|--------|--------|--------|--------|--------|
E|--------|--------|--------|--------|--------|--------|--------|--------|--------|


E|--------|--------|--------|--------|--------|--------|--------|--------|--------|
B|--------|--------|--------|--------|--------|--------|--------|--------|--------|
G|--------|--------|--------|--------|--------|--------|--------|--------|--------|
D|--------|--------|--------|--------|--------|--------|--------|--------|--------|
A|--------|--------|--------|--------|--------|--------|--------|--------|--------|
E|--------|--------|--------|--------|--------|--------|--------|--------|--------|


E|--------|--------|--------|--------|--------|--------|--------|--------|--------|
B|--------|--------|--------|--------|--------|--------|--------|--------|--------|
G|--------|--------|--------|--------|--------|--------|--------|--------|--------|
D|--------|--------|--------|--------|--------|--------|--------|--------|--------|
A|--------|--------|--------|--------|--------|--------|--------|--------|--------|
E|--------|--------|--------|--------|--------|--------|--------|--------|--------|


E|--------|--------|--------|--------|--------|--------|--------|--------|--------|
B|--------|--------|--------|--------|--------|--------|--------|--------|--------|
G|--------|--------|--------|--------|--------|--------|--------|--------|--------|
D|--------|--------|--------|--------|--------|--------|--------|--------|--------|
A|--------|--------|--------|--------|--------|--------|--------|--------|--------|
E|--------|--------|--------|--------|--------|--------|--------|--------|--------|


E|-0---------------|-0-------------------|-----------------|-5----7----9----12---|
B|-2---------------|-2-------------------|-2---------------|---------------------|
G|-2----------2----|-4-----2---2---------|-2-----2----2----|-2----4----6----9----|
D|-------2---------|-2--------------2----|-2----------2----|-2-------------------|
A|-0---------------|-------0-------------|-0---------------|-0-------------------|
E|-----------------|---------------------|-----------------|---------------------|


E|-10----------|-10--------5----7----|-8-----10----|-8-------------------|-9-----9-----|
B|--------7----|------7----7----7----|-10----------|-10---5----6----5----|-10----10----|
G|-7-----------|-7-------------------|-10----7-----|-10---5--------------|-9-----9-----|
D|-7------4----|-7----4--------------|-10----------|-10---7----3----2----|-7-----7-----|
A|-9-----------|-9-------------------|-12----------|-12------------------|-7-----7-----|
E|-10----------|-10------------------|-13----------|-13------------------|-------------|


E|-7----5--------------|-------8-----|------------12---|-12----9---------|-7----5-----7----|
B|----------------5----|-5-----10----|-12----10--------|-----------------|-----------------|
G|-6--------------6----|-2-----10----|------------9----|-9-----6---------|-4----2-----4----|
D|-7-------------------|-3-----14----|-9-----7---------|-7-----------7---|-7---------------|
A|-7---------0---------|-------15----|-----------------|-9-----------9---|-9---------------|
E|---------------------|-------17----|-----------------|-----------------|-----------------|


E|-7-----5----7----|-8----10---12---13--12--|-9-----9-----|-7----5-----12---|-8-----8-----|
B|-----------------|------------------------|-10----------|-----------------|-10----------|
G|-4-----2----4----|------7----9----10--9---|-9-----6-----|-4----2-----9----|-10----------|
D|-12--------------|-10---------------------|-------7-----|-----------------|-10----10----|
A|-12--------------|-12---------------------|-7-----7-----|-7---------------|-12----12----|
E|-13--------------|-13---------------------|-5-----------|-----------------|-13----13----|


E|------------12---|-12----9-----|------5---------5----|----------------|-10--10--10--10--10--10-------|
B|-12----10--------|-------10----|-12--------7----7----|-3--------------|------------------------------|
G|------------9----|-9-----11----|-9----2---------2----|-2----------7---|-7----------------------------|
D|-9-----7---------|-11----11----|-11--------4----4----|-0------7---7---|-7----------------------------|
A|-----------------|-12----12----|-12------------------|-0--------------|------------------------------|
E|-----------------|-14----14----|-14------------------|----------------|------------------------------|


E|--------|--------|--------|--------|--------|--------|--------|--------|--------|
B|--------|--------|--------|--------|--------|--------|--------|--------|--------|
G|--------|--------|--------|--------|--------|--------|--------|--------|--------|
D|--------|--------|--------|--------|--------|--------|--------|--------|--------|
A|--------|--------|--------|--------|--------|--------|--------|--------|--------|
E|--------|--------|--------|--------|--------|--------|--------|--------|--------|


E|--------|--------|--------|--------|--------|--------|--------|--------|--------|
B|--------|--------|--------|--------|--------|--------|--------|--------|--------|
G|--------|--------|--------|--------|--------|--------|--------|--------|--------|
D|--------|--------|--------|--------|--------|--------|--------|--------|--------|
A|--------|--------|--------|--------|--------|--------|--------|--------|--------|
E|--------|--------|--------|--------|--------|--------|--------|--------|--------|


E|--------|--------|--------|--------|--------|--------|--------|--------|--------|
B|--------|--------|--------|--------|--------|--------|--------|--------|--------|
G|--------|--------|--------|--------|--------|--------|--------|--------|--------|
D|--------|--------|--------|--------|--------|--------|--------|--------|--------|
A|--------|--------|--------|--------|--------|--------|--------|--------|--------|
E|--------|--------|--------|--------|--------|--------|--------|--------|--------|


E|--------|--------|--------|--------|--------|--------|--------|--------|--------|
B|--------|--------|--------|--------|--------|--------|--------|--------|--------|
G|--------|--------|--------|--------|--------|--------|--------|--------|--------|
D|--------|--------|--------|--------|--------|--------|--------|--------|--------|
A|--------|--------|--------|--------|--------|--------|--------|--------|--------|
E|--------|--------|--------|--------|--------|--------|--------|--------|--------|


E|--------|--------|--------|--------|--------|--------|--------|--------|--------|
B|--------|--------|--------|--------|--------|--------|--------|--------|--------|
G|--------|--------|--------|--------|--------|--------|--------|--------|--------|
D|--------|--------|--------|--------|--------|--------|--------|--------|--------|
A|--------|--------|--------|--------|--------|--------|--------|--------|--------|
E|--------|--------|--------|--------|--------|--------|--------|--------|--------|


E|--------|--------|--------|--------|--------|--------|--------|
B|--------|--------|--------|--------|--------|--------|--------|
G|--------|--------|--------|--------|--------|--------|--------|
D|--------|--------|--------|--------|--------|--------|--------|
A|--------|--------|--------|--------|--------|--------|--------|
E|--------|--------|--------|--------|--------|--------|--------|





Track 5: Cln. Gtr_Petrucci

E|--------|--------|--------|--------|--------|--------|--------|--------|--------|
B|--------|--------|--------|--------|--------|--------|--------|--------|--------|
G|--------|--------|--------|--------|--------|--------|--------|--------|--------|
D|--------|--------|--------|--------|--------|--------|--------|--------|--------|
A|--------|--------|--------|--------|--------|--------|--------|--------|--------|
E|--------|--------|--------|--------|--------|--------|--------|--------|--------|


E|--------|--------|--------|--------|--------|--------|--------|--------|--------|
B|--------|--------|--------|--------|--------|--------|--------|--------|--------|
G|--------|--------|--------|--------|--------|--------|--------|--------|--------|
D|--------|--------|--------|--------|--------|--------|--------|--------|--------|
A|--------|--------|--------|--------|--------|--------|--------|--------|--------|
E|--------|--------|--------|--------|--------|--------|--------|--------|--------|


E|--------|--------|--------|--------|--------|--------|--------|--------|--------|
B|--------|--------|--------|--------|--------|--------|--------|--------|--------|
G|--------|--------|--------|--------|--------|--------|--------|--------|--------|
D|--------|--------|--------|--------|--------|--------|--------|--------|--------|
A|--------|--------|--------|--------|--------|--------|--------|--------|--------|
E|--------|--------|--------|--------|--------|--------|--------|--------|--------|


E|--------|--------|--------|--------|--------|--------|--------|--------|--------|
B|--------|--------|--------|--------|--------|--------|--------|--------|--------|
G|--------|--------|--------|--------|--------|--------|--------|--------|--------|
D|--------|--------|--------|--------|--------|--------|--------|--------|--------|
A|--------|--------|--------|--------|--------|--------|--------|--------|--------|
E|--------|--------|--------|--------|--------|--------|--------|--------|--------|


E|--------|--------|--------|--------|--------|--------|--------|--------|--------|
B|--------|--------|--------|--------|--------|--------|--------|--------|--------|
G|--------|--------|--------|--------|--------|--------|--------|--------|--------|
D|--------|--------|--------|--------|--------|--------|--------|--------|--------|
A|--------|--------|--------|--------|--------|--------|--------|--------|--------|
E|--------|--------|--------|--------|--------|--------|--------|--------|--------|


E|--------|--------|--------|--------|--------|--------|--------|--------|--------|
B|--------|--------|--------|--------|--------|--------|--------|--------|--------|
G|--------|--------|--------|--------|--------|--------|--------|--------|--------|
D|--------|--------|--------|--------|--------|--------|--------|--------|--------|
A|--------|--------|--------|--------|--------|--------|--------|--------|--------|
E|--------|--------|--------|--------|--------|--------|--------|--------|--------|


E|--------|--------|--------|--------|--------|--------|-------5-----|-7----5----4----5----|
B|--------|--------|--------|--------|--------|--------|-2-----------|---------------------|
G|--------|--------|--------|--------|--------|--------|-2-----2-----|-4----2----1----2----|
D|--------|--------|--------|--------|--------|--------|-2-----------|---------------------|
A|--------|--------|--------|--------|--------|--------|-0-----------|---------------------|
E|--------|--------|--------|--------|--------|--------|-------------|---------------------|


E|-------1---------|-7----5----4----5----|-------5----5----|-7----5----4----5----|
B|-3----------3----|---------------------|-2----------2----|---------------------|
G|-2---------------|-4----2----1----2----|-2-----2----2----|-----------1----2----|
D|-3---------------|---------------------|-2---------------|---------------------|
A|-----------------|---------------------|-----------------|---------------------|
E|-----------------|---------------------|-----------------|---------------------|


E|----------------|-------2020-----|-------5-----|-5-----4----5----|--------|-------4----5----|
B|----------------|-----22---------|-2-----------|-----------------|-6------|-6---------------|
G|-10-------------|-2224-----------|-2-----2-----|-2-----1----2----|--------|-------1----2----|
D|-10-----------22|----------------|-2-----------|-----------------|-3------|-----------------|
A|-12---------24--|----------------|-0-----------|-----------------|--------|-----------------|
E|-13-----2527----|----------------|-------------|-----------------|--------|-----------------|


E|-------5---------|------5----4----5----|-7-----------|-----------------|------------------0-----------|
B|-2---------------|-5-------------------|-6-----10----|-8-----6----5----|-2------------2---2-----------|
G|-2-----2----4----|-----------1----2----|-7-----------|-----------------|-2--------2---------------2---|
D|-2---------------|---------------------|-9-----------|-------3----2----|-2----2---------------2-------|
A|-----------------|---------------------|-8-----------|-----------------|------------------------------|
E|-----------------|---------------------|-------------|-----------------|------------------------------|


E|--------------4----5----|--------------10---5----|-10--------4----5----|----------------5----|
B|-2----------------------|----------3-------------|-10------------------|-7---------7---------|
G|------2-------1----2----|------2-------7----2----|-10--------1----2----|-6----6----6----6----|
D|----------2-------------|-3----------------------|-12---7--------------|-4-------------------|
A|------------------------|------------------------|-8-------------------|---------------------|
E|------------------------|------------------------|---------------------|---------------------|


E|-9----------9----|-5-------------------|-------5-----|--------|--------|--------|
B|-10----7----10---|-6---------6---------|-6-----6-----|--------|--------|--------|
G|-11----6---------|-5---------5---------|-5-----5-----|--------|--------|--------|
D|-11--------------|-7----7----7----7----|-7-----7-----|--------|--------|--------|
A|-9---------------|-8-------------------|-8-----8-----|--------|--------|--------|
E|-----------------|---------------------|-------------|--------|--------|--------|


E|--------|--------|--------|--------|--------|--------|--------|--------|--------|
B|--------|--------|--------|--------|--------|--------|--------|--------|--------|
G|--------|--------|--------|--------|--------|--------|--------|--------|--------|
D|--------|--------|--------|--------|--------|--------|--------|--------|--------|
A|--------|--------|--------|--------|--------|--------|--------|--------|--------|
E|--------|--------|--------|--------|--------|--------|--------|--------|--------|


E|--------|--------|--------|--------|--------|--------|--------|--------|--------|
B|--------|--------|--------|--------|--------|--------|--------|--------|--------|
G|--------|--------|--------|--------|--------|--------|--------|--------|--------|
D|--------|--------|--------|--------|--------|--------|--------|--------|--------|
A|--------|--------|--------|--------|--------|--------|--------|--------|--------|
E|--------|--------|--------|--------|--------|--------|--------|--------|--------|


E|--------|--------|--------|--------|--------|--------|--------|
B|--------|--------|--------|--------|--------|--------|--------|
G|--------|--------|--------|--------|--------|--------|--------|
D|--------|--------|--------|--------|--------|--------|--------|
A|--------|--------|--------|--------|--------|--------|--------|
E|--------|--------|--------|--------|--------|--------|--------|





Track 6: Dist. Gtr1_Petrucci

E|--------|--------|--------|--------|--------|--------|--------|--------|--------|
B|--------|--------|--------|--------|--------|--------|--------|--------|--------|
G|--------|--------|--------|--------|--------|--------|--------|--------|--------|
D|--------|--------|--------|--------|--------|--------|--------|--------|--------|
A|--------|--------|--------|--------|--------|--------|--------|--------|--------|
E|--------|--------|--------|--------|--------|--------|--------|--------|--------|


E|--------|--------|--------|--------|--------|--------|--------|--------|--------|
B|--------|--------|--------|--------|--------|--------|--------|--------|--------|
G|--------|--------|--------|--------|--------|--------|--------|--------|--------|
D|--------|--------|--------|--------|--------|--------|--------|--------|--------|
A|--------|--------|--------|--------|--------|--------|--------|--------|--------|
E|--------|--------|--------|--------|--------|--------|--------|--------|--------|


E|--------|--------|--------|--------|--------|--------|--------|--------|--------|
B|--------|--------|--------|--------|--------|--------|--------|--------|--------|
G|--------|--------|--------|--------|--------|--------|--------|--------|--------|
D|--------|--------|--------|--------|--------|--------|--------|--------|--------|
A|--------|--------|--------|--------|--------|--------|--------|--------|--------|
E|--------|--------|--------|--------|--------|--------|--------|--------|--------|


E|--------|--------|--------|--------|--------|--------|--------|--------|--------|
B|--------|--------|--------|--------|--------|--------|--------|--------|--------|
G|--------|--------|--------|--------|--------|--------|--------|--------|--------|
D|--------|--------|--------|--------|--------|--------|--------|--------|--------|
A|--------|--------|--------|--------|--------|--------|--------|--------|--------|
E|--------|--------|--------|--------|--------|--------|--------|--------|--------|


E|--------|--------|--------|--------|--------|--------|--------|--------|--------|
B|--------|--------|--------|--------|--------|--------|--------|--------|--------|
G|--------|--------|--------|--------|--------|--------|--------|--------|--------|
D|--------|--------|--------|--------|--------|--------|--------|--------|--------|
A|--------|--------|--------|--------|--------|--------|--------|--------|--------|
E|--------|--------|--------|--------|--------|--------|--------|--------|--------|


E|--------|--------|--------|--------|--------|--------|--------|--------|--------|
B|--------|--------|--------|--------|--------|--------|--------|--------|--------|
G|--------|--------|--------|--------|--------|--------|--------|--------|--------|
D|--------|--------|--------|--------|--------|--------|--------|--------|--------|
A|--------|--------|--------|--------|--------|--------|--------|--------|--------|
E|--------|--------|--------|--------|--------|--------|--------|--------|--------|


E|--------|--------|--------|--------|--------|--------|--------|--------|--------|
B|--------|--------|--------|--------|--------|--------|--------|--------|--------|
G|--------|--------|--------|--------|--------|--------|--------|--------|--------|
D|--------|--------|--------|--------|--------|--------|--------|--------|--------|
A|--------|--------|--------|--------|--------|--------|--------|--------|--------|
E|--------|--------|--------|--------|--------|--------|--------|--------|--------|


E|--------|--------|--------|--------|--------|--------|--------|--------|--------|
B|--------|--------|--------|--------|--------|--------|--------|--------|--------|
G|--------|--------|--------|--------|--------|--------|--------|--------|--------|
D|--------|--------|--------|--------|--------|--------|--------|--------|--------|
A|--------|--------|--------|--------|--------|--------|--------|--------|--------|
E|--------|--------|--------|--------|--------|--------|--------|--------|--------|


E|--------|--------|--------|--------|--------|--------|--------|--------|--------|
B|--------|--------|--------|--------|--------|--------|--------|--------|--------|
G|--------|--------|--------|--------|--------|--------|--------|--------|--------|
D|--------|--------|--------|--------|--------|--------|--------|--------|--------|
A|--------|--------|--------|--------|--------|--------|--------|--------|--------|
E|--------|--------|--------|--------|--------|--------|--------|--------|--------|


E|--------|--------|--------|--------|--------|--------3----|-3-------------------|
B|--------|--------|--------|-3------|-3------|-------------|------6--------------|
G|--------|--------|--------|-2------|-2------|-5-----------|-----------5---------|
D|--------|--------|--------|-4------|-4------|-3-----------|----------------3----|
A|--------|--------|--------|-0------|-0------|-------------|---------------------|
E|--------|--------|--------|--------|--------|-------------|---------------------|


E|-0------0---0---|-0------|--------0---0---|-0---------------------|-----------------|
B|-2------0---0---|-2------|--------2---2---|-0---------------------|-----------------|
G|-2------2---2---|-2------|-2------2---2---|-2---------------------|------------0----|
D|-2------2---2---|-2------|-2------2---2---|-2---------------------|-------3---------|
A|-0------0---0---|-0------|-0------0---0---|-0-----0---------------|-----------------|
E|----------------|--------|----------------|-----------4---3---2---|-1---------------|


E|--------|-3------|---------------------------|-------------|-----------------|-------------|
B|--------|-3------|---------------------------|-5-----2-----|------------5----|-5-----------|
G|-0------|-0------|-0----0----0---0---0---0---|-------------|-4----2----------|-------5-----|
D|--------|-0------|-0----0----0---0---0---0---|-------------|-----------------|-------------|
A|--------|--------|---------------------------|-------------|-----------------|-------------|
E|--------|-3------|-3----3----3---3---3---3---|-------------|-----------------|-------------|


E|-----------------|-------------|-----------------|-----------------|------------------------|
B|------------5----|-5-----2-----|-----------------|-----------------|------3----5----6---5---|
G|-4-----2---------|-------------|-4----2-----4----|-4-----2----4----|-5----------------------|
D|-----------------|-------------|-----------------|-----------------|------------------------|
A|-----------------|-------------|-----------------|-----------------|------------------------|
E|-----------------|-------------|-----------------|-----------------|------------------------|


E|-------------|-----------------|-------------|-----------------|-------------|-----------------|
B|-5-----2-----|------------5----|-5-----------|------------5----|-5-----2-----|-----------------|
G|-------------|-4----2----------|-------5-----|-4-----2---------|-------2-----|-4----2-----2----|
D|-------------|-----------------|-------3-----|-----------------|-------------|-----------------|
A|-------------|-----------------|-------------|-----------------|-------------|-----------------|
E|-------------|-----------------|-------------|-----------------|-------------|-----------------|


E|--------|--------|
B|-3------|-3------|
G|-2------|-2------|
D|-0------|-0------|
A|-0------|-0------|
E|--------|--------|





Track 7: Cln. Gtr_Petrucci

E|--------|--------|--------|--------|--------|--------|--------|--------|--------|
B|--------|--------|--------|--------|--------|--------|--------|--------|--------|
G|--------|--------|--------|--------|--------|--------|--------|--------|--------|
D|--------|--------|--------|--------|--------|--------|--------|--------|--------|
A|--------|--------|--------|--------|--------|--------|--------|--------|--------|
E|--------|--------|--------|--------|--------|--------|--------|--------|--------|


E|--------|--------|--------|--------|--------|--------|--------|--------|--------|
B|--------|--------|--------|--------|--------|--------|--------|--------|--------|
G|--------|--------|--------|--------|--------|--------|--------|--------|--------|
D|--------|--------|--------|--------|--------|--------|--------|--------|--------|
A|--------|--------|--------|--------|--------|--------|--------|--------|--------|
E|--------|--------|--------|--------|--------|--------|--------|--------|--------|


E|--------|--------|--------|--------|--------|--------|--------|--------|--------|
B|--------|--------|--------|--------|--------|--------|--------|--------|--------|
G|--------|--------|--------|--------|--------|--------|--------|--------|--------|
D|--------|--------|--------|--------|--------|--------|--------|--------|--------|
A|--------|--------|--------|--------|--------|--------|--------|--------|--------|
E|--------|--------|--------|--------|--------|--------|--------|--------|--------|


E|--------|--------|--------|--------|--------|--------|--------|--------|--------|
B|--------|--------|--------|--------|--------|--------|--------|--------|--------|
G|--------|--------|--------|--------|--------|--------|--------|--------|--------|
D|--------|--------|--------|--------|--------|--------|--------|--------|--------|
A|--------|--------|--------|--------|--------|--------|--------|--------|--------|
E|--------|--------|--------|--------|--------|--------|--------|--------|--------|


E|--------|--------|--------|--------|--------|--------|--------|--------|--------|
B|--------|--------|--------|--------|--------|--------|--------|--------|--------|
G|--------|--------|--------|--------|--------|--------|--------|--------|--------|
D|--------|--------|--------|--------|--------|--------|--------|--------|--------|
A|--------|--------|--------|--------|--------|--------|--------|--------|--------|
E|--------|--------|--------|--------|--------|--------|--------|--------|--------|


E|--------|--------|--------|--------|--------|--------|--------|--------|--------|
B|--------|--------|--------|--------|--------|--------|--------|--------|--------|
G|--------|--------|--------|--------|--------|--------|--------|--------|--------|
D|--------|--------|--------|--------|--------|--------|--------|--------|--------|
A|--------|--------|--------|--------|--------|--------|--------|--------|--------|
E|--------|--------|--------|--------|--------|--------|--------|--------|--------|


E|--------|--------|--------|--------|--------|--------|--------|--------|--------|
B|--------|--------|--------|--------|--------|--------|--------|--------|--------|
G|--------|--------|--------|--------|--------|--------|--------|--------|--------|
D|--------|--------|--------|--------|--------|--------|--------|--------|--------|
A|--------|--------|--------|--------|--------|--------|--------|--------|--------|
E|--------|--------|--------|--------|--------|--------|--------|--------|--------|


E|--------|--------|--------|--------|--------|--------|--------|--------|--------|
B|--------|--------|--------|--------|--------|--------|--------|--------|--------|
G|--------|--------|--------|--------|--------|--------|--------|--------|--------|
D|--------|--------|--------|--------|--------|--------|--------|--------|--------|
A|--------|--------|--------|--------|--------|--------|--------|--------|--------|
E|--------|--------|--------|--------|--------|--------|--------|--------|--------|


E|--------|--------|--------|--------|--------|--------|--------|--------|--------|
B|--------|--------|--------|--------|--------|--------|--------|--------|--------|
G|--------|--------|--------|--------|--------|--------|--------|--------|--------|
D|--------|--------|--------|--------|--------|--------|--------|--------|--------|
A|--------|--------|--------|--------|--------|--------|--------|--------|--------|
E|--------|--------|--------|--------|--------|--------|--------|--------|--------|


E|--------|--------|--------|-----------------|-2---------10---7----|-8-----7-----|
B|--------|--------|--------|-3-----3---------|-3----7----10--------|-------------|
G|--------|--------|--------|-2----------2----|-2---------11---4----|-5-----4-----|
D|--------|--------|--------|-4---------------|-4----4----12--------|-------------|
A|--------|--------|--------|-5---------------|-5---------12--------|-------------|
E|--------|--------|--------|-----------------|---------------------|-------------|


E|-5-----5----12---|-------7---------|------7---7-----12---|-12-----------9---------------|
B|-6-----6---------|-------10---10---|---------------------|------------------10--8---10--|
G|-5-----5----9----|-------9----9----|------4---4-----9----|-9------------6---------------|
D|-7-----3---------|-------11---11---|-7-------------------|-7----5---7-------7---5---7---|
A|-------3---------|-7---------------|-7-------------------|-7----------------------------|
E|-----------------|-9---------------|-9-------------------|------------------------------|


E|-9-------------------------------|----------------3----|-5----5----5----7----|-8-----10----|
B|-10------------------------------|-----------6----6----|-8----6--------------|-------12----|
G|-9-------------------------------|-----------5----5----|-5----5----2----4----|-5-----12----|
D|-------------7---7---6---5---4---|-3---------7---------|-3-------------------|-------12----|
A|---------7-----------------------|-------8---8---------|-3-------------------|-------------|
E|-----9-----------5---4---3---2---|-1-------------------|---------------------|-------------|


E|-12----13---12---|-12----9-----|-7----5---------12---|-------8-----|-7----7----5----12---|
B|-12--------------|-14----10----|---------------------|-5-----10----|-10---6--------------|
G|-12----10---9----|-14----9-----|-4----2---------9----|-2-----10----|-10---5----2----9----|
D|-12--------------|-14----7-----|-2-------------------|-3-----10----|-9-------------------|
A|-----------------|-12----------|-0---------0---------|-------12----|---------------------|
E|-----------------|-------------|---------------------|-------------|---------------------|


E|-12----9-----|-7----5----5----7----|-------17---19---|-20---22---------|-24----21-----------|
B|-------------|---------------------|-----------------|-----------------|--------------------|
G|-9-----6-----|-4----2----2----4----|-------14---16---|-17---19---------|-21----18-----------|
D|-11----7-----|-7-------------------|-12--------------|-10--------19----|-14----14-----------|
A|-12----------|-9---------0---------|-12--------------|-12--------------|-16----16-----------|
E|-14----------|---------------------|-13--------------|-13--------17----|-17----17---12--17--|


E|-19---17--------24---|-24----20----|-19----17--------|-9---------------------|-19---17--------17---|
B|---------------------|-------------|-----------------|-10----10--------------|---------------------|
G|-16---14--------21---|-21----17----|-16----14--------|-11----11----------11--|-16---14--------14---|
D|-14--------14--------|-3-----10----|-------10---14---|-11------------11------|-11--------19--------|
A|-16--------16--------|-3-----12----|-14----12---15---|-9-----9---12----------|-12--------21--------|
E|-17--------17--------|-1-----13----|-13--------------|-----------------------|-14--------21--------|


E|-------17---19---|-20---22---24---25--24--|
B|-----------------|------------------------|
G|-11----14---16---|-17---19---21---22--21--|
D|-12----16--------|-16--------16-----------|
A|-12----17--------|-17--------17-----------|
E|-10----17--------|-17--------17-----------|





Track 8: Bass_Myung

B|---------------------|--------------------------------------|------------------------|
G|---------------------|--------------------------------------|------------------------|
D|-----------7---------|-----7-----------7----7-----------7---|-----------7------------|
A|---------------------|--------7-----7----------7-----7------|------------------------|
E|-5-------------------|-----------5----------------5---------|-5----5--------5----5---|
B|---------------------|--------------------------------------|------------------------|


B|---------------------------------|------------------------------|--------------------------------------|
G|---------------------------------|------------------------------|--------------------------------------|
D|---------------------------------|-7---5---7--------------------|-----7-----------7----7-----------7---|
A|---------3-----------------------|------------------------------|--------7-----7----------7-----7------|
E|-3---5-------5---3---------------|-----------------5---5--------|-----------5----------------5---------|
B|---------------------3---3---3---|------------------------------|--------------------------------------|


B|----------------------------|-----------------------------------|-----------------------------|
G|----------------------------|-----------------------------------|-----------------------------|
D|--------------7--------7----|-----------------------------------|---------------7-------------|
A|----------------------------|-------------------------3--3--5---|-----------------------------|
E|-5--------5-----------------|-------------3---4---5-------------|-5---------------------------|
B|----------------------------|-3---4---5-------------------------|-----------------------------|


B|--------------------------------------|--------------------------|--------------------------------------|
G|--------------------------------------|--------------------------|--------------------------------------|
D|-----7-----------7----7-----------7---|----------------7---------|-----7-----------7----7-----------7---|
A|--------7-----7----------7-----7------|--------------------------|--------7-----7----------7-----7------|
E|-----------5----------------5---------|-5--5--5------------------|-----------5----------------5---------|
B|--------------------------------------|--------------------------|--------------------------------------|


B|------------------------|--------------------------------------|-----------------------------|
G|------------------------|--------------------------------------|-----------------------------|
D|--------------7---------|-----7-----------7----7-----------7---|-------------------7---------|
A|------------------------|--------7-----7----------7-----7------|-----------------------------|
E|-5--------5-------------|-----------5----------------5---------|-5---5-------5--5------------|
B|------------------------|--------------------------------------|-----------------------------|


B|-------------------------------------|--------------------------|-----------------------------|
G|---------------------7---6---7-------|--------------------------|-----------------------------|
D|-----7-----------7---------------5---|-7--------------7---------|-------------------7----7----|
A|--------7-----7----------------------|--------------------------|-----------------------------|
E|-----------5-------------------------|----------5--5------------|-5---5-------5--5------------|
B|-------------------------------------|--------------------------|-----------------------------|


B|------------------------------|--------------------------------|--------------------------|
G|------------------------------|--------------------------------|--------------------------|
D|----------------7-------------|-------------------7---7---7----|----------------7---------|
A|------------------------------|--------------------------------|--------------------------|
E|-5--------5--5----------------|-5---5-------5--5---------------|-5--------5--5------------|
B|------------------------------|--------------------------------|--------------------------|


B|-----------------------------|-----------------------------|-------------------------------------------|
G|-----------------------------|-----------------------------|-------------------------------------------|
D|-------------------7----7----|----------------7------------|-----------7--7--------7--7--------7---5---|
A|-----------------------------|-----------------------------|-------------------------------------------|
E|-5---5-------5--5------------|-5--------5--5-------5---5---|-----5--5--------5--5--------5--5----------|
B|-----------------------------|-----------------------------|-------------------------------------------|


B|------------------------|-----------------------------|--------------------------|
G|------------------------|-----------------------------|--------------------------|
D|-7------------7---------|-------------------7----7----|----------------7---------|
A|------------------------|-----------------------------|--------------------------|
E|----------5-------------|-5---5-------5--5------------|-5--------5--5------------|
B|------------------------|-----------------------------|--------------------------|


B|--------------------------------|-----------------------|------------------------------|
G|--------------------------------|-----------------------|------------------------------|
D|-7---7-------7--7--7-------7----|--------------4-----4--|--------------4-------4---3---|
A|--------------------------------|-----------------------|------------------------------|
E|-----------------------5--------|-2----2---2------------|-2---2----2-------2-----------|
B|--------------------------------|-----------------------|------------------------------|


B|-------------|---------------------------------|----------------|---------------------------------|
G|-------------|---------------------------------|----------------|---------------------------------|
D|-------------|-----------------3-------3-------|----------------|---------------------------------|
A|-------------|---------------------------------|----------------|---------------------------------|
E|-1-----1-----|-1---1---1---1-------1-------1---|----------------|-----------------------------0---|
B|-------------|---------------------------------|-3------3---3---|-3---3---3---3---3---3---3-------|


B|------------------------|---------------------------------|-----------------|------------------------------|
G|------------------------|---------------------------------|-----------------|------------------------------|
D|------------------------|---------------------------------|-----------------|------------------------------|
A|------------------------|---------------------------------|-----------------|------------------------------|
E|-1-----1---1----1---1---|-1---1---1---1---1---1---1---1---|-5-----5---5-----|-5---5---5----5---5---5---5---|
B|------------------------|---------------------------------|-----------------|------------------------------|


B|------------------------------|---------------------------------|---------------------|
G|------------------------------|---------------------------------|---------------------|
D|------------------------------|---------------------------------|---------------------|
A|------------------------------|---------------------------------|-----------5---------|
E|-5---0---3---5---5----5---5---|-5---5---5---5---5---5---5---5---|-------5---------5---|
B|------------------------------|---------------------------------|-3-------------------|


B|-----------------------|------------------------------|---------------------------------|
G|-----------------------|------------------------------|---------------------------------|
D|-----------------------|------------------------------|---------------------------------|
A|-5---------------------|------------------------------|---------------------------------|
E|-----5-----------------|-1----1---1---1---1---1---1---|-1---1---1---1---1---1---1---1---|
B|---------3---3---3-----|------------------------------|---------------------------------|


B|---------------------|------------------------------|---------------------|------------------------------|
G|---------------------|------------------------------|---------------------|------------------------------|
D|-----------7-----7---|--------------7---7---5---7---|-----------7---------|--------------7---5---7---5---|
A|---------------------|------------------------------|---------------------|------------------------------|
E|-5-----5-------------|-5----5---5-------------------|-5-----5---------5---|-5----5---5-------------------|
B|---------------------|------------------------------|---------------------|------------------------------|


B|---------------------|---------------------------|---------------------|---------------------------------|
G|---------------------|---------------------------|---------------------|---------------------------------|
D|-----------7---------|-----------7---7---5---7---|-----------7-----7---|---------------------------------|
A|---------------------|---------------------------|---------------------|---------------------------------|
E|-5-----5---------5---|-5----5--------------------|-5-----5-------------|-5---3---5---3---5---3---5---3---|
B|---------------------|---------------------------|---------------------|---------------------------------|


B|-----------------|------------------------------|---------------------|---------------------------|
G|-----------------|------------------------------|---------------------|---------------------------|
D|-----------7-----|--------------7---7---5---7---|-----------3---------|-----------3-------3-------|
A|-----------------|------------------------------|---------------------|---------------------------|
E|-5-----5---------|-5----5---5-------------------|-1-----1---------1---|-1----1--------1-------1---|
B|-----------------|------------------------------|---------------------|---------------------------|


B|---------------------|------------------------------|---------------------|--------|
G|---------------------|------------------------------|---------------------|--------|
D|-----------4---------|--------------4-------4-------|---------------------|--------|
A|---------------------|------------------------------|-----------5---------|--------|
E|-2-----2---------2---|-2----2---2-------2-------2---|-------5-------------|--------|
B|---------------------|------------------------------|-3-------------------|--------|


B|------------------------|-----------------------------|------------------------------|
G|------------------------|-----------------------------|------------------------------|
D|--------------7---------|-------------------7----7----|--------------------7---------|
A|------------------------|-----------------------------|------------------------------|
E|-5--------5-------------|-5---5-------5--5------------|-5------------5--5------------|
B|------------------------|-----------------------------|------------------------------|


B|-----------------------------------|------------------------|---------------------------|
G|-----------------------------------|------------------------|---------------------------|
D|-------------------7-------7---5---|--------------7---------|-----------------7----7----|
A|-----------------------------------|------------------------|---------------------------|
E|-5---5-------5--5------5-----------|-5--------5-------------|-5---5-------5-------------|
B|-----------------------------------|------------------------|---------------------------|


B|--------|--------|---------------------|-----------------------------|--------------------------|
G|--------|--------|---------------------|-----------------------------|--------------------------|
D|--------|--------|-----------7---------|-------------------7----7----|----------------7---------|
A|--------|--------|---------------------|-----------------------------|--------------------------|
E|-5------|-5------|-5-------------------|-5---5-------5--5------------|-5--------5--5------------|
B|--------|--------|---------------------|-----------------------------|--------------------------|


B|-----------------------------------|------------------------|-----------------------------|
G|-----------------------------------|------------------------|-----------------------------|
D|-------------------7-------7---5---|-7------------7---------|-------------------7----7----|
A|-----------------------------------|------------------------|-----------------------------|
E|-5---5-------5--5------5-----------|----------5-------------|-5---5-------5--5------------|
B|-----------------------------------|------------------------|-----------------------------|


B|-----------------------------|-----------------------------|------------------------|
G|-----------------------------|-----------------------------|------------------------|
D|-------------------5---------|-----5--------5--5--5---5----|--------------7---------|
A|------------------------5----|-5-------5-------------------|------------------------|
E|-5---------------------------|-----------------------------|-5--------5-------------|
B|-----------------------------|-----------------------------|------------------------|


B|-----------------------------|--------------------------|-----------------------------------|
G|-----------------------------|--------------------------|-----------------------------------|
D|-------------------7----7----|----------------7---------|-------------------7---------------|
A|-----------------------------|--------------------------|-----------------------------------|
E|-5---5-------5--5------------|-5--------5--5------------|-5---5-------5--5------5---5---4---|
B|-----------------------------|--------------------------|-----------------------------------|


B|-----------------------|------------------------------|-----------------------|--------|
G|-----------------------|------------------------------|-----------------------|--------|
D|-----------------4-----|--------------4-------4---3---|-----------------------|--------|
A|-----------------------|------------------------------|-----------------------|--------|
E|-2---2---2---2---------|-2---2----2-------2-----------|-1---1---1---1---1-----|-1------|
B|-----------------------|------------------------------|-----------------------|--------|


B|---------------------|---------------------------|---------------------|---------------------------------|
G|---------------------|---------------------------|---------------------|---------------------------------|
D|---------------------|---------------------------|---------------------|---------------------------------|
A|-----------5---------|-5------------5------------|---------------------|-8-------------------------------|
E|-----------------5---|-----5---------------------|-----------------8---|-----8---------------------------|
B|-3-----3-------------|---------3---------3---5---|-6-----6---6---------|---------6---6---6---6---6---6---|


B|---------------------|------------------------------|---------------------------------|
G|---------------------|------------------------------|-----------------5---------------|
D|-----------7---------|--------------7---7---5---7---|-7---7---5---7-------7---5---7---|
A|-----------------7---|------------------------------|---------------------------------|
E|-5-----5-------------|-5----5---5-------------------|---------------------------------|
B|---------------------|------------------------------|---------------------------------|


B|---------------------------------|---------------------|------------------------------|
G|---------------------------------|---------------------|------------------------------|
D|---------------------------------|-----------3---------|-3------------3-------3-------|
A|---------------------------------|---------------------|------------------------------|
E|-5---5---5---5---5---4---3---2---|-1-----1---------1---|------1---1-------1-------1---|
B|---------------------------------|---------------------|------------------------------|


B|-----------------|---------------------------------|---------------------|------------------------------|
G|-----------------|---------------------------------|---------------------|------------------------------|
D|-----------------|---------------------------------|-----------7---------|--------------7---7---5---7---|
A|-----------------|---------------------------------|---------------------|------------------------------|
E|-3-----3----3----|-3---3---3---3---3---3---3---3---|-5-----5---------5---|-5----5---5-------------------|
B|-----------------|---------------------------------|---------------------|------------------------------|


B|---------------------|---------------------------------|---------------------|------------------------------|
G|---------------------|-----5---------------------------|---------------------|-----6------------------------|
D|-----------7---------|-7-------7---5---7---7---5---7---|-----------7---------|-7-------7---5---7------------|
A|---------------------|---------------------------------|---------------------|------------------------------|
E|-5-----5---------5---|---------------------------------|-5-----5---------5---|----------------------5---5---|
B|---------------------|---------------------------------|---------------------|------------------------------|


B|--------------------|---------------------------------|-----------------|------------------------------|
G|--------------------|---------------------------------|-----------------|------------------------------|
D|--------------------|---------------------------------|-----------7-----|--------------7---7---5---7---|
A|--------------------|---------------------------------|-----------------|------------------------------|
E|-5-----5----5---5---|-5---3---5---3---5---3---5---3---|-5-----5---------|-5----5---5-------------------|
B|--------------------|---------------------------------|-----------------|------------------------------|


B|---------------------|---------------------------|---------------------|------------------------------|
G|---------------------|---------------------------|---------------------|------------------------------|
D|-----------3---------|-----------3-------3-------|-----------4---------|--------------4-------4-------|
A|---------------------|---------------------------|---------------------|------------------------------|
E|-1-----1---------1---|-1----1--------1-------1---|-2-----2---------2---|-2----2---2-------2-------2---|
B|---------------------|---------------------------|---------------------|------------------------------|


B|---------------------------|--------|
G|---------------------------|--------|
D|---------------------------|--------|
A|--------------5------------|-5------|
E|---------------------------|--------|
B|-3----3---3--------3---3---|--------|