Menu:

 

Search:

 

dream theater - new millennium:

 



Title: New Millenium
Artist: 
Album: Falling Into Infinity
Author: Dream Theater


Track 1: Gtr.1

E|---------------------------------|---------------------------------|---------------------------------|
B|---------------------------------|-7-----------------------5-------|-5-------7-----------------------|
G|-6-------6-------4---6---4---6---|---------4---6---4---6-------6---|-----------------4---6---4---6---|
D|-------------4-------------------|-----4---------------------------|-----4-------4-------------------|
A|-----4---------------------------|---------------------------------|---------------------------------|
E|---------------------------------|---------------------------------|---------------------------------|
B|---------------------------------|---------------------------------|---------------------------------|


E|---------------------------------|---------------------------------|---------------------------------|
B|-7-----------------------5-------|---------------------------------|-7-----------------------5-------|
G|---------4---6---4---6-------4---|-6-------6-------4---6---4---6---|---------4---6---4---6-------6---|
D|-----4---------------------------|-------------4-------------------|-----4---------------------------|
A|---------------------------------|-----4---------------------------|---------------------------------|
E|---------------------------------|---------------------------------|---------------------------------|
B|---------------------------------|---------------------------------|---------------------------------|


E|---------------------------------|---------------------------------|---------------------------------|
B|-5-------7-----------------------|-7-----------------------5-------|---------------------------------|
G|-----------------4---6---4---6---|---------4---6---4---6-------4---|-6-------6-------4---6---4---6---|
D|-----4-------4-------------------|-----4---------------------------|-------------4-------------------|
A|---------------------------------|---------------------------------|-----4---------------------------|
E|---------------------------------|---------------------------------|---------------------------------|
B|---------------------------------|---------------------------------|---------------------------------|


E|---------------------------------|---------------------------------|---------------------------------|
B|-7-----------------------5-------|-5-------7-----------------------|-7-----------------------5-------|
G|---------4---6---4---6-------6---|-----------------4---6---4---6---|---------4---6---4---6-------4---|
D|-----4---------------------------|-----4-------4-------------------|-----4---------------------------|
A|---------------------------------|---------------------------------|---------------------------------|
E|---------------------------------|---------------------------------|---------------------------------|
B|---------------------------------|---------------------------------|---------------------------------|


E|---------------------------------|---------------------------------|---------------------------------|
B|---------------------------------|-7-----------------------5-------|-5-------7-----------------------|
G|-6-------6-------4---6---4---6---|---------4---6---4---6-------6---|-----------------4---6---4---6---|
D|-------------4-------------------|-----4---------------------------|-----4-------4-------------------|
A|-----4---------------------------|---------------------------------|---------------------------------|
E|---------------------------------|---------------------------------|---------------------------------|
B|---------------------------------|---------------------------------|---------------------------------|


E|---------------------------------|--------|--------|--------|--------|--------|--------|
B|-7-----------------------5-------|--------|--------|--------|--------|--------|--------|
G|---------4---6---4---6-------4---|--------|--------|--------|--------|--------|--------|
D|-----4---------------------------|--------|--------|--------|--------|--------|--------|
A|---------------------------------|--------|--------|--------|--------|--------|--------|
E|---------------------------------|--------|--------|--------|--------|--------|--------|
B|---------------------------------|--------|--------|--------|--------|--------|--------|


E|--------|-----------------------|---------------------|-----------------------|------------------------|
B|--------|-----------------------|---------------------|-----------------------|------------------------|
G|--------|-------------------6---|-6-------------4-----|-4-----------------2---|-2----1----1------------|
D|--------|-----------------------|---------------------|-----------------------|---------------3---3----|
A|--------|-------2---4---4-------|------4----4---------|-------2---4---4-------|------------------------|
E|--------|-----------------------|---------------------|-----------------------|------------------------|
B|--------|-----------------------|---------------------|-----------------------|------------------------|


E|---------------------------|------------------------|---------------------------|
B|---------------------------|------------------------|---------------------------|
G|------------------6---6----|-6---7---7---4-----4----|---------------------------|
D|-4-------------------------|-4----------------------|--------------7---6---6----|
A|------2---4---4------------|-4---5---5--------------|------2---4----------------|
E|---------------------------|------------------------|---------------------------|
B|---------------------------|------------------------|---------------------------|


E|------------------------|---------------------------|-----------------|---------------------|
B|------------------------|---------------------------|-----------------|-------9---9----10---|
G|------------------------|-------------6---6---------|-----4-----4-----|-------6--------7----|
D|-3----3---4---4----6----|---------------------------|-----------------|-------6---6----7----|
A|------------------------|-2---4---4------------4----|-4---------------|---------------------|
E|------------------------|---------------------------|-----------------|-0-------------------|
B|------------------------|---------------------------|-----------------|---------------------|


E|---------------------------|---------------------------|-----------------|---------------------------|
B|-10--12--12---12-----------|---------------------------|-----------------|-----9---9----10---10--9---|
G|-----9--------9------------|-----6---6-------------4---|------4----------|-----6--------7--------9---|
D|-7---9---9----9------------|---------------------------|-----------------|-----6---6----7----7---6---|
A|-------------------2---4---|-4------------4----4-------|-----------------|---------------------------|
E|---------------------------|---------------------------|------------0----|---------------------------|
B|---------------------------|---------------------------|-----------------|---------------------------|


E|---------------------------|---------------------------------|-9-------------------------------|
B|-9----7--------------------|-------------------------7---9---|-----7---------------12--14------|
G|------4----6-------4-------|-------------6-------4-----------|-----------------9-----------11--|
D|-6----4--------6-------4---|-6-------4-------6---------------|-------------11------------------|
A|---------------------------|-----4---------------------------|---------9-----------------------|
E|---------------------------|---------------------------------|---------------------------------|
B|---------------------------|---------------------------------|---------------------------------|


E|-----14------11------------------|---------------------------------|-----------------9---------------|
B|-12----------------------14------|---------------------------------|---------7---9-------7-----------|
G|---------13------11--13------13--|-6-------4-------------------6---|-----4---------------------------|
D|---------------------------------|-----6-------4---6-------4-------|-6---------------------------11--|
A|---------------------------------|---------------------4-----------|-------------------------9-------|
E|---------------------------------|---------------------------------|---------------------------------|
B|---------------------------------|---------------------------------|---------------------------------|


E|---------------------------------|---------------------------|--------|--------|
B|-----12--14------12--14------12--|---------------------------|--------|--------|
G|-9-----------11----------13------|-11--13--------------------|--------|--------|
D|---------------------------------|-------------9---11--------|--------|--------|
A|---------------------------------|---------9-----------------|--------|--------|
E|---------------------------------|---------------------------|--------|--------|
B|---------------------------------|---------------------------|--------|--------|


E|--------|--------|--------|--------|--------|--------|--------|--------|--------|
B|--------|--------|--------|--------|--------|--------|--------|--------|--------|
G|--------|--------|--------|--------|--------|--------|--------|--------|--------|
D|--------|--------|--------|--------|--------|--------|--------|--------|--------|
A|--------|--------|--------|--------|--------|--------|--------|--------|--------|
E|--------|--------|--------|--------|--------|--------|--------|--------|--------|
B|--------|--------|--------|--------|--------|--------|--------|--------|--------|


E|--------|--------|--------|--------|--------|--------|--------|--------|--------|
B|--------|--------|--------|--------|--------|--------|--------|--------|--------|
G|--------|--------|--------|--------|--------|--------|--------|--------|--------|
D|--------|--------|--------|--------|--------|--------|--------|--------|--------|
A|--------|--------|--------|--------|--------|--------|--------|--------|--------|
E|--------|--------|--------|--------|--------|--------|--------|--------|--------|
B|--------|--------|--------|--------|--------|--------|--------|--------|--------|


E|--------|--------|--------|--------|--------|--------|--------|--------|--------|
B|--------|--------|--------|--------|--------|--------|--------|--------|--------|
G|--------|--------|--------|--------|--------|--------|--------|--------|--------|
D|--------|--------|--------|--------|--------|--------|--------|--------|--------|
A|--------|--------|--------|--------|--------|--------|--------|--------|--------|
E|--------|--------|--------|--------|--------|--------|--------|--------|--------|
B|--------|--------|--------|--------|--------|--------|--------|--------|--------|


E|--------|--------|--------|--------|--------|--------|--------|--------|--------|
B|--------|--------|--------|--------|--------|--------|--------|--------|--------|
G|--------|--------|--------|--------|--------|--------|--------|--------|--------|
D|--------|--------|--------|--------|--------|--------|--------|--------|--------|
A|--------|--------|--------|--------|--------|--------|--------|--------|--------|
E|--------|--------|--------|--------|--------|--------|--------|--------|--------|
B|--------|--------|--------|--------|--------|--------|--------|--------|--------|


E|--------|--------|--------|--------|--------|--------|--------|--------|--------|
B|--------|--------|--------|--------|--------|--------|--------|--------|--------|
G|--------|--------|--------|--------|--------|--------|--------|--------|--------|
D|--------|--------|--------|--------|--------|--------|--------|--------|--------|
A|--------|--------|--------|--------|--------|--------|--------|--------|--------|
E|--------|--------|--------|--------|--------|--------|--------|--------|--------|
B|--------|--------|--------|--------|--------|--------|--------|--------|--------|


E|--------|--------|--------|--------|--------|--------|--------|--------|--------|
B|--------|--------|--------|--------|--------|--------|--------|--------|--------|
G|--------|--------|--------|--------|--------|--------|--------|--------|--------|
D|--------|--------|--------|--------|--------|--------|--------|--------|--------|
A|--------|--------|--------|--------|--------|--------|--------|--------|--------|
E|--------|--------|--------|--------|--------|--------|--------|--------|--------|
B|--------|--------|--------|--------|--------|--------|--------|--------|--------|


E|--------|--------|--------|--------|--------|--------|--------|--------|--------|
B|--------|--------|--------|--------|--------|--------|--------|--------|--------|
G|--------|--------|--------|--------|--------|--------|--------|--------|--------|
D|--------|--------|--------|--------|--------|--------|--------|--------|--------|
A|--------|--------|--------|--------|--------|--------|--------|--------|--------|
E|--------|--------|--------|--------|--------|--------|--------|--------|--------|
B|--------|--------|--------|--------|--------|--------|--------|--------|--------|


E|--------|--------|--------|--------|--------|--------|--------|--------|--------------------|
B|--------|--------|--------|--------|--------|--------|--------|--------|--------------------|
G|--------|--------|--------|--------|--------|--------|--------|--------|--------------6-----|
D|--------|--------|--------|--------|--------|--------|--------|--------|--------------------|
A|--------|--------|--------|--------|--------|--------|--------|--------|------2---4---------|
E|--------|--------|--------|--------|--------|--------|--------|--------|--------------------|
B|--------|--------|--------|--------|--------|--------|--------|--------|--------------------|


E|--------------------------------|---------------------------|---------------------|
B|--------------------------------|---------------------------|---------------------|
G|-6------------4----6--4--6--4---|---------------------------|---------------------|
D|--------------------------------|--------------7----7---6---|------3-----4---4----|
A|-----4---4----------------------|------2---4----------------|---------------------|
E|--------------------------------|---------------------------|---------------------|
B|--------------------------------|---------------------------|---------------------|


E|--------------------|--------------------------------|---------------------------|
B|--------------------|--------------------------------|---------------------------|
G|--------------6-----|-6----9--7----4----6--4--6--4---|---------------------------|
D|-6------------------|--------------------------------|--------------7----7---6---|
A|------2---4---------|--------------------------------|------2---4----------------|
E|--------------------|--------------------------------|---------------------------|
B|--------------------|--------------------------------|---------------------------|


E|---------------------|--------------------|--------------------------------|---------------------------|
B|---------------------|--------------------|--------------------------------|---------------------------|
G|---------------------|--------------6-----|-6------------4----6--4--6--4---|---------------------------|
D|------3-----4---4----|-6------------------|--------------------------------|--------------7----7---6---|
A|---------------------|------2---4---------|-----4---4----------------------|------2---4----------------|
E|---------------------|--------------------|--------------------------------|---------------------------|
B|---------------------|--------------------|--------------------------------|---------------------------|


E|---------------------|--------------------|--------------------------------|---------------------------|
B|---------------------|--------------------|--------------------------------|---------------------------|
G|---------------------|--------------6-----|-6----9--7----4----6--4--6--4---|---------------------------|
D|------3-----4---4----|-6------------------|--------------------------------|--------------7----7---6---|
A|---------------------|------2---4---------|--------------------------------|------2---4----------------|
E|---------------------|--------------------|--------------------------------|---------------------------|
B|---------------------|--------------------|--------------------------------|---------------------------|


E|---------------------|-------------|--------|--------|--------|--------|--------|
B|---------------------|-------------|--------|--------|--------|--------|--------|
G|---------------------|-------------|--------|--------|--------|--------|--------|
D|------3-----4---4----|-6-----------|--------|--------|--------|--------|--------|
A|---------------------|-------------|--------|--------|--------|--------|--------|
E|---------------------|-------------|--------|--------|--------|--------|--------|
B|---------------------|-------------|--------|--------|--------|--------|--------|


E|--------|--------|--------|--------|--------|--------|--------|--------|--------|
B|--------|--------|--------|--------|--------|--------|--------|--------|--------|
G|--------|--------|--------|--------|--------|--------|--------|--------|--------|
D|--------|--------|--------|--------|--------|--------|--------|--------|--------|
A|--------|--------|--------|--------|--------|--------|--------|--------|--------|
E|--------|--------|--------|--------|--------|--------|--------|--------|--------|
B|--------|--------|--------|--------|--------|--------|--------|--------|--------|


E|--------|--------|--------|--------|--------|--------|--------|--------|--------|
B|--------|--------|--------|--------|--------|--------|--------|--------|--------|
G|--------|--------|--------|--------|--------|--------|--------|--------|--------|
D|--------|--------|--------|--------|--------|--------|--------|--------|--------|
A|--------|--------|--------|--------|--------|--------|--------|--------|--------|
E|--------|--------|--------|--------|--------|--------|--------|--------|--------|
B|--------|--------|--------|--------|--------|--------|--------|--------|--------|


E|--------|--------|--------|--------|--------|--------|--------|--------|--------|
B|--------|--------|--------|--------|--------|--------|--------|--------|--------|
G|--------|--------|--------|--------|--------|--------|--------|--------|--------|
D|--------|--------|--------|--------|--------|--------|--------|--------|--------|
A|--------|--------|--------|--------|--------|--------|--------|--------|--------|
E|--------|--------|--------|--------|--------|--------|--------|--------|--------|
B|--------|--------|--------|--------|--------|--------|--------|--------|--------|


E|--------|--------|--------|--------|--------|--------|--------|--------|--------|
B|--------|--------|--------|--------|--------|--------|--------|--------|--------|
G|--------|--------|--------|--------|--------|--------|--------|--------|--------|
D|--------|--------|--------|--------|--------|--------|--------|--------|--------|
A|--------|--------|--------|--------|--------|--------|--------|--------|--------|
E|--------|--------|--------|--------|--------|--------|--------|--------|--------|
B|--------|--------|--------|--------|--------|--------|--------|--------|--------|


E|--------|--------|--------|--------|--------|--------|--------|--------|--------|
B|--------|--------|--------|--------|--------|--------|--------|--------|--------|
G|--------|--------|--------|--------|--------|--------|--------|--------|--------|
D|--------|--------|--------|--------|--------|--------|--------|--------|--------|
A|--------|--------|--------|--------|--------|--------|--------|--------|--------|
E|--------|--------|--------|--------|--------|--------|--------|--------|--------|
B|--------|--------|--------|--------|--------|--------|--------|--------|--------|


E|--------|--------|--------|--------|--------|--------|--------|--------|--------|
B|--------|--------|--------|--------|--------|--------|--------|--------|--------|
G|--------|--------|--------|--------|--------|--------|--------|--------|--------|
D|--------|--------|--------|--------|--------|--------|--------|--------|--------|
A|--------|--------|--------|--------|--------|--------|--------|--------|--------|
E|--------|--------|--------|--------|--------|--------|--------|--------|--------|
B|--------|--------|--------|--------|--------|--------|--------|--------|--------|


E|--------|--------|--------|---------------------------|---------9------------------9--------|
B|--------|--------|--------|-----------------------9---|-------------9--------7--9-----9--7--|
G|--------|--------|--------|---------------------------|-------------------------------------|
D|--------|--------|--------|-----------11-11-11-11-----|-11----------------------------------|
A|--------|--------|--------|---------------------------|-------------------------------------|
E|--------|--------|--------|---------------------------|-------------------------------------|
B|--------|--------|--------|---------------------------|-------------------------------------|


E|--------------11---9----------|-----------------------------------|------------------------------|
B|------9-------9----9------9---|-----------------------------------|------11---11-11--9---9---9---|
G|--------------------------9---|-----------------9---9--9--9---9---|-9----11---11-11--9---9---9---|
D|------------------------------|-----11------9---9---9--9--9---9---|-9----------------------------|
A|------------------------------|-----11------9---------------------|------------------------------|
E|------------------------------|-----------------------------------|------------------------------|
B|------------------------------|-----------------------------------|------------------------------|


E|-9---------14-14-14-14-14-14-14--14-14-----------|-------------------------------9----9--|
B|-11--9--9--12-12-12-12-12-12-12--12-12-12-14-14--|-9--9---9------------9---9--9--9----9--|
G|-9---9--9------------------------------12-11-11--|-9--9---9--13--11-11-9---9--9--11---11-|
D|------------------------------------------11-11--|-----------11--11-11-------------------|
A|-------------------------------------------------|-----------11--------------------------|
E|-------------------------------------------------|---------------------------------------|
B|-------------------------------------------------|---------------------------------------|


E|-----9------9---------------------|------------------------------|---------------------------------|
B|-----9---9--9-----9--9---9---9----|-----12------11-------12------|-11----------12------11------12--|
G|-----11--9--11----9--9---9---9----|------------------------------|---------------------------------|
D|----------------------------------|------------------------------|---------------------------------|
A|----------------------------------|------------------------------|---------------------------------|
E|----------------------------------|------------------------------|---------------------------------|
B|----------------------------------|------------------------------|---------------------------------|


E|------------------------------|---------------------------------|------------------------------|
B|-----12------11-------12------|-11----------12------11------12--|-----11-------12------11------|
G|------------------------------|---------------------------------|------------------------------|
D|------------------------------|---------------------------------|------------------------------|
A|------------------------------|---------------------------------|------------------------------|
E|------------------------------|---------------------------------|------------------------------|
B|------------------------------|---------------------------------|------------------------------|


E|---------------------------------|------------------------------|---------------------------------|
B|-----12------11------12------12--|-----11-------12------11------|-----12------11------12------11--|
G|---------------------------------|------------------------------|---------------------------------|
D|---------------------------------|------------------------------|---------------------------------|
A|---------------------------------|------------------------------|---------------------------------|
E|---------------------------------|------------------------------|---------------------------------|
B|---------------------------------|------------------------------|---------------------------------|


E|------------------------------|---------------------------------|------------------------------|
B|------12------11----------12--|-----11------12------12------11--|------12------11----------12--|
G|------------------------------|---------------------------------|------------------------------|
D|------------------------------|---------------------------------|------------------------------|
A|------------------------------|---------------------------------|------------------------------|
E|------------------------------|---------------------------------|------------------------------|
B|------------------------------|---------------------------------|------------------------------|


E|----------------|--------|--------|--------|--------|--------|--------|--------|
B|-----11---------|--------|--------|--------|--------|--------|--------|--------|
G|----------------|--------|--------|--------|--------|--------|--------|--------|
D|----------------|--------|--------|--------|--------|--------|--------|--------|
A|----------------|--------|--------|--------|--------|--------|--------|--------|
E|----------------|--------|--------|--------|--------|--------|--------|--------|
B|----------------|--------|--------|--------|--------|--------|--------|--------|


E|--------|--------|--------|--------|--------|--------|--------|--------|--------|
B|--------|--------|--------|--------|--------|--------|--------|--------|--------|
G|--------|--------|--------|--------|--------|--------|--------|--------|--------|
D|--------|--------|--------|--------|--------|--------|--------|--------|--------|
A|--------|--------|--------|--------|--------|--------|--------|--------|--------|
E|--------|--------|--------|--------|--------|--------|--------|--------|--------|
B|--------|--------|--------|--------|--------|--------|--------|--------|--------|


E|--------|--------|--------|--------|--------|--------|--------|--------|--------|
B|--------|--------|--------|--------|--------|--------|--------|--------|--------|
G|--------|--------|--------|--------|--------|--------|--------|--------|--------|
D|--------|--------|--------|--------|--------|--------|--------|--------|--------|
A|--------|--------|--------|--------|--------|--------|--------|--------|--------|
E|--------|--------|--------|--------|--------|--------|--------|--------|--------|
B|--------|--------|--------|--------|--------|--------|--------|--------|--------|


E|--------|--------|--------|--------|--------|--------|--------|--------|--------|
B|--------|--------|--------|--------|--------|--------|--------|--------|--------|
G|--------|--------|--------|--------|--------|--------|--------|--------|--------|
D|--------|--------|--------|--------|--------|--------|--------|--------|--------|
A|--------|--------|--------|--------|--------|--------|--------|--------|--------|
E|--------|--------|--------|--------|--------|--------|--------|--------|--------|
B|--------|--------|--------|--------|--------|--------|--------|--------|--------|


E|--------|--------|--------|--------|--------|--------|--------|--------|--------|
B|--------|--------|--------|--------|--------|--------|--------|--------|--------|
G|--------|--------|--------|--------|--------|--------|--------|--------|--------|
D|--------|--------|--------|--------|--------|--------|--------|--------|--------|
A|--------|--------|--------|--------|--------|--------|--------|--------|--------|
E|--------|--------|--------|--------|--------|--------|--------|--------|--------|
B|--------|--------|--------|--------|--------|--------|--------|--------|--------|


E|--------|--------|--------|--------|--------|--------|--------|--------|--------|
B|--------|--------|--------|--------|--------|--------|--------|--------|--------|
G|--------|--------|--------|--------|--------|--------|--------|--------|--------|
D|--------|--------|--------|--------|--------|--------|--------|--------|--------|
A|--------|--------|--------|--------|--------|--------|--------|--------|--------|
E|--------|--------|--------|--------|--------|--------|--------|--------|--------|
B|--------|--------|--------|--------|--------|--------|--------|--------|--------|


E|--------|--------|--------|--------|--------|--------|--------|--------|
B|--------|--------|--------|--------|--------|--------|--------|--------|
G|--------|--------|--------|--------|--------|--------|--------|--------|
D|--------|--------|--------|--------|--------|--------|--------|--------|
A|--------|--------|--------|--------|--------|--------|--------|--------|
E|--------|--------|--------|--------|--------|--------|--------|--------|
B|--------|--------|--------|--------|--------|--------|--------|--------|





Track 2: Gtr.2

E|---------------------------------|---------------------------------|---------------------------------|
B|-7-----------5-----------7-------|-----5-----------7-------7-------|-7-----------5-----------7-------|
G|---------6-------4---6-----------|-6-------4---6-------6-------4---|---------6-------4---6-----------|
D|-----4-----------------------4---|---------------------------------|-----4-----------------------4---|
A|---------------------------------|---------------------------------|---------------------------------|
E|---------------------------------|---------------------------------|---------------------------------|
B|---------------------------------|---------------------------------|---------------------------------|


E|---------------------------------|---------------------------------|---------------------------------|
B|-----5-----------7-------7-------|-7-----------5-----------7-------|-----5-----------7-------7-------|
G|-6-------4---6-------6-------4---|---------6-------4---6-----------|-6-------4---6-------6-------4---|
D|---------------------------------|-----4-----------------------4---|---------------------------------|
A|---------------------------------|---------------------------------|---------------------------------|
E|---------------------------------|---------------------------------|---------------------------------|
B|---------------------------------|---------------------------------|---------------------------------|


E|---------------------------------|---------------------------------|---------------------------------|
B|-7-----------5-----------7-------|-----5-----------7-------7-------|-7-----------5-----------7-------|
G|---------6-------4---6-----------|-6-------4---6-------6-------4---|---------6-------4---6-----------|
D|-----4-----------------------4---|---------------------------------|-----4-----------------------4---|
A|---------------------------------|---------------------------------|---------------------------------|
E|---------------------------------|---------------------------------|---------------------------------|
B|---------------------------------|---------------------------------|---------------------------------|


E|---------------------------------|---------------------------------|---------------------------------|
B|-----5-----------7-------7-------|-7-----------5-----------7-------|-----5-----------7-------7-------|
G|-6-------4---6-------6-------4---|---------6-------4---6-----------|-6-------4---6-------6-------4---|
D|---------------------------------|-----4-----------------------4---|---------------------------------|
A|---------------------------------|---------------------------------|---------------------------------|
E|---------------------------------|---------------------------------|---------------------------------|
B|---------------------------------|---------------------------------|---------------------------------|


E|---------------------------------|---------------------------------|---------------------------------|
B|-7-----------5-----------7-------|-----5-----------7-------7-------|-7-----------5-----------7-------|
G|---------6-------4---6-----------|-6-------4---6-------6-------4---|---------6-------4---6-----------|
D|-----4-----------------------4---|---------------------------------|-----4-----------------------4---|
A|---------------------------------|---------------------------------|---------------------------------|
E|---------------------------------|---------------------------------|---------------------------------|
B|---------------------------------|---------------------------------|---------------------------------|


E|---------------------------------|--------|--------|--------|----------------|---------------------------------|
B|-----5-----------7-------7-------|--------|--------|--------|--------7-------|-----5-----------7-----------5---|
G|-6-------4---6-------6-------4---|--------|--------|--------|------------6---|-6-------4---6-------6---6-------|
D|---------------------------------|--------|--------|--------|----------------|---------------------------------|
A|---------------------------------|--------|--------|--------|----------------|---------------------------------|
E|---------------------------------|--------|--------|--------|----------------|---------------------------------|
B|---------------------------------|--------|--------|--------|----------------|---------------------------------|


E|---------------------------------|---------------------------------|---------------------------------|
B|---------7-------5-------7-------|-----5-----------7-----------5---|---------7-------7-----------5---|
G|-4---6-------6-------4-------6---|-6-------4---6-------6---6-------|-4---6-------4-------6---6-------|
D|---------------------------------|---------------------------------|---------------------------------|
A|---------------------------------|---------------------------------|---------------------------------|
E|---------------------------------|---------------------------------|---------------------------------|
B|---------------------------------|---------------------------------|---------------------------------|


E|---------------------------------|---------------------------------|---------------------------------|
B|---------7-----------5-----------|-7-------5-------7-----------5---|---------7-----------5-----------|
G|-4---6-------6---6-------4---6---|-----6-------4-------6---6-------|-4---6-------6---6-------4---6---|
D|---------------------------------|---------------------------------|---------------------------------|
A|---------------------------------|---------------------------------|---------------------------------|
E|---------------------------------|---------------------------------|---------------------------------|
B|---------------------------------|---------------------------------|---------------------------------|


E|---------------------------------|---------------------------------|---------------------------------|
B|-7-------7-----------5-----------|-7-----------5-----------7-------|-5-------7-----------5-----------|
G|-----4-------6---6-------4---6---|-----6---6-------4---6-------6---|-----4-------6---6-------4---6---|
D|---------------------------------|---------------------------------|---------------------------------|
A|---------------------------------|---------------------------------|---------------------------------|
E|---------------------------------|---------------------------------|---------------------------------|
B|---------------------------------|---------------------------------|---------------------------------|


E|---------------------------------|--------|--------|--------|--------|--------|--------|
B|-7-----------5-----------7-------|--------|--------|--------|--------|--------|--------|
G|-----6---6-------4---6-------4---|--------|--------|--------|--------|--------|--------|
D|---------------------------------|--------|--------|--------|--------|--------|--------|
A|---------------------------------|--------|--------|--------|--------|--------|--------|
E|---------------------------------|--------|--------|--------|--------|--------|--------|
B|---------------------------------|--------|--------|--------|--------|--------|--------|


E|--------|-------------|-------------|------------------------------|-------------11------------------|
B|--------|-------------|-------------|------14------12--------------|-----14------------------14------|
G|--------|-------------|-------------|----------13------11--13------|-11------13------11--13------13--|
D|--------|-------------|-------------|--------------------------11--|---------------------------------|
A|--------|-------------|-------------|------------------------------|---------------------------------|
E|--------|-------------|-------------|------------------------------|---------------------------------|
B|--------|-------------|-------------|------------------------------|---------------------------------|


E|--------|----------------|---------------------------------|---------------------------|
B|--------|--------14------|-12------------------14------12--|---------------------------|
G|--------|------------13--|-----11--13------11------13------|-11--13--------------------|
D|--------|----------------|-------------11------------------|-------------9---11--------|
A|--------|----------------|---------------------------------|---------9-----------------|
E|--------|----------------|---------------------------------|---------------------------|
B|--------|----------------|---------------------------------|---------------------------|


E|--------|--------|--------|--------|--------|--------|--------|--------|--------|
B|--------|--------|--------|--------|--------|--------|--------|--------|--------|
G|--------|--------|--------|--------|--------|--------|--------|--------|--------|
D|--------|--------|--------|--------|--------|--------|--------|--------|--------|
A|--------|--------|--------|--------|--------|--------|--------|--------|--------|
E|--------|--------|--------|--------|--------|--------|--------|--------|--------|
B|--------|--------|--------|--------|--------|--------|--------|--------|--------|


E|--------|--------|--------|--------|--------|--------|-------------|---------------------|
B|--------|--------|--------|--------|--------|--------|-------------|---------------------|
G|--------|--------|--------|--------|--------|--------|-------------|------6-----4---4----|
D|--------|--------|--------|--------|--------|--------|-------------|---------------------|
A|--------|--------|--------|--------|--------|--------|-------------|---------------------|
E|--------|--------|--------|--------|--------|--------|-------------|---------------------|
B|--------|--------|--------|--------|--------|--------|-------------|---------------------|


E|---------------------|---------------------|-------------|---------------------|
B|---------------------|---------------------|-------------|---------------------|
G|------4--------------|------6-----4---4----|-------------|------6-----4---4----|
D|----------5----------|---------------------|-------------|---------------------|
A|---------------------|---------------------|-------------|---------------------|
E|---------------------|---------------------|-------------|---------------------|
B|---------------------|---------------------|-------------|---------------------|


E|---------------------|---------------------|-------------|---------------------|
B|---------------------|---------------------|-------------|---------------------|
G|------4--------------|------6-----4---4----|-------------|------6-----4---4----|
D|----------5----------|---------------------|-------------|---------------------|
A|---------------------|---------------------|-------------|---------------------|
E|---------------------|---------------------|-------------|---------------------|
B|---------------------|---------------------|-------------|---------------------|


E|---------------------|---------------------|-------------|---------------------|
B|---------------------|---------------------|-------------|---------------------|
G|------4--------------|------6-----4---4----|-------------|------6-----4---4----|
D|----------5----------|---------------------|-------------|---------------------|
A|---------------------|---------------------|-------------|---------------------|
E|---------------------|---------------------|-------------|---------------------|
B|---------------------|---------------------|-------------|---------------------|


E|---------------------|---------------------|-------------|---------------------|
B|---------------------|---------------------|-------------|---------------------|
G|------4--------------|------6-----4---4----|-------------|------6-----4---4----|
D|----------5----------|---------------------|-------------|---------------------|
A|---------------------|---------------------|-------------|---------------------|
E|---------------------|---------------------|-------------|---------------------|
B|---------------------|---------------------|-------------|---------------------|


E|---------------------|---------------------|-------------|---------------------|
B|---------------------|---------------------|-------------|---------------------|
G|------4--------------|------6-----4---4----|-------------|------6-----4---4----|
D|----------5----------|---------------------|-------------|---------------------|
A|---------------------|---------------------|-------------|---------------------|
E|---------------------|---------------------|-------------|---------------------|
B|---------------------|---------------------|-------------|---------------------|


E|---------------------|---------------------|--------|--------|--------|--------|
B|---------------------|---------------------|--------|--------|--------|--------|
G|------4--------------|------6-----4---4----|--------|--------|--------|--------|
D|----------5----------|---------------------|--------|--------|--------|--------|
A|---------------------|---------------------|--------|--------|--------|--------|
E|---------------------|---------------------|--------|--------|--------|--------|
B|---------------------|---------------------|--------|--------|--------|--------|


E|--------|--------|--------|--------|--------|--------|--------|--------|--------|
B|--------|--------|--------|--------|--------|--------|--------|--------|--------|
G|--------|--------|--------|--------|--------|--------|--------|--------|--------|
D|--------|--------|--------|--------|--------|--------|--------|--------|--------|
A|--------|--------|--------|--------|--------|--------|--------|--------|--------|
E|--------|--------|--------|--------|--------|--------|--------|--------|--------|
B|--------|--------|--------|--------|--------|--------|--------|--------|--------|


E|--------|--------|--------|---------------------|---------------------------|---------------------|
B|--------|--------|--------|----------9----------|-----------------------9---|---------------------|
G|--------|--------|--------|----------------12---|-----11--11---9------------|------12----11--11---|
D|--------|--------|--------|---------------------|---------------------------|---------------------|
A|--------|--------|--------|---------------------|---------------------------|---------------------|
E|--------|--------|--------|---------------------|---------------------------|---------------------|
B|--------|--------|--------|---------------------|---------------------------|---------------------|


E|---------------------|---------------------------|---------------------|------------------------------|
B|----------9----------|-----------------------9---|---------------------|------14----------12----------|
G|-9--------------12---|-----11--11---9------------|------12----11--11---|-9------------13------11--13--|
D|---------------------|---------------------------|---------------------|----------11------------------|
A|---------------------|---------------------------|---------------------|------------------------------|
E|---------------------|---------------------------|---------------------|------------------------------|
B|---------------------|---------------------------|---------------------|------------------------------|


E|---------------------------------|---------------------------------|-------------------------------------|
B|-14----------12----------14------|-12------14----------12----------|-14----------12----------12-11-------|
G|---------13------11--13------13--|-----11----------13------11--13--|---------13------11--13--------13-11-|
D|-----11--------------------------|-------------11------------------|-----11------------------------------|
A|---------------------------------|---------------------------------|-------------------------------------|
E|---------------------------------|---------------------------------|-------------------------------------|
B|---------------------------------|---------------------------------|-------------------------------------|


E|-------------------------------------|---------------------------------|---------------------------------|
B|-12-11-------14----------12----------|-14----------12----------14------|-12------14----------12----------|
G|-------13-11---------13------11--13--|---------13------11--13------13--|-----11----------13------11--13--|
D|-----------------11------------------|-----11--------------------------|-------------11------------------|
A|-------------------------------------|---------------------------------|---------------------------------|
E|-------------------------------------|---------------------------------|---------------------------------|
B|-------------------------------------|---------------------------------|---------------------------------|


E|-------------------------------------|-------------------------------------|---------------------------------|
B|-14----------12----------12-11-------|-12-11-------14----------12----------|-14----------12----------14------|
G|---------13------11--13--------13-11-|-------13-11---------13------11--13--|---------13------11--13------13--|
D|-----11------------------------------|-----------------11------------------|-----11--------------------------|
A|-------------------------------------|-------------------------------------|---------------------------------|
E|-------------------------------------|-------------------------------------|---------------------------------|
B|-------------------------------------|-------------------------------------|---------------------------------|


E|---------------------------------|------------------------------|-------------|--------|
B|-12------14----------12----------|-14----------12----------14---|-------------|--------|
G|-----11----------13------11--13--|---------13------11--13-------|-------------|--------|
D|-------------11------------------|-----11-----------------------|-------------|--------|
A|---------------------------------|------------------------------|-------------|--------|
E|---------------------------------|------------------------------|-------------|--------|
B|---------------------------------|------------------------------|-------------|--------|


E|--------|--------|--------|--------|--------|--------|--------|--------|--------|
B|--------|--------|--------|--------|--------|--------|--------|--------|--------|
G|--------|--------|--------|--------|--------|--------|--------|--------|--------|
D|--------|--------|--------|--------|--------|--------|--------|--------|--------|
A|--------|--------|--------|--------|--------|--------|--------|--------|--------|
E|--------|--------|--------|--------|--------|--------|--------|--------|--------|
B|--------|--------|--------|--------|--------|--------|--------|--------|--------|


E|--------|--------|--------|--------|--------|--------|--------|--------|--------|
B|--------|--------|--------|--------|--------|--------|--------|--------|--------|
G|--------|--------|--------|--------|--------|--------|--------|--------|--------|
D|--------|--------|--------|--------|--------|--------|--------|--------|--------|
A|--------|--------|--------|--------|--------|--------|--------|--------|--------|
E|--------|--------|--------|--------|--------|--------|--------|--------|--------|
B|--------|--------|--------|--------|--------|--------|--------|--------|--------|


E|--------|--------|--------|--------|--------|--------|--------|--------|--------|
B|--------|--------|--------|--------|--------|--------|--------|--------|--------|
G|--------|--------|--------|--------|--------|--------|--------|--------|--------|
D|--------|--------|--------|--------|--------|--------|--------|--------|--------|
A|--------|--------|--------|--------|--------|--------|--------|--------|--------|
E|--------|--------|--------|--------|--------|--------|--------|--------|--------|
B|--------|--------|--------|--------|--------|--------|--------|--------|--------|


E|--------|--------|--------|--------|--------|--------|--------|--------|----------------|
B|--------|--------|--------|--------|--------|--------|--------|--------|--------14------|
G|--------|--------|--------|--------|--------|--------|--------|--------|----------------|
D|--------|--------|--------|--------|--------|--------|--------|--------|------------11--|
A|--------|--------|--------|--------|--------|--------|--------|--------|----------------|
E|--------|--------|--------|--------|--------|--------|--------|--------|----------------|
B|--------|--------|--------|--------|--------|--------|--------|--------|----------------|


E|---------------------------------|---------------------------------|---------------------------------|
B|-----12----------14----------12--|---------14------12------14------|-----12----------14----------12--|
G|-13------11--13----------13------|-11--13------13------11----------|-13------11--13----------13------|
D|---------------------11----------|-----------------------------11--|---------------------11----------|
A|---------------------------------|---------------------------------|---------------------------------|
E|---------------------------------|---------------------------------|---------------------------------|
B|---------------------------------|---------------------------------|---------------------------------|


E|-----------------------------------------|---------------------------------|---------------------------------|
B|---------12-11-------12-11-------14------|-----12----------14----------12--|---------14------12------14------|
G|-11--13--------13-11-------13-11---------|-13------11--13----------13------|-11--13------13------11----------|
D|-------------------------------------11--|---------------------11----------|-----------------------------11--|
A|-----------------------------------------|---------------------------------|---------------------------------|
E|-----------------------------------------|---------------------------------|---------------------------------|
B|-----------------------------------------|---------------------------------|---------------------------------|


E|---------------------------------|-----------------------------------------|---------------------------------|
B|-----12----------14----------12--|---------12-11-------12-11-------14------|-----12----------14----------12--|
G|-13------11--13----------13------|-11--13--------13-11-------13-11---------|-13------11--13----------13------|
D|---------------------11----------|-------------------------------------11--|---------------------11----------|
A|---------------------------------|-----------------------------------------|---------------------------------|
E|---------------------------------|-----------------------------------------|---------------------------------|
B|---------------------------------|-----------------------------------------|---------------------------------|


E|---------------------------------|---------------------------------|-----------------------|
B|---------14------12------14------|-----12----------14----------12--|---------12------------|
G|-11--13------13------11----------|-13------11--13----------13------|-11--13------11--------|
D|-----------------------------11--|---------------------11----------|-----------------------|
A|---------------------------------|---------------------------------|-----------------------|
E|---------------------------------|---------------------------------|-----------------------|
B|---------------------------------|---------------------------------|-----------------------|


E|--------|--------|--------|--------|--------|--------|--------|--------|--------|
B|--------|--------|--------|--------|--------|--------|--------|--------|--------|
G|--------|--------|--------|--------|--------|--------|--------|--------|--------|
D|--------|--------|--------|--------|--------|--------|--------|--------|--------|
A|--------|--------|--------|--------|--------|--------|--------|--------|--------|
E|--------|--------|--------|--------|--------|--------|--------|--------|--------|
B|--------|--------|--------|--------|--------|--------|--------|--------|--------|


E|--------|--------|--------|--------|--------|--------|--------|--------|--------|
B|--------|--------|--------|--------|--------|--------|--------|--------|--------|
G|--------|--------|--------|--------|--------|--------|--------|--------|--------|
D|--------|--------|--------|--------|--------|--------|--------|--------|--------|
A|--------|--------|--------|--------|--------|--------|--------|--------|--------|
E|--------|--------|--------|--------|--------|--------|--------|--------|--------|
B|--------|--------|--------|--------|--------|--------|--------|--------|--------|


E|--------|--------|------------------------------|---------------------------------|
B|--------|--------|------14----------12----------|-14----------12----------12------|
G|--------|--------|--------------13------11--13--|---------13------11--13------11--|
D|--------|--------|----------11------------------|-----11--------------------------|
A|--------|--------|------------------------------|---------------------------------|
E|--------|--------|------------------------------|---------------------------------|
B|--------|--------|------------------------------|---------------------------------|


E|--------|--------|--------|--------|--------|--------|--------|--------|--------|
B|--------|--------|--------|--------|--------|--------|--------|--------|--------|
G|--------|--------|--------|--------|--------|--------|--------|--------|--------|
D|--------|--------|--------|--------|--------|--------|--------|--------|--------|
A|--------|--------|--------|--------|--------|--------|--------|--------|--------|
E|--------|--------|--------|--------|--------|--------|--------|--------|--------|
B|--------|--------|--------|--------|--------|--------|--------|--------|--------|


E|--------|--------|--------|--------|--------|--------|---------------------------------|
B|--------|--------|--------|--------|--------|--------|---------------------------------|
G|--------|--------|--------|--------|--------|--------|-4-------3-----------4-------3---|
D|--------|--------|--------|--------|--------|--------|-----4-------4---2-------4-------|
A|--------|--------|--------|--------|--------|--------|---------------------------------|
E|--------|--------|--------|--------|--------|--------|---------------------------------|
B|--------|--------|--------|--------|--------|--------|---------------------------------|


E|---------------------------------|---------------------------------|---------------------------------|
B|---------------------------------|---------------------------------|---------------------------------|
G|---------4-------3-------4-------|-4-------3-----------4-------3---|---------4-------3-------4-------|
D|-4---2-------4-------2-------4---|-----4-------4---2-------4-------|-4---2-------4-------2-------4---|
A|---------------------------------|---------------------------------|---------------------------------|
E|---------------------------------|---------------------------------|---------------------------------|
B|---------------------------------|---------------------------------|---------------------------------|


E|---------------------------------|---------------------------------|---------------------------------|
B|---------------------------------|---------------------------------|---------------------------------|
G|-3-----------4-------3-----------|-4-------3-------4-------4-------|-3-----------4-------3-----------|
D|-----4---2-------4-------4---2---|-----4-------2-------4-------4---|-----4---2-------4-------4---2---|
A|---------------------------------|---------------------------------|---------------------------------|
E|---------------------------------|---------------------------------|---------------------------------|
B|---------------------------------|---------------------------------|---------------------------------|


E|---------------------------------|---------------------------------|---------------------------------|
B|---------------------------------|---------------------------------|---------------------------------|
G|-4-------3-------4-------3-------|-----4-------3-----------4-------|-3-------4-------4-------3-------|
D|-----4-------2-------4-------4---|-2-------4-------4---2-------4---|-----2-------4-------4-------4---|
A|---------------------------------|---------------------------------|---------------------------------|
E|---------------------------------|---------------------------------|---------------------------------|
B|---------------------------------|---------------------------------|---------------------------------|


E|---------------------------------|---------------------------------|-------------------------------------|
B|---------------------------------|---------------------------------|-------------------------------------|
G|-----4-------3-----------4-------|-3-------16------15----------16--|-----15----------15------16-15-------|
D|-2-------4-------4---2-------4---|-----2-------16------16--14------|-16------16--14------16--------16-14-|
A|---------------------------------|---------------------------------|-------------------------------------|
E|---------------------------------|---------------------------------|-------------------------------------|
B|---------------------------------|---------------------------------|-------------------------------------|


E|---------------------------------------|-----------------------------------------------|
B|---------------------------------------|-----------------------------------------------|
G|-------------16------15----------15----|-16-15-----------------------------------------|
D|-----------------16------16--14-----16-|-------16-14-16-14-16-14-----------------------|
A|-16-14---------------------------------|-------------------------16-14----14-----------|
E|-------18-14---------------------------|-------------------------------18----18-16-14--|
B|---------------------------------------|-----------------------------------------------|


E|---------------------------------|-----------------------------------------|---------------------------------------|
B|---------------------------------|-----------------------------------------|---------------------------------------|
G|-16------15----------16------15--|---------15------16-15-------------------|-16------15----------15----16-15-------|
D|-----16------16--14------16------|-16--14------16--------16-14-------------|-----16------16--14-----16-------16-14-|
A|---------------------------------|-----------------------------16-14-------|---------------------------------------|
E|---------------------------------|-----------------------------------18-14-|---------------------------------------|
B|---------------------------------|-----------------------------------------|---------------------------------------|


E|-------------------------------------------|---------------------------------|-----------------------------------------|
B|-------------------------------------------|---------------------------------|-----------------------------------------|
G|-----------------------------------16------|-15----------16------15----------|-15------16-15-------------------16------|
D|-16-14-16-14---------------------------16--|-----16--14------16------16--14--|-----16--------16-14-----------------16--|
A|-------------16-14----14-------------------|---------------------------------|---------------------16-14---------------|
E|-------------------18----18-16-14----------|---------------------------------|---------------------------18-14---------|
B|-------------------------------------------|---------------------------------|-----------------------------------------|


E|-------------------------------------------|---------------------------------------|
B|-------------------------------------------|---------------------------------------|
G|-15----------15----16-15-------------------|-----------------------14------13------|
D|-----16--14-----16-------16-14-16-14-16-14-|---------------------------14------14--|
A|-------------------------------------------|-16-14----14---------------------------|
E|-------------------------------------------|-------18----18-16-14------------------|
B|-------------------------------------------|---------------------------------------|


E|---------------------------------|---------------------------------------------|
B|---------------------------------|---------------------------------------------|
G|-----14------13------11----------|-14-13-------13----------------------14------|
D|-12------14------14------14--12--|-------14-12----14-12----14-12-----------14--|
A|---------------------------------|----------------------14-------14-12---------|
E|---------------------------------|---------------------------------------------|
B|---------------------------------|---------------------------------------------|


E|---------------------------------------|----------------------------------------------14-16-17-19------|
B|---------------------------------------|----------------------------14-15-17-14-15-17--------------19--|
G|-13----------14------13----14-13-------|----------13-14-16----13-14------------------------------------|
D|-----14--12------14-----14-------14-12-|-12-14-16----------16------------------------------------------|
A|---------------------------------------|---------------------------------------------------------------|
E|---------------------------------------|---------------------------------------------------------------|
B|---------------------------------------|---------------------------------------------------------------|


E|-18----------19------18----------|-18------19-18-------------------19------|-18----------18----19-18-------------------|
B|-----19--17------19------19--17--|-----19--------19-17-----------------19--|-----19--17-----19-------19-17-19-17-19-17-|
G|---------------------------------|---------------------18-16---------------|-------------------------------------------|
D|---------------------------------|---------------------------20-16---------|-------------------------------------------|
A|---------------------------------|-----------------------------------------|-------------------------------------------|
E|---------------------------------|-----------------------------------------|-------------------------------------------|
B|---------------------------------|-----------------------------------------|-------------------------------------------|


E|---------------------------------------|---------------------------------|---------------------------------------------|
B|---------------------------------------|---------------------------------|---------------------------------------------|
G|-18-16----16-----------14------13------|-----14------13------11----------|-14-13-------13----------------------14------|
D|-------20----20-18-16------14------14--|-12------14------14------14--12--|-------14-12----14-12----14-12-----------14--|
A|---------------------------------------|---------------------------------|----------------------14-------14-12---------|
E|---------------------------------------|---------------------------------|---------------------------------------------|
B|---------------------------------------|---------------------------------|---------------------------------------------|


E|---------------------16----17-16-------|-16----16------------------------------|
B|------------------------17-------17-15-|----17----17-15----15------------------|
G|-13----------14------------------------|----------------16-----16--14--13------|
D|-----14--12------14--------------------|---------------------------------------|
A|---------------------------------------|---------------------------------------|
E|---------------------------------------|---------------------------------------|
B|---------------------------------------|---------------------------------------|


E|--------|--------|--------|--------|---------------------------|---------------------------------|
B|--------|--------|--------|--------|---------------------------|---------------------------------|
G|--------|--------|--------|--------|---------------------------|---------------------------------|
D|--------|--------|--------|--------|---------------------------|---------------------------------|
A|--------|--------|--------|--------|---------------------------|---------------------------------|
E|--------|--------|--------|--------|-------------------0---2---|---------0---2---3---2---0-------|
B|--------|--------|--------|--------|-------2---2---2-----------|-2---2-----------------------2---|


E|---------------------------------|---------------------------------|---------------------------------|
B|---------------------------------|---------------------------------|---------------------------------|
G|---------------------------------|---------------------------------|---------------------------------|
D|---------------------------------|---------------------------------|---------------------------------|
A|---------------------------------|---------------------------------|---------------------------------|
E|---------0---2-----------0---2---|-3---2---0---------------0---2---|---------0---2---3---2---0-------|
B|-2---2-----------2---2-----------|-------------2---2---2-----------|-2---2-----------------------2---|


E|---------------------------------|---------------------------------|---------------------------------|
B|---------------------------------|---------------------------------|---------------------------------|
G|---------------------------------|---------------------------------|---------------------------------|
D|---------------------------------|---------------------------------|---------------------------------|
A|---------------------------------|---------------------------------|---------------------------------|
E|---------0---2-----------0---2---|-3---2---0---------------0---2---|---------0---2---3---2---0-------|
B|-2---2-----------2---2-----------|-------------2---2---2-----------|-2---2-----------------------2---|


E|---------------------------------|---------------------------------|---------------------------------|
B|---------------------------------|---------------------------------|---------------------------------|
G|---------------------------------|---------------------------------|---------------------------------|
D|---------------------------------|---------------------------------|---------------------------------|
A|---------------------------------|---------------------------------|---------------------------------|
E|---------0---2-----------0---2---|-3---2---0---------------0---2---|---------0---2---3---2---0-------|
B|-2---2-----------2---2-----------|-------------2---2---2-----------|-2---2-----------------------2---|


E|---------------------------------|--------|--------|--------|--------|--------|--------|
B|---------------------------------|--------|--------|--------|--------|--------|--------|
G|---------------------------------|--------|--------|--------|--------|--------|--------|
D|---------------------------------|--------|--------|--------|--------|--------|--------|
A|---------------------------------|--------|--------|--------|--------|--------|--------|
E|---------0---2-----------0-------|--------|--------|--------|--------|--------|--------|
B|-2---2-----------2---2-----------|--------|--------|--------|--------|--------|--------|


E|--------|--------|--------|--------|--------|--------|--------|--------|--------|
B|--------|--------|--------|--------|--------|--------|--------|--------|--------|
G|--------|--------|--------|--------|--------|--------|--------|--------|--------|
D|--------|--------|--------|--------|--------|--------|--------|--------|--------|
A|--------|--------|--------|--------|--------|--------|--------|--------|--------|
E|--------|--------|--------|--------|--------|--------|--------|--------|--------|
B|--------|--------|--------|--------|--------|--------|--------|--------|--------|


E|--------|----------------|---------------------------------|---------------------------------|
B|--------|----------------|---------------------------------|---------------------------------|
G|--------|------------6---|---------4-----------6-----------|-4-----------6-------4-------6---|
D|--------|----------------|-----6-------4---6-----------6---|-----4---6-------6-------4-------|
A|--------|----------------|-4-----------------------4-------|---------------------------------|
E|--------|----------------|---------------------------------|---------------------------------|
B|--------|----------------|---------------------------------|---------------------------------|


E|---------------------------------|------------------------------|
B|---------------------------------|------------------------------|
G|---------4-----------6-----------|-4-----------4-------6--------|
D|-----6-------4---6-----------6---|-----4---6-------4------------|
A|-4-----------------------4-------|------------------------------|
E|---------------------------------|------------------------------|
B|---------------------------------|------------------------------|





Track 3: Gtr.3

E|-9------------9-------7---9---|------9-------7---9-------9---|-7------------9-------7---9---|
B|------------------------------|------------------------------|------------------------------|
G|------------------------------|------------------------------|------------------------------|
D|------------------------------|------------------------------|------------------------------|
A|------------------------------|------------------------------|------------------------------|
E|------------------------------|------------------------------|------------------------------|
B|------------------------------|------------------------------|------------------------------|


E|------9-------7---9-------7---|-9------------9-------7---9---|------9-------7---9-------9---|
B|------------------------------|------------------------------|------------------------------|
G|------------------------------|------------------------------|------------------------------|
D|------------------------------|------------------------------|------------------------------|
A|------------------------------|------------------------------|------------------------------|
E|------------------------------|------------------------------|------------------------------|
B|------------------------------|------------------------------|------------------------------|


E|-7------------9-------7---9---|------9-------7---9-------7---|-9------------9-------7---9---|
B|------------------------------|------------------------------|------------------------------|
G|------------------------------|------------------------------|------------------------------|
D|------------------------------|------------------------------|------------------------------|
A|------------------------------|------------------------------|------------------------------|
E|------------------------------|------------------------------|------------------------------|
B|------------------------------|------------------------------|------------------------------|


E|------9-------7---9-------9---|-7------------9-------7---9---|------9-------7---9-------7---|
B|------------------------------|------------------------------|------------------------------|
G|------------------------------|------------------------------|------------------------------|
D|------------------------------|------------------------------|------------------------------|
A|------------------------------|------------------------------|------------------------------|
E|------------------------------|------------------------------|------------------------------|
B|------------------------------|------------------------------|------------------------------|


E|-9------------9-------7---9---|------9-------7---9-------9---|-7------------9-------7---9---|
B|------------------------------|------------------------------|------------------------------|
G|------------------------------|------------------------------|------------------------------|
D|------------------------------|------------------------------|------------------------------|
A|------------------------------|------------------------------|------------------------------|
E|------------------------------|------------------------------|------------------------------|
B|------------------------------|------------------------------|------------------------------|


E|------9-------7---9-------7---|-9---------------|--------|--------|--------|--------|
B|------------------------------|-----------------|--------|--------|--------|--------|
G|------------------------------|-----------------|--------|--------|--------|--------|
D|------------------------------|-----------------|--------|--------|--------|--------|
A|------------------------------|-----------------|--------|--------|--------|--------|
E|------------------------------|-----------------|--------|--------|--------|--------|
B|------------------------------|-----------------|--------|--------|--------|--------|


E|--------|--------|--------|--------|--------|--------|--------|--------|--------|
B|--------|--------|--------|--------|--------|--------|--------|--------|--------|
G|--------|--------|--------|--------|--------|--------|--------|--------|--------|
D|--------|--------|--------|--------|--------|--------|--------|--------|--------|
A|--------|--------|--------|--------|--------|--------|--------|--------|--------|
E|--------|--------|--------|--------|--------|--------|--------|--------|--------|
B|--------|--------|--------|--------|--------|--------|--------|--------|--------|


E|--------|--------|--------|--------|--------|--------|--------|--------|--------|
B|--------|--------|--------|--------|--------|--------|--------|--------|--------|
G|--------|--------|--------|--------|--------|--------|--------|--------|--------|
D|--------|--------|--------|--------|--------|--------|--------|--------|--------|
A|--------|--------|--------|--------|--------|--------|--------|--------|--------|
E|--------|--------|--------|--------|--------|--------|--------|--------|--------|
B|--------|--------|--------|--------|--------|--------|--------|--------|--------|


E|--------|--------|--------|--------|--------|--------|--------|--------|--------|
B|--------|--------|--------|--------|--------|--------|--------|--------|--------|
G|--------|--------|--------|--------|--------|--------|--------|--------|--------|
D|--------|--------|--------|--------|--------|--------|--------|--------|--------|
A|--------|--------|--------|--------|--------|--------|--------|--------|--------|
E|--------|--------|--------|--------|--------|--------|--------|--------|--------|
B|--------|--------|--------|--------|--------|--------|--------|--------|--------|


E|--------|--------|--------|--------|--------|--------|--------|--------|--------|
B|--------|--------|--------|--------|--------|--------|--------|--------|--------|
G|--------|--------|--------|--------|--------|--------|--------|--------|--------|
D|--------|--------|--------|--------|--------|--------|--------|--------|--------|
A|--------|--------|--------|--------|--------|--------|--------|--------|--------|
E|--------|--------|--------|--------|--------|--------|--------|--------|--------|
B|--------|--------|--------|--------|--------|--------|--------|--------|--------|


E|--------|--------|--------|--------|--------|--------|--------|--------|--------|
B|--------|--------|--------|--------|--------|--------|--------|--------|--------|
G|--------|--------|--------|--------|--------|--------|--------|--------|--------|
D|--------|--------|--------|--------|--------|--------|--------|--------|--------|
A|--------|--------|--------|--------|--------|--------|--------|--------|--------|
E|--------|--------|--------|--------|--------|--------|--------|--------|--------|
B|--------|--------|--------|--------|--------|--------|--------|--------|--------|


E|--------|--------|--------|--------|--------|--------|--------|--------|--------|
B|--------|--------|--------|--------|--------|--------|--------|--------|--------|
G|--------|--------|--------|--------|--------|--------|--------|--------|--------|
D|--------|--------|--------|--------|--------|--------|--------|--------|--------|
A|--------|--------|--------|--------|--------|--------|--------|--------|--------|
E|--------|--------|--------|--------|--------|--------|--------|--------|--------|
B|--------|--------|--------|--------|--------|--------|--------|--------|--------|


E|--------|--------|--------|--------|--------|--------|--------|--------|--------|
B|--------|--------|--------|--------|--------|--------|--------|--------|--------|
G|--------|--------|--------|--------|--------|--------|--------|--------|--------|
D|--------|--------|--------|--------|--------|--------|--------|--------|--------|
A|--------|--------|--------|--------|--------|--------|--------|--------|--------|
E|--------|--------|--------|--------|--------|--------|--------|--------|--------|
B|--------|--------|--------|--------|--------|--------|--------|--------|--------|


E|--------|--------|--------|--------|--------|--------|--------|--------|--------|
B|--------|--------|--------|--------|--------|--------|--------|--------|--------|
G|--------|--------|--------|--------|--------|--------|--------|--------|--------|
D|--------|--------|--------|--------|--------|--------|--------|--------|--------|
A|--------|--------|--------|--------|--------|--------|--------|--------|--------|
E|--------|--------|--------|--------|--------|--------|--------|--------|--------|
B|--------|--------|--------|--------|--------|--------|--------|--------|--------|


E|--------|--------|--------|--------|--------|--------|--------|--------|--------|
B|--------|--------|--------|--------|--------|--------|--------|--------|--------|
G|--------|--------|--------|--------|--------|--------|--------|--------|--------|
D|--------|--------|--------|--------|--------|--------|--------|--------|--------|
A|--------|--------|--------|--------|--------|--------|--------|--------|--------|
E|--------|--------|--------|--------|--------|--------|--------|--------|--------|
B|--------|--------|--------|--------|--------|--------|--------|--------|--------|


E|--------|--------|--------|--------|--------|--------|--------|--------|--------|
B|--------|--------|--------|--------|--------|--------|--------|--------|--------|
G|--------|--------|--------|--------|--------|--------|--------|--------|--------|
D|--------|--------|--------|--------|--------|--------|--------|--------|--------|
A|--------|--------|--------|--------|--------|--------|--------|--------|--------|
E|--------|--------|--------|--------|--------|--------|--------|--------|--------|
B|--------|--------|--------|--------|--------|--------|--------|--------|--------|


E|--------|--------|--------|--------|--------|--------|--------|--------|--------|
B|--------|--------|--------|--------|--------|--------|--------|--------|--------|
G|--------|--------|--------|--------|--------|--------|--------|--------|--------|
D|--------|--------|--------|--------|--------|--------|--------|--------|--------|
A|--------|--------|--------|--------|--------|--------|--------|--------|--------|
E|--------|--------|--------|--------|--------|--------|--------|--------|--------|
B|--------|--------|--------|--------|--------|--------|--------|--------|--------|


E|--------|--------|--------|--------|--------|--------|--------|--------|--------|
B|--------|--------|--------|--------|--------|--------|--------|--------|--------|
G|--------|--------|--------|--------|--------|--------|--------|--------|--------|
D|--------|--------|--------|--------|--------|--------|--------|--------|--------|
A|--------|--------|--------|--------|--------|--------|--------|--------|--------|
E|--------|--------|--------|--------|--------|--------|--------|--------|--------|
B|--------|--------|--------|--------|--------|--------|--------|--------|--------|


E|--------|--------|--------|--------|--------|--------|--------|--------|--------|
B|--------|--------|--------|--------|--------|--------|--------|--------|--------|
G|--------|--------|--------|--------|--------|--------|--------|--------|--------|
D|--------|--------|--------|--------|--------|--------|--------|--------|--------|
A|--------|--------|--------|--------|--------|--------|--------|--------|--------|
E|--------|--------|--------|--------|--------|--------|--------|--------|--------|
B|--------|--------|--------|--------|--------|--------|--------|--------|--------|


E|--------|--------|--------|--------|--------|--------|--------|--------|--------|
B|--------|--------|--------|--------|--------|--------|--------|--------|--------|
G|--------|--------|--------|--------|--------|--------|--------|--------|--------|
D|--------|--------|--------|--------|--------|--------|--------|--------|--------|
A|--------|--------|--------|--------|--------|--------|--------|--------|--------|
E|--------|--------|--------|--------|--------|--------|--------|--------|--------|
B|--------|--------|--------|--------|--------|--------|--------|--------|--------|


E|--------|--------|--------|--------|--------|--------|--------|--------|--------|
B|--------|--------|--------|--------|--------|--------|--------|--------|--------|
G|--------|--------|--------|--------|--------|--------|--------|--------|--------|
D|--------|--------|--------|--------|--------|--------|--------|--------|--------|
A|--------|--------|--------|--------|--------|--------|--------|--------|--------|
E|--------|--------|--------|--------|--------|--------|--------|--------|--------|
B|--------|--------|--------|--------|--------|--------|--------|--------|--------|


E|--------|--------|--------|--------|--------|--------|--------|--------|--------|
B|--------|--------|--------|--------|--------|--------|--------|--------|--------|
G|--------|--------|--------|--------|--------|--------|--------|--------|--------|
D|--------|--------|--------|--------|--------|--------|--------|--------|--------|
A|--------|--------|--------|--------|--------|--------|--------|--------|--------|
E|--------|--------|--------|--------|--------|--------|--------|--------|--------|
B|--------|--------|--------|--------|--------|--------|--------|--------|--------|


E|--------|--------|--------|--------|--------|--------|--------|--------|--------|
B|--------|--------|--------|--------|--------|--------|--------|--------|--------|
G|--------|--------|--------|--------|--------|--------|--------|--------|--------|
D|--------|--------|--------|--------|--------|--------|--------|--------|--------|
A|--------|--------|--------|--------|--------|--------|--------|--------|--------|
E|--------|--------|--------|--------|--------|--------|--------|--------|--------|
B|--------|--------|--------|--------|--------|--------|--------|--------|--------|


E|--------|--------|---------------------------------|---------------------------------|
B|--------|--------|---------------------------------|---------------------------------|
G|--------|--------|-6-----------4-----------6-------|-----4-----------6-------4-------|
D|--------|--------|---------6-------4---6-----------|-6-------4---6-------6-------4---|
A|--------|--------|-----4-----------------------4---|---------------------------------|
E|--------|--------|---------------------------------|---------------------------------|
B|--------|--------|---------------------------------|---------------------------------|


E|---------------------------------|---------------------------------|---------------------------------|
B|---------------------------------|---------------------------------|---------------------------------|
G|-6-----------4-----------6-------|-----4-----------4-------6-------|-----4-----------6-----------4---|
D|---------6-------4---6-----------|-6-------4---6-------4-----------|-6-------4---6-----------6-------|
A|-----4-----------------------4---|-----------------------------4---|---------------------4-----------|
E|---------------------------------|---------------------------------|---------------------------------|
B|---------------------------------|---------------------------------|---------------------------------|


E|---------------------------------|---------------------------------|-----------------------|
B|---------------------------------|---------------------------------|-----------------------|
G|---------6-------4-------6-------|-----4-----------6-----------4---|---------4-------------|
D|-4---6-------6-------4-----------|-6-------4---6-----------6-------|-4---6-------4---------|
A|-----------------------------4---|---------------------4-----------|-----------------------|
E|---------------------------------|---------------------------------|-----------------------|
B|---------------------------------|---------------------------------|-----------------------|


E|--------|--------|--------|--------|--------|--------|--------|--------|--------|
B|--------|--------|--------|--------|--------|--------|--------|--------|--------|
G|--------|--------|--------|--------|--------|--------|--------|--------|--------|
D|--------|--------|--------|--------|--------|--------|--------|--------|--------|
A|--------|--------|--------|--------|--------|--------|--------|--------|--------|
E|--------|--------|--------|--------|--------|--------|--------|--------|--------|
B|--------|--------|--------|--------|--------|--------|--------|--------|--------|


E|--------|----------12--12--------|-------------|-------------|-------------|-----14--14---------|
B|--------|----------12--12--------|-------------|-------------|-------------|-----14--14---------|
G|--------|----------11--11--------|-------------|-------------|-------------|-----13--13---------|
D|--------|------------------------|-------------|-------------|-------------|--------------------|
A|--------|------------------------|-------------|-------------|-------------|--------------------|
E|--------|------------------------|-------------|-------------|-------------|--------------------|
B|--------|------------------------|-------------|-------------|-------------|--------------------|


E|-------------|-------------|----------------12--|-12----------|-------------|-------------|
B|-------------|-------------|----------------12--|-12----------|-------------|-------------|
G|-------------|-------------|----------------11--|-11----------|-------------|-------------|
D|-------------|-------------|--------------------|-------------|-------------|-------------|
A|-------------|-------------|--------------------|-------------|-------------|-------------|
E|-------------|-------------|--------------------|-------------|-------------|-------------|
B|-------------|-------------|--------------------|-------------|-------------|-------------|


E|---------------14--14---|--------|--------|--------|--------|--------|--------|--------|
B|---------------14--14---|--------|--------|--------|--------|--------|--------|--------|
G|---------------13--13---|--------|--------|--------|--------|--------|--------|--------|
D|------------------------|--------|--------|--------|--------|--------|--------|--------|
A|------------------------|--------|--------|--------|--------|--------|--------|--------|
E|------------------------|--------|--------|--------|--------|--------|--------|--------|
B|------------------------|--------|--------|--------|--------|--------|--------|--------|


E|--------|--------|--------|--------|--------|--------|--------|---------------12--12---|
B|--------|--------|--------|--------|--------|--------|--------|---------------12--12---|
G|--------|--------|--------|--------|--------|--------|--------|---------------11--11---|
D|--------|--------|--------|--------|--------|--------|--------|------------------------|
A|--------|--------|--------|--------|--------|--------|--------|------------------------|
E|--------|--------|--------|--------|--------|--------|--------|------------------------|
B|--------|--------|--------|--------|--------|--------|--------|------------------------|


E|--------|--------|--------|----------14--14--------|--------|--------|--------|--------|
B|--------|--------|--------|----------14--14--------|--------|--------|--------|--------|
G|--------|--------|--------|----------13--13--------|--------|--------|--------|--------|
D|--------|--------|--------|------------------------|--------|--------|--------|--------|
A|--------|--------|--------|------------------------|--------|--------|--------|--------|
E|--------|--------|--------|------------------------|--------|--------|--------|--------|
B|--------|--------|--------|------------------------|--------|--------|--------|--------|


E|--------|--------|--------|--------|--------|--------|--------|--------|--------|
B|--------|--------|--------|--------|--------|--------|--------|--------|--------|
G|--------|--------|--------|--------|--------|--------|--------|--------|--------|
D|--------|--------|--------|--------|--------|--------|--------|--------|--------|
A|--------|--------|--------|--------|--------|--------|--------|--------|--------|
E|--------|--------|--------|--------|--------|--------|--------|--------|--------|
B|--------|--------|--------|--------|--------|--------|--------|--------|--------|


E|--------|--------|--------|--------|--------|--------|--------|--------|--------|
B|--------|--------|--------|--------|--------|--------|--------|--------|--------|
G|--------|--------|--------|--------|--------|--------|--------|--------|--------|
D|--------|--------|--------|--------|--------|--------|--------|--------|--------|
A|--------|--------|--------|--------|--------|--------|--------|--------|--------|
E|--------|--------|--------|--------|--------|--------|--------|--------|--------|
B|--------|--------|--------|--------|--------|--------|--------|--------|--------|


E|--------|--------|--------|--------|--------|--------|--------|--------|--------|
B|--------|--------|--------|--------|--------|--------|--------|--------|--------|
G|--------|--------|--------|--------|--------|--------|--------|--------|--------|
D|--------|--------|--------|--------|--------|--------|--------|--------|--------|
A|--------|--------|--------|--------|--------|--------|--------|--------|--------|
E|--------|--------|--------|--------|--------|--------|--------|--------|--------|
B|--------|--------|--------|--------|--------|--------|--------|--------|--------|


E|--------|--------|--------|--------|--------|--------|--------|--------|--------|
B|--------|--------|--------|--------|--------|--------|--------|--------|--------|
G|--------|--------|--------|--------|--------|--------|--------|--------|--------|
D|--------|--------|--------|--------|--------|--------|--------|--------|--------|
A|--------|--------|--------|--------|--------|--------|--------|--------|--------|
E|--------|--------|--------|--------|--------|--------|--------|--------|--------|
B|--------|--------|--------|--------|--------|--------|--------|--------|--------|


E|--------|--------|--------|--------|--------|--------|--------|--------|--------|
B|--------|--------|--------|--------|--------|--------|--------|--------|--------|
G|--------|--------|--------|--------|--------|--------|--------|--------|--------|
D|--------|--------|--------|--------|--------|--------|--------|--------|--------|
A|--------|--------|--------|--------|--------|--------|--------|--------|--------|
E|--------|--------|--------|--------|--------|--------|--------|--------|--------|
B|--------|--------|--------|--------|--------|--------|--------|--------|--------|


E|--------|--------|--------|--------|
B|--------|--------|--------|--------|
G|--------|--------|--------|--------|
D|--------|--------|--------|--------|
A|--------|--------|--------|--------|
E|--------|--------|--------|--------|
B|--------|--------|--------|--------|





Track 4: Gtr.4

E|--------|--------|--------|--------|--------|--------|--------|--------|--------|
B|--------|--------|--------|--------|--------|--------|--------|--------|--------|
G|--------|--------|--------|--------|--------|--------|--------|--------|--------|
D|--------|--------|--------|--------|--------|--------|--------|--------|--------|
A|--------|--------|--------|--------|--------|--------|--------|--------|--------|
E|--------|--------|--------|--------|--------|--------|--------|--------|--------|
B|--------|--------|--------|--------|--------|--------|--------|--------|--------|


E|--------|--------|--------|--------|--------|--------|--------|--------|--------|
B|--------|--------|--------|--------|--------|--------|--------|--------|--------|
G|--------|--------|--------|--------|--------|--------|--------|--------|--------|
D|--------|--------|--------|--------|--------|--------|--------|--------|--------|
A|--------|--------|--------|--------|--------|--------|--------|--------|--------|
E|--------|--------|--------|--------|--------|--------|--------|--------|--------|
B|--------|--------|--------|--------|--------|--------|--------|--------|--------|


E|--------|--------|--------|--------|--------|--------|--------|--------|--------|
B|--------|--------|--------|--------|--------|--------|--------|--------|--------|
G|--------|--------|--------|--------|--------|--------|--------|--------|--------|
D|--------|--------|--------|--------|--------|--------|--------|--------|--------|
A|--------|--------|--------|--------|--------|--------|--------|--------|--------|
E|--------|--------|--------|--------|--------|--------|--------|--------|--------|
B|--------|--------|--------|--------|--------|--------|--------|--------|--------|


E|--------|--------|--------|--------|--------|--------|--------|--------|--------|
B|--------|--------|--------|--------|--------|--------|--------|--------|--------|
G|--------|--------|--------|--------|--------|--------|--------|--------|--------|
D|--------|--------|--------|--------|--------|--------|--------|--------|--------|
A|--------|--------|--------|--------|--------|--------|--------|--------|--------|
E|--------|--------|--------|--------|--------|--------|--------|--------|--------|
B|--------|--------|--------|--------|--------|--------|--------|--------|--------|


E|--------|--------|--------|--------|--------|--------|--------|--------|--------|
B|--------|--------|--------|--------|--------|--------|--------|--------|--------|
G|--------|--------|--------|--------|--------|--------|--------|--------|--------|
D|--------|--------|--------|--------|--------|--------|--------|--------|--------|
A|--------|--------|--------|--------|--------|--------|--------|--------|--------|
E|--------|--------|--------|--------|--------|--------|--------|--------|--------|
B|--------|--------|--------|--------|--------|--------|--------|--------|--------|


E|----------------|---------------------------------|---------------------------------|
B|----------------|---------------------------------|---------------------------------|
G|----------------|---------------------------------|---------------------------------|
D|----------------|---------------------------------|---------------------------------|
A|--------4---4---|-4---4---4---2---2---2---2-------|-------------------------4---4---|
E|----------------|-----------------------------2---|-2---2---2---0---0---0-----------|
B|----------------|---------------------------------|---------------------------------|


E|---------------------------------|---------------------------------|---------------------------------|
B|---------------------------------|---------------------------------|---------------------------------|
G|---------------------------------|---------------------------------|---------------------------------|
D|---------------------------------|---------------------------------|---------------------------------|
A|-4---4---4---2---2---2---2---9---|-9---9---9---7---7---7---4---4---|-4---4---4---2---2---2---2-------|
E|---------------------------------|---------------------------------|-----------------------------2---|
B|---------------------------------|---------------------------------|---------------------------------|


E|---------------------------------|---------------------------------|---------------------------|
B|---------------------------------|---------------------------------|---------------------------|
G|---------------------------------|-----6---6-----------6---6-------|-4---6---6-------6----13---|
D|---------------------------------|---------------------------------|---------------------------|
A|-------------------------4---4---|-4-----------4---4-----------4---|-------------4-------------|
E|-2---2---2---0---0---0-----------|---------------------------------|---------------------------|
B|---------------------------------|---------------------------------|---------------------------|


E|---------------------------|------------------------|---------------------------|
B|-14-------14-----------14--|---------12---12--------|-14-------14-----------12--|
G|------13-------13--13------|-----11------------13---|------13-------11--11------|
D|---------------------------|------------------------|---------------------------|
A|---------------------------|------------------------|---------------------------|
E|---------------------------|------------------------|---------------------------|
B|---------------------------|------------------------|---------------------------|


E|---------------------------|--------------------------12--|-----11--11---11-----------|
B|------11--12--11-----------|-14-------14------------------|---------------------------|
G|------------------11--13---|------13------13--13--13------|------------------13--13---|
D|---------------------------|------------------------------|---------------------------|
A|---------------------------|------------------------------|---------------------------|
E|---------------------------|------------------------------|---------------------------|
B|---------------------------|------------------------------|---------------------------|


E|---------------------------------|---------------------------|--------|--------|
B|-14------14--14--------------12--|---------11------12--------|--------|--------|
G|-----13----------13--11--11------|-----11------11------------|--------|--------|
D|---------------------------------|---------------------------|--------|--------|
A|---------------------------------|---------------------------|--------|--------|
E|---------------------------------|---------------------------|--------|--------|
B|---------------------------------|---------------------------|--------|--------|


E|--------|--------|--------|--------|--------|--------|--------|--------|--------|
B|--------|--------|--------|--------|--------|--------|--------|--------|--------|
G|--------|--------|--------|--------|--------|--------|--------|--------|--------|
D|--------|--------|--------|--------|--------|--------|--------|--------|--------|
A|--------|--------|--------|--------|--------|--------|--------|--------|--------|
E|--------|--------|--------|--------|--------|--------|--------|--------|--------|
B|--------|--------|--------|--------|--------|--------|--------|--------|--------|


E|--------|--------|--------|--------|--------|--------|--------|--------|--------|
B|--------|--------|--------|--------|--------|--------|--------|--------|--------|
G|--------|--------|--------|--------|--------|--------|--------|--------|--------|
D|--------|--------|--------|--------|--------|--------|--------|--------|--------|
A|--------|--------|--------|--------|--------|--------|--------|--------|--------|
E|--------|--------|--------|--------|--------|--------|--------|--------|--------|
B|--------|--------|--------|--------|--------|--------|--------|--------|--------|


E|--------|--------|--------|----------------|--------------------|----------------|
B|--------|--------|--------|----------------|--------------------|----------------|
G|--------|--------|--------|----------------|-8-----8------------|-6--------------|
D|--------|--------|--------|----------------|--------------------|----------------|
A|--------|--------|--------|--------4---6---|-----------6---6----|--------4---6---|
E|--------|--------|--------|----------------|--------------------|----------------|
B|--------|--------|--------|----------------|--------------------|----------------|


E|---------------------|---------------------------|--------------------|--------------------|
B|---------------------|---------------------------|--------------------|--------------------|
G|-4----4---3----------|--------------3------------|-8-----8---9---9----|-6-----6---6--------|
D|----------------5----|-----6---6-----------------|--------------------|---------------2----|
A|---------------------|-------------------4---6---|--------------------|---------------2----|
E|---------------------|---------------------------|--------------------|---------------0----|
B|---------------------|---------------------------|--------------------|--------------------|


E|------0--------------|------0-------------|---------------------------------|----------------------------------|
B|------0--------------|------0-------------|---------------------------------|----------------------------------|
G|---------------------|--------------------|---------------------------------|----------------------------------|
D|----------------2----|------------4-------|-----4-----------4-----------4---|--------------------2-------------|
A|----------------2----|------------4-------|-----4-----------4-----------4---|---------4--2--4--------4--2------|
E|------------0---0----|----------------2---|-2-------2---2-------2---2-------|-2---2------------------------4---|
B|---------------------|--------------------|---------------------------------|----------------------------------|


E|-----------------------------------|-----------------------------------|----------------------------------|
B|-----------------------------------|-----------------------------------|----------------------------------|
G|-----------------------------------|-----------------------------------|----------------------------------|
D|-----------------------------------|-----2-----------------------------|--------------------2-------------|
A|-4-----------5---4-------4--2--4---|---------4--2------4-----------5---|-4-------4--2--4--------4--2------|
E|-----0---2---3---2---0-------------|---------------4-------0---2---3---|-2---0------------------------4---|
B|-----------------------------------|-----------------------------------|----------------------------------|


E|-----------------------------------|-----------------------------------|----------------------------------|
B|-----------------------------------|-----------------------------------|----------------------------------|
G|-----------------------------------|-----------------------------------|----------------------------------|
D|-----------------------------------|-----2-----------------------------|--------------------2-------------|
A|-4-----------5---4-------4--2--4---|---------4--2------4-----------5---|-4-------4--2--4--------4--2------|
E|-----0---2---3---2---0-------------|---------------4-------0---2---3---|-2---0------------------------4---|
B|-----------------------------------|-----------------------------------|----------------------------------|


E|-----------------------------------|-----------------------------------|----------------------------------|
B|-----------------------------------|-----------------------------------|----------------------------------|
G|-----------------------------------|-----------------------------------|----------------------------------|
D|-----------------------------------|-----2-----------------------------|--------------------2-------------|
A|-4-----------5---4-------4--2--4---|---------4--2------4-----------5---|-4-------4--2--4--------4--2------|
E|-----0---2---3---2---0-------------|---------------4-------0---2---3---|-2---0------------------------4---|
B|-----------------------------------|-----------------------------------|----------------------------------|


E|-----------------------------------|-----------------------------------|----------------|
B|-----------------------------------|-----------------------------------|----------------|
G|-----------------------------------|-----------------------------------|----------------|
D|-----------------------------------|-----2-----------------------------|----------------|
A|-4-----------5---4-------4--2--4---|---------4--2------4-----------5---|-4--------------|
E|-----0---2---3---2---0-------------|---------------4-------0---2---3---|-2---0----------|
B|-----------------------------------|-----------------------------------|----------------|


E|--------|--------|--------|--------|--------|--------|--------|--------|--------|
B|--------|--------|--------|--------|--------|--------|--------|--------|--------|
G|--------|--------|--------|--------|--------|--------|--------|--------|--------|
D|--------|--------|--------|--------|--------|--------|--------|--------|--------|
A|--------|--------|--------|--------|--------|--------|--------|--------|--------|
E|--------|--------|--------|--------|--------|--------|--------|--------|--------|
B|--------|--------|--------|--------|--------|--------|--------|--------|--------|


E|--------|--------|--------|--------|--------|--------|--------|--------|--------|
B|--------|--------|--------|--------|--------|--------|--------|--------|--------|
G|--------|--------|--------|--------|--------|--------|--------|--------|--------|
D|--------|--------|--------|--------|--------|--------|--------|--------|--------|
A|--------|--------|--------|--------|--------|--------|--------|--------|--------|
E|--------|--------|--------|--------|--------|--------|--------|--------|--------|
B|--------|--------|--------|--------|--------|--------|--------|--------|--------|


E|--------|--------|--------|--------|--------|--------|--------|--------|--------|
B|--------|--------|--------|--------|--------|--------|--------|--------|--------|
G|--------|--------|--------|--------|--------|--------|--------|--------|--------|
D|--------|--------|--------|--------|--------|--------|--------|--------|--------|
A|--------|--------|--------|--------|--------|--------|--------|--------|--------|
E|--------|--------|--------|--------|--------|--------|--------|--------|--------|
B|--------|--------|--------|--------|--------|--------|--------|--------|--------|


E|--------|--------|--------|--------|--------|--------|--------|--------|--------|
B|--------|--------|--------|--------|--------|--------|--------|--------|--------|
G|--------|--------|--------|--------|--------|--------|--------|--------|--------|
D|--------|--------|--------|--------|--------|--------|--------|--------|--------|
A|--------|--------|--------|--------|--------|--------|--------|--------|--------|
E|--------|--------|--------|--------|--------|--------|--------|--------|--------|
B|--------|--------|--------|--------|--------|--------|--------|--------|--------|


E|-------------|-----------------------|-12-------------|-------------|-----------------------|
B|-------------|-------9---------------|-12-------------|-------------|-------9---------------|
G|-------------|-------9---------------|-11-------------|-------------|-------9---------------|
D|-------------|-----------------------|----------------|-------------|-----------------------|
A|-------------|-----------------------|----------------|-------------|-----------------------|
E|-------------|-----------------------|----------------|-------------|-----------------------|
B|-------------|-----------------------|----------------|-------------|-----------------------|


E|-12-------------|-------------|------------------------|-12-----------------|--------------------|
B|-12-------------|-------------|-----------9------------|-12-----------------|-9------------------|
G|-11-------------|-------------|-----------9------------|-11-----------------|-9------------------|
D|----------------|-------------|------------------------|--------------------|--------------------|
A|----------------|-------------|------------------------|--------------------|--------------------|
E|----------------|-------------|------------------------|--------------------|--------------------|
B|----------------|-------------|------------------------|--------------------|--------------------|


E|------------------------|-12-----------------|--------------------|--------|--------|
B|-----------9------------|-12-----------------|-9------------------|--------|--------|
G|-----------9------------|-11-----------------|-9------------------|--------|--------|
D|------------------------|--------------------|--------------------|--------|--------|
A|------------------------|--------------------|--------------------|--------|--------|
E|------------------------|--------------------|--------------------|--------|--------|
B|------------------------|--------------------|--------------------|--------|--------|


E|--------|--------|--------|--------|--------|-------------|-----------------|-------------|
B|--------|--------|--------|--------|--------|--------14---|-----------------|-------------|
G|--------|--------|--------|--------|--------|--------13---|-----------------|-------------|
D|--------|--------|--------|--------|--------|-------------|-----------------|-------------|
A|--------|--------|--------|--------|--------|-------------|-----------------|-------------|
E|--------|--------|--------|--------|--------|-------------|-----------------|-------------|
B|--------|--------|--------|--------|--------|-------------|-----------------|-------------|


E|-------------|--------------------|-------------|-----------------|-------------|
B|-------------|--------------------|-------------|-----------------|-------------|
G|-------------|----------------11--|-11----11----|-----------9-----|-9-----9-----|
D|-------------|----------------9---|-9-----9-----|-----------9-----|-9-----9-----|
A|-------------|--------------------|-------------|-----------------|-------------|
E|-------------|--------------------|-------------|-----------------|-------------|
B|-------------|--------------------|-------------|-----------------|-------------|


E|----------------|-----------------|-------------|-9----9------|-14-----|-14----14----|
B|----------------|-----------------|------11-----|-------------|--------|-------------|
G|-9-------13-----|------13----9----|-------------|-------------|--------|-------------|
D|-9-------11-----|------11---------|-------------|-------------|--------|-------------|
A|----------------|-----------------|-------------|-------------|--------|-------------|
E|----------------|-----------------|-------------|-------------|--------|-------------|
B|----------------|-----------------|-------------|-------------|--------|-------------|


E|-12-----|-12-----16---|--------16---|------19----16---|-------21---21---|------21-------------------|
B|--------|-------------|-------------|-----------------|-----------------|---------------------------|
G|--------|-------------|-------------|-----------------|-----------------|-----------6-----------4---|
D|--------|-------------|-------------|-----------------|-----------------|-------------------6-------|
A|--------|-------------|-------------|-----------------|-----------------|---------------4-----------|
E|--------|-------------|-------------|-----------------|-----------------|---------------------------|
B|--------|-------------|-------------|-----------------|-----------------|---------------------------|


E|---------------------------------|---------------------------------|---------------------------------|
B|---------------------------------|---------------------------------|---------------------------------|
G|---------6-----------4-----------|-6-------4-------6-----------4---|---------6-----------4-----------|
D|-4---6-----------6-------4---6---|-----6-------4-----------6-------|-4---6-----------6-------4-------|
A|-------------4-------------------|---------------------4-----------|-------------4---------------4---|
E|---------------------------------|---------------------------------|---------------------------------|
B|---------------------------------|---------------------------------|---------------------------------|


E|---------------------------------|---------------------------------|---------------------------------|
B|---------------------------------|---------------------------------|---------------------------------|
G|-4-------6-----------4-----------|-6-----------4-----------6-------|-4-------6-----------4-----------|
D|-----4-----------6-------4---6---|---------6-------4---6-------6---|-----4-----------6-------4---6---|
A|-------------4-------------------|-----4---------------------------|-------------4-------------------|
E|---------------------------------|---------------------------------|---------------------------------|
B|---------------------------------|---------------------------------|---------------------------------|


E|---------------------------------|--------------------|--------|--------|--------|
B|---------------------------------|--------------------|--------|--------|--------|
G|-6-----------4-----------4-------|-8-----8------------|--------|--------|--------|
D|---------6-------4---6-------4---|--------------------|--------|--------|--------|
A|-----4---------------------------|--------------------|--------|--------|--------|
E|---------------------------------|--------------------|--------|--------|--------|
B|---------------------------------|--------------------|--------|--------|--------|


E|--------|--------|--------|--------|--------|--------|--------|--------|--------|
B|--------|--------|--------|--------|--------|--------|--------|--------|--------|
G|--------|--------|--------|--------|--------|--------|--------|--------|--------|
D|--------|--------|--------|--------|--------|--------|--------|--------|--------|
A|--------|--------|--------|--------|--------|--------|--------|--------|--------|
E|--------|--------|--------|--------|--------|--------|--------|--------|--------|
B|--------|--------|--------|--------|--------|--------|--------|--------|--------|


E|--------|--------|--------|--------|--------|--------|--------|--------|--------|
B|--------|--------|--------|--------|--------|--------|--------|--------|--------|
G|--------|--------|--------|--------|--------|--------|--------|--------|--------|
D|--------|--------|--------|--------|--------|--------|--------|--------|--------|
A|--------|--------|--------|--------|--------|--------|--------|--------|--------|
E|--------|--------|--------|--------|--------|--------|--------|--------|--------|
B|--------|--------|--------|--------|--------|--------|--------|--------|--------|


E|--------|--------|--------|--------|--------|--------|--------|--------|---------------------------------|
B|--------|--------|--------|--------|--------|--------|--------|--------|---------------------------------|
G|--------|--------|--------|--------|--------|--------|--------|--------|-16------15----------16------15--|
D|--------|--------|--------|--------|--------|--------|--------|--------|-----16------16--14------16------|
A|--------|--------|--------|--------|--------|--------|--------|--------|---------------------------------|
E|--------|--------|--------|--------|--------|--------|--------|--------|---------------------------------|
B|--------|--------|--------|--------|--------|--------|--------|--------|---------------------------------|


E|-----------------------------------------|-----------------------------------------|
B|-----------------17-14-------------------|-----------------------14----17-14-------|
G|---------15------------16-15-------------|-16------15---------------15-------16-15-|
D|-16--14------16--------------16-14-------|-----16------16--14----------------------|
A|-----------------------------------16-14-|-----------------------------------------|
E|-----------------------------------------|-----------------------------------------|
B|-----------------------------------------|-----------------------------------------|


E|----------------------------------------|--------|--------|--------|--------|--------|
B|----------------------------------------|--------|--------|--------|--------|--------|
G|-16-15-16-15-------16-13-16-13----------|--------|--------|--------|--------|--------|
D|-------------16-14-------------14-------|--------|--------|--------|--------|--------|
A|----------------------------------------|--------|--------|--------|--------|--------|
E|----------------------------------------|--------|--------|--------|--------|--------|
B|----------------------------------------|--------|--------|--------|--------|--------|


E|--------|--------|----------------|---------------------------------|-----------------------------------------|
B|--------|--------|----------------|---------------------------------|---------17-14---------------------------|
G|--------|--------|--------16------|-15----------16------15----------|-15------------16-15-------------16------|
D|--------|--------|------------16--|-----16--14------16------16--14--|-----16--------------16-14-----------16--|
A|--------|--------|----------------|---------------------------------|---------------------------16-14---------|
E|--------|--------|----------------|---------------------------------|-----------------------------------------|
B|--------|--------|----------------|---------------------------------|-----------------------------------------|


E|---------------------------------------------|---------------------------------------|
B|---------------14----17-14-------------------|---------------------------------------|
G|-15---------------15-------16-15-16-15-16-15-|-------16-13-16-13-----14------13------|
D|-----16--14----------------------------------|-16-14-------------14------14------14--|
A|---------------------------------------------|---------------------------------------|
E|---------------------------------------------|---------------------------------------|
B|---------------------------------------------|---------------------------------------|


E|---------------------------------|-22-19-------19------------------------------|
B|---------------------------------|-------22-21----22-21----22-21---------------|
G|-----14------13------11----------|----------------------21-------21-19-14------|
D|-12------14------14------14--12--|-----------------------------------------14--|
A|---------------------------------|---------------------------------------------|
E|---------------------------------|---------------------------------------------|
B|---------------------------------|---------------------------------------------|


E|---------------------------------------|------------------------------------------|
B|---------------------------------------|------------------------------------------|
G|-13----------14------13----14-13-------|-13----13--------------------------7---4--|
D|-----14--12------14-----14-------14-12-|----14----14-12----12---------------------|
A|---------------------------------------|----------------14-----14--12--11---------|
E|---------------------------------------|------------------------------------------|
B|---------------------------------------|------------------------------------------|


E|------------------------------|-----------------|--------------|--------------------------|
B|------------------------------|-----------------|--------------|--------------------------|
G|------------------------------|-----------------|--------------|--------------------------|
D|----7---6---4-----------------|-----------------|--------------|-------9----9----9----9---|
A|----------------5---4-----4---|-4---------------|--------------|--------------------------|
E|------------------------------|-----------------|--------------|--------------------------|
B|------------------------------|-----------------|--------------|--------------------------|


E|------------------------|--------|--------|--------|----------------|------------12---12---12--|
B|------------------------|--------|--------|--------|----------------|------------9----9----9---|
G|------------------------|--------|--------|--------|----------------|------------9----9----9---|
D|----9----9--------------|--------|--------|--------|----------------|--------------------------|
A|------------------------|--------|--------|--------|----------------|--------------------------|
E|------------------------|--------|--------|--------|----------------|--------------------------|
B|------------------------|--------|--------|--------|----------------|--------------------------|


E|----12---12-------------|---------------------------|--------|-----------------|
B|----9----9--------------|---------------12----------|--------|-----------------|
G|----9----9--------------|---------------9-----------|--------|-----------------|
D|------------------------|---------------------------|--------|-----------------|
A|------------------------|-4-------------------------|--------|-----------------|
E|------------------------|---------------------------|--------|-----------------|
B|------------------------|---------------------------|--------|-----------------|


E|---------------------------|--------------------------|-----------------------------------------------------------|
B|---------------12----------|------------9-------5--4--|-5--4--5--4--------5---------------------------------------|
G|---------------9-----------|------------9-------------|-------------6--4-----6--4-----------4---------------------|
D|---------------------------|--------------------------|----------------------------6--4--------6--4---------------|
A|-4-------------------------|--------------------------|----------------------------------7-----------7--4-----4---|
E|---------------------------|--------------------------|----------------------------------------------------7------|
B|---------------------------|--------------------------|-----------------------------------------------------------|


E|--------------------|--------|--------|--------|--------|--------|--------|--------|
B|--------------------|--------|--------|--------|--------|--------|--------|--------|
G|--------------------|--------|--------|--------|--------|--------|--------|--------|
D|--------------------|--------|--------|--------|--------|--------|--------|--------|
A|-----4--------------|--------|--------|--------|--------|--------|--------|--------|
E|--------------------|--------|--------|--------|--------|--------|--------|--------|
B|--------------------|--------|--------|--------|--------|--------|--------|--------|


E|--------|--------|--------|--------|--------|--------|--------|--------|--------|
B|--------|--------|--------|--------|--------|--------|--------|--------|--------|
G|--------|--------|--------|--------|--------|--------|--------|--------|--------|
D|--------|--------|--------|--------|--------|--------|--------|--------|--------|
A|--------|--------|--------|--------|--------|--------|--------|--------|--------|
E|--------|--------|--------|--------|--------|--------|--------|--------|--------|
B|--------|--------|--------|--------|--------|--------|--------|--------|--------|


E|--------|--------|--------|
B|--------|--------|--------|
G|--------|--------|--------|
D|--------|--------|--------|
A|--------|--------|--------|
E|--------|--------|--------|
B|--------|--------|--------|





Track 5: Gtr.5

E|--------|--------|--------|--------|--------|--------|--------|--------|--------|
B|--------|--------|--------|--------|--------|--------|--------|--------|--------|
G|--------|--------|--------|--------|--------|--------|--------|--------|--------|
D|--------|--------|--------|--------|--------|--------|--------|--------|--------|
A|--------|--------|--------|--------|--------|--------|--------|--------|--------|
E|--------|--------|--------|--------|--------|--------|--------|--------|--------|
B|--------|--------|--------|--------|--------|--------|--------|--------|--------|


E|--------|--------|--------|--------|--------|--------|--------|--------|--------|
B|--------|--------|--------|--------|--------|--------|--------|--------|--------|
G|--------|--------|--------|--------|--------|--------|--------|--------|--------|
D|--------|--------|--------|--------|--------|--------|--------|--------|--------|
A|--------|--------|--------|--------|--------|--------|--------|--------|--------|
E|--------|--------|--------|--------|--------|--------|--------|--------|--------|
B|--------|--------|--------|--------|--------|--------|--------|--------|--------|


E|--------|--------|--------|--------|--------|--------|--------|--------|--------|
B|--------|--------|--------|--------|--------|--------|--------|--------|--------|
G|--------|--------|--------|--------|--------|--------|--------|--------|--------|
D|--------|--------|--------|--------|--------|--------|--------|--------|--------|
A|--------|--------|--------|--------|--------|--------|--------|--------|--------|
E|--------|--------|--------|--------|--------|--------|--------|--------|--------|
B|--------|--------|--------|--------|--------|--------|--------|--------|--------|


E|--------|--------|--------|--------|--------|--------|--------|--------|--------|
B|--------|--------|--------|--------|--------|--------|--------|--------|--------|
G|--------|--------|--------|--------|--------|--------|--------|--------|--------|
D|--------|--------|--------|--------|--------|--------|--------|--------|--------|
A|--------|--------|--------|--------|--------|--------|--------|--------|--------|
E|--------|--------|--------|--------|--------|--------|--------|--------|--------|
B|--------|--------|--------|--------|--------|--------|--------|--------|--------|


E|--------|--------|--------|--------|--------|--------|--------|--------|--------|
B|--------|--------|--------|--------|--------|--------|--------|--------|--------|
G|--------|--------|--------|--------|--------|--------|--------|--------|--------|
D|--------|--------|--------|--------|--------|--------|--------|--------|--------|
A|--------|--------|--------|--------|--------|--------|--------|--------|--------|
E|--------|--------|--------|--------|--------|--------|--------|--------|--------|
B|--------|--------|--------|--------|--------|--------|--------|--------|--------|


E|--------|--------|--------|--------|--------|--------|--------|--------|--------|
B|--------|--------|--------|--------|--------|--------|--------|--------|--------|
G|--------|--------|--------|--------|--------|--------|--------|--------|--------|
D|--------|--------|--------|--------|--------|--------|--------|--------|--------|
A|--------|--------|--------|--------|--------|--------|--------|--------|--------|
E|--------|--------|--------|--------|--------|--------|--------|--------|--------|
B|--------|--------|--------|--------|--------|--------|--------|--------|--------|


E|--------|--------|--------|--------|--------|--------|--------|--------|--------|
B|--------|--------|--------|--------|--------|--------|--------|--------|--------|
G|--------|--------|--------|--------|--------|--------|--------|--------|--------|
D|--------|--------|--------|--------|--------|--------|--------|--------|--------|
A|--------|--------|--------|--------|--------|--------|--------|--------|--------|
E|--------|--------|--------|--------|--------|--------|--------|--------|--------|
B|--------|--------|--------|--------|--------|--------|--------|--------|--------|


E|--------|--------|--------|--------|--------|--------|--------|--------|--------|
B|--------|--------|--------|--------|--------|--------|--------|--------|--------|
G|--------|--------|--------|--------|--------|--------|--------|--------|--------|
D|--------|--------|--------|--------|--------|--------|--------|--------|--------|
A|--------|--------|--------|--------|--------|--------|--------|--------|--------|
E|--------|--------|--------|--------|--------|--------|--------|--------|--------|
B|--------|--------|--------|--------|--------|--------|--------|--------|--------|


E|--------|--------|--------|--------|--------|--------|--------|--------|--------|
B|--------|--------|--------|--------|--------|--------|--------|--------|--------|
G|--------|--------|--------|--------|--------|--------|--------|--------|--------|
D|--------|--------|--------|--------|--------|--------|--------|--------|--------|
A|--------|--------|--------|--------|--------|--------|--------|--------|--------|
E|--------|--------|--------|--------|--------|--------|--------|--------|--------|
B|--------|--------|--------|--------|--------|--------|--------|--------|--------|


E|--------|--------|--------|--------|--------|--------|--------|--------|--------|
B|--------|--------|--------|--------|--------|--------|--------|--------|--------|
G|--------|--------|--------|--------|--------|--------|--------|--------|--------|
D|--------|--------|--------|--------|--------|--------|--------|--------|--------|
A|--------|--------|--------|--------|--------|--------|--------|--------|--------|
E|--------|--------|--------|--------|--------|--------|--------|--------|--------|
B|--------|--------|--------|--------|--------|--------|--------|--------|--------|


E|--------|--------|--------|--------|--------|--------|--------|--------|--------|
B|--------|--------|--------|--------|--------|--------|--------|--------|--------|
G|--------|--------|--------|--------|--------|--------|--------|--------|--------|
D|--------|--------|--------|--------|--------|--------|--------|--------|--------|
A|--------|--------|--------|--------|--------|--------|--------|--------|--------|
E|--------|--------|--------|--------|--------|--------|--------|--------|--------|
B|--------|--------|--------|--------|--------|--------|--------|--------|--------|


E|--------|--------|--------|--------|--------|--------|--------|--------|--------|
B|--------|--------|--------|--------|--------|--------|--------|--------|--------|
G|--------|--------|--------|--------|--------|--------|--------|--------|--------|
D|--------|--------|--------|--------|--------|--------|--------|--------|--------|
A|--------|--------|--------|--------|--------|--------|--------|--------|--------|
E|--------|--------|--------|--------|--------|--------|--------|--------|--------|
B|--------|--------|--------|--------|--------|--------|--------|--------|--------|


E|--------|--------|--------|--------|--------|--------|--------|--------|--------|
B|--------|--------|--------|--------|--------|--------|--------|--------|--------|
G|--------|--------|--------|--------|--------|--------|--------|--------|--------|
D|--------|--------|--------|--------|--------|--------|--------|--------|--------|
A|--------|--------|--------|--------|--------|--------|--------|--------|--------|
E|--------|--------|--------|--------|--------|--------|--------|--------|--------|
B|--------|--------|--------|--------|--------|--------|--------|--------|--------|


E|--------|--------|--------|--------|--------|--------|--------|--------|--------|
B|--------|--------|--------|--------|--------|--------|--------|--------|--------|
G|--------|--------|--------|--------|--------|--------|--------|--------|--------|
D|--------|--------|--------|--------|--------|--------|--------|--------|--------|
A|--------|--------|--------|--------|--------|--------|--------|--------|--------|
E|--------|--------|--------|--------|--------|--------|--------|--------|--------|
B|--------|--------|--------|--------|--------|--------|--------|--------|--------|


E|--------|--------|--------|--------|--------|--------|--------|--------|--------|
B|--------|--------|--------|--------|--------|--------|--------|--------|--------|
G|--------|--------|--------|--------|--------|--------|--------|--------|--------|
D|--------|--------|--------|--------|--------|--------|--------|--------|--------|
A|--------|--------|--------|--------|--------|--------|--------|--------|--------|
E|--------|--------|--------|--------|--------|--------|--------|--------|--------|
B|--------|--------|--------|--------|--------|--------|--------|--------|--------|


E|------------------------------|-----------------------------------|--------------------------------|
B|------------------------------|-----------------------------------|--------------------------------|
G|------------------------------|-----------------------------------|--------------------------------|
D|------------------------------|-----------------------------------|-2------------------------------|
A|------------------------------|-----------------------------------|-2------------------------------|
E|------------------------------|-2---------------------------------|-0------------------------------|
B|------4---2---4---4---2---4---|-----2---4---4---4--4--2---4---2---|------4--4--2---4---4---2---4---|


E|-----------------------------------|------------------------------|-----------------------------------|
B|-----------------------------------|------------------------------|-----------------------------------|
G|-----------------------------------|------------------------------|-----------------------------------|
D|-----------------------------------|-2----------------------------|-----------------------------------|
A|-----------------------------------|-2----------------------------|-----------------------------------|
E|-2---------------------------------|-0----------------------------|-2-----------------------------6---|
B|-----2---4---4---4--4--2---4---2---|------4---2---4---4---2---4---|-----2---4---4---4--4--2---4-------|


E|---------------0----|------------0----|------------------------------|---------------------------------|
B|---------------0----|------------0----|------------------------------|---------------------------------|
G|--------------------|-----------------|------3-----------3-----------|-3-----------3-------------------|
D|---------2----------|------2----------|------4-----------4-----------|-4-----------4-------------------|
A|-4---6---2----------|------2----------|------4-----------4-----------|-4-----------4-------------------|
E|---------0----------|------0----------|----------2---2-------2---2---|-----2---2-------2---2-----------|
B|--------------------|-----------------|------------------------------|-------------------------2---2---|


E|---------------------------------|---------------------------------|---------------------------------|
B|---------------------------------|---------------------------------|---------------------------------|
G|---------------------------------|---------------------------------|---------------------------------|
D|---------------------------------|---------------------------------|---------------------------------|
A|-------------4-------------------|---------------------------------|-----------------2---4-----------|
E|-----0---2-------0---0---2---3---|-2---0---------------0---2---4---|-0---2---3---4-------------------|
B|-2-------------------------------|---------2---2---2---------------|-------------------------2---2---|


E|---------------------------------|---------------------------------|---------------------------------|
B|---------------------------------|---------------------------------|---------------------------------|
G|---------------------------------|---------------------------------|---------------------------------|
D|---------------------------------|---------------------------------|---------------------------------|
A|-------------4-------------------|---------------------------------|-4-------2-----------------------|
E|-----0---2-------0---0---2---3---|-2---0---------------0---2---4---|-----4-------2---3---0-----------|
B|-2-------------------------------|---------2---2---2---------------|-------------------------2---2---|


E|---------------------------------|---------------------------------|---------------------------------|
B|---------------------------------|---------------------------------|---------------------------------|
G|---------------------------------|---------------------------------|---------------------------------|
D|---------------------------------|---------------------------------|---------------------------------|
A|-------------4---------------5---|-4-------------------------------|-------------5---4---------------|
E|-----0---2-----------0---2---3---|-2---0---------------0---2---4---|-2---0---2---3---2---0-----------|
B|-2---------------2---------------|---------2---2---2---------------|-------------------------2---2---|


E|---------------------------------|---------------------------------|------------------------------|
B|---------------------------------|---------------------------------|------------------------------|
G|---------------------------------|---------------------------------|------------------------------|
D|---------------------------------|---------------------------------|------------------------------|
A|-------------4---------------5---|-4-------------------------------|-------------5---4------------|
E|-----0---2-----------0---2---3---|-2---0---------------0---2---4---|-2---0---2---3---2---0--------|
B|-2---------------2---------------|---------2---2---2---------------|------------------------------|


E|--------|--------|--------|--------|--------|--------|--------|--------|--------|
B|--------|--------|--------|--------|--------|--------|--------|--------|--------|
G|--------|--------|--------|--------|--------|--------|--------|--------|--------|
D|--------|--------|--------|--------|--------|--------|--------|--------|--------|
A|--------|--------|--------|--------|--------|--------|--------|--------|--------|
E|--------|--------|--------|--------|--------|--------|--------|--------|--------|
B|--------|--------|--------|--------|--------|--------|--------|--------|--------|


E|--------|--------|--------|--------|--------|--------|--------|--------|--------|
B|--------|--------|--------|--------|--------|--------|--------|--------|--------|
G|--------|--------|--------|--------|--------|--------|--------|--------|--------|
D|--------|--------|--------|--------|--------|--------|--------|--------|--------|
A|--------|--------|--------|--------|--------|--------|--------|--------|--------|
E|--------|--------|--------|--------|--------|--------|--------|--------|--------|
B|--------|--------|--------|--------|--------|--------|--------|--------|--------|


E|--------|--------|--------|--------|--------|--------|--------|--------|--------|
B|--------|--------|--------|--------|--------|--------|--------|--------|--------|
G|--------|--------|--------|--------|--------|--------|--------|--------|--------|
D|--------|--------|--------|--------|--------|--------|--------|--------|--------|
A|--------|--------|--------|--------|--------|--------|--------|--------|--------|
E|--------|--------|--------|--------|--------|--------|--------|--------|--------|
B|--------|--------|--------|--------|--------|--------|--------|--------|--------|


E|--------|--------|--------|--------|--------|--------|--------|--------|--------|
B|--------|--------|--------|--------|--------|--------|--------|--------|--------|
G|--------|--------|--------|--------|--------|--------|--------|--------|--------|
D|--------|--------|--------|--------|--------|--------|--------|--------|--------|
A|--------|--------|--------|--------|--------|--------|--------|--------|--------|
E|--------|--------|--------|--------|--------|--------|--------|--------|--------|
B|--------|--------|--------|--------|--------|--------|--------|--------|--------|


E|--------|--------|--------|--------|--------|--------|--------|--------|--------|
B|--------|--------|--------|--------|--------|--------|--------|--------|--------|
G|--------|--------|--------|--------|--------|--------|--------|--------|--------|
D|--------|--------|--------|--------|--------|--------|--------|--------|--------|
A|--------|--------|--------|--------|--------|--------|--------|--------|--------|
E|--------|--------|--------|--------|--------|--------|--------|--------|--------|
B|--------|--------|--------|--------|--------|--------|--------|--------|--------|


E|--------|--------|--------|--------|--------|--------|--------|--------|--------|
B|--------|--------|--------|--------|--------|--------|--------|--------|--------|
G|--------|--------|--------|--------|--------|--------|--------|--------|--------|
D|--------|--------|--------|--------|--------|--------|--------|--------|--------|
A|--------|--------|--------|--------|--------|--------|--------|--------|--------|
E|--------|--------|--------|--------|--------|--------|--------|--------|--------|
B|--------|--------|--------|--------|--------|--------|--------|--------|--------|


E|--------|--------|--------|--------|--------|--------|--------|--------|--------|
B|--------|--------|--------|--------|--------|--------|--------|--------|--------|
G|--------|--------|--------|--------|--------|--------|--------|--------|--------|
D|--------|--------|--------|--------|--------|--------|--------|--------|--------|
A|--------|--------|--------|--------|--------|--------|--------|--------|--------|
E|--------|--------|--------|--------|--------|--------|--------|--------|--------|
B|--------|--------|--------|--------|--------|--------|--------|--------|--------|


E|--------|--------|--------|--------|--------|--------|--------|--------|--------|
B|--------|--------|--------|--------|--------|--------|--------|--------|--------|
G|--------|--------|--------|--------|--------|--------|--------|--------|--------|
D|--------|--------|--------|--------|--------|--------|--------|--------|--------|
A|--------|--------|--------|--------|--------|--------|--------|--------|--------|
E|--------|--------|--------|--------|--------|--------|--------|--------|--------|
B|--------|--------|--------|--------|--------|--------|--------|--------|--------|


E|--------|--------|--------|--------|--------|--------|--------|--------|--------|
B|--------|--------|--------|--------|--------|--------|--------|--------|--------|
G|--------|--------|--------|--------|--------|--------|--------|--------|--------|
D|--------|--------|--------|--------|--------|--------|--------|--------|--------|
A|--------|--------|--------|--------|--------|--------|--------|--------|--------|
E|--------|--------|--------|--------|--------|--------|--------|--------|--------|
B|--------|--------|--------|--------|--------|--------|--------|--------|--------|


E|--------|--------|--------|--------|--------|--------|--------|--------|--------|
B|--------|--------|--------|--------|--------|--------|--------|--------|--------|
G|--------|--------|--------|--------|--------|--------|--------|--------|--------|
D|--------|--------|--------|--------|--------|--------|--------|--------|--------|
A|--------|--------|--------|--------|--------|--------|--------|--------|--------|
E|--------|--------|--------|--------|--------|--------|--------|--------|--------|
B|--------|--------|--------|--------|--------|--------|--------|--------|--------|


E|--------|--------|--------|--------|--------|--------|--------|--------|--------|
B|--------|--------|--------|--------|--------|--------|--------|--------|--------|
G|--------|--------|--------|--------|--------|--------|--------|--------|--------|
D|--------|--------|--------|--------|--------|--------|--------|--------|--------|
A|--------|--------|--------|--------|--------|--------|--------|--------|--------|
E|--------|--------|--------|--------|--------|--------|--------|--------|--------|
B|--------|--------|--------|--------|--------|--------|--------|--------|--------|


E|--------|----------------|---------------------------------|---------------------------------|
B|--------|----------------|---------------------------------|---------------------------------|
G|--------|----------------|---------------------------------|---------------------------------|
D|--------|----------------|---------------------------------|---------------------------------|
A|--------|------------4---|-4---4---4---4---2---2---2---2---|-----------------------------4---|
E|--------|----------------|---------------------------------|-2---2---2---2---0---0---0-------|
B|--------|----------------|---------------------------------|---------------------------------|


E|---------------------------------|---------------------------------|---------------------------------|
B|---------------------------------|---------------------------------|---------------------------------|
G|---------------------------------|---------------------------------|---------------------------------|
D|---------------------------------|---------------------------------|---------------------------------|
A|-4---4---4---4---2---2---2---2---|-9---9---9---9---7---7---7---4---|-4---4---4---4---2---2---2---2---|
E|---------------------------------|---------------------------------|---------------------------------|
B|---------------------------------|---------------------------------|---------------------------------|


E|---------------------------------|---------------------------------|------------------------------|
B|---------------------------------|---------------------------------|------------------------------|
G|---------------------------------|---------6---6-----------6---6---|-----4---6---6-------6----13--|
D|---------------------------------|---------------------------------|------------------------------|
A|-----------------------------4---|-4---4-----------4---4-----------|-4---------------4------------|
E|-2---2---2---2---0---0---0-------|---------------------------------|------------------------------|
B|---------------------------------|---------------------------------|------------------------------|


E|------------------------------|-----------------------------------|------------------------------|
B|-----14-------14--------------|-14----12-11-------12-11-----------|-----14-------14--------------|
G|----------13------13--13--13--|-------------11----------11----13--|----------13------13--11--11--|
D|------------------------------|----------------14----------14-----|------------------------------|
A|------------------------------|-----------------------------------|------------------------------|
E|------------------------------|-----------------------------------|------------------------------|
B|------------------------------|-----------------------------------|------------------------------|


E|---------------------------|------------------------------|---------------------------------------------|
B|-12--12---11------12-------|-----14-------14--------------|-----12-11-------12-11-------12-11-----------|
G|-----11-------11-------13--|----------13------13--13--13--|-----------11----------11----------11----13--|
D|---------------------------|------------------------------|--------------14----------14----------14-----|
A|---------------------------|------------------------------|---------------------------------------------|
E|---------------------------|------------------------------|---------------------------------------------|
B|---------------------------|------------------------------|---------------------------------------------|


E|------------------------------|---------------------------|--------|--------|--------|
B|-----14-------14--------------|-12--12---11------12-------|--------|--------|--------|
G|----------13------13--11--11--|-----11-------11-----------|--------|--------|--------|
D|------------------------------|---------------------------|--------|--------|--------|
A|------------------------------|---------------------------|--------|--------|--------|
E|------------------------------|---------------------------|--------|--------|--------|
B|------------------------------|---------------------------|--------|--------|--------|


E|--------|
B|--------|
G|--------|
D|--------|
A|--------|
E|--------|
B|--------|





Track 6: Gtr.1

E|--------|--------|--------|--------|--------|--------|--------|--------|--------|
B|--------|--------|--------|--------|--------|--------|--------|--------|--------|
G|--------|--------|--------|--------|--------|--------|--------|--------|--------|
D|--------|--------|--------|--------|--------|--------|--------|--------|--------|
A|--------|--------|--------|--------|--------|--------|--------|--------|--------|
E|--------|--------|--------|--------|--------|--------|--------|--------|--------|
B|--------|--------|--------|--------|--------|--------|--------|--------|--------|


E|--------|--------|--------|--------|--------|--------|--------|--------|--------|
B|--------|--------|--------|--------|--------|--------|--------|--------|--------|
G|--------|--------|--------|--------|--------|--------|--------|--------|--------|
D|--------|--------|--------|--------|--------|--------|--------|--------|--------|
A|--------|--------|--------|--------|--------|--------|--------|--------|--------|
E|--------|--------|--------|--------|--------|--------|--------|--------|--------|
B|--------|--------|--------|--------|--------|--------|--------|--------|--------|


E|--------|--------|--------|--------|--------|--------|--------|--------|--------|
B|--------|--------|--------|--------|--------|--------|--------|--------|--------|
G|--------|--------|--------|--------|--------|--------|--------|--------|--------|
D|--------|--------|--------|--------|--------|--------|--------|--------|--------|
A|--------|--------|--------|--------|--------|--------|--------|--------|--------|
E|--------|--------|--------|--------|--------|--------|--------|--------|--------|
B|--------|--------|--------|--------|--------|--------|--------|--------|--------|


E|--------|--------|--------|--------|--------|--------|--------|--------|--------|
B|--------|--------|--------|--------|--------|--------|--------|--------|--------|
G|--------|--------|--------|--------|--------|--------|--------|--------|--------|
D|--------|--------|--------|--------|--------|--------|--------|--------|--------|
A|--------|--------|--------|--------|--------|--------|--------|--------|--------|
E|--------|--------|--------|--------|--------|--------|--------|--------|--------|
B|--------|--------|--------|--------|--------|--------|--------|--------|--------|


E|--------|--------|--------|--------|--------|--------|--------|--------|--------|
B|--------|--------|--------|--------|--------|--------|--------|--------|--------|
G|--------|--------|--------|--------|--------|--------|--------|--------|--------|
D|--------|--------|--------|--------|--------|--------|--------|--------|--------|
A|--------|--------|--------|--------|--------|--------|--------|--------|--------|
E|--------|--------|--------|--------|--------|--------|--------|--------|--------|
B|--------|--------|--------|--------|--------|--------|--------|--------|--------|


E|--------|--------|--------|--------|--------|--------|--------|--------|--------|
B|--------|--------|--------|--------|--------|--------|--------|--------|--------|
G|--------|--------|--------|--------|--------|--------|--------|--------|--------|
D|--------|--------|--------|--------|--------|--------|--------|--------|--------|
A|--------|--------|--------|--------|--------|--------|--------|--------|--------|
E|--------|--------|--------|--------|--------|--------|--------|--------|--------|
B|--------|--------|--------|--------|--------|--------|--------|--------|--------|


E|--------|--------|--------|--------|--------|--------|--------|--------|--------|
B|--------|--------|--------|--------|--------|--------|--------|--------|--------|
G|--------|--------|--------|--------|--------|--------|--------|--------|--------|
D|--------|--------|--------|--------|--------|--------|--------|--------|--------|
A|--------|--------|--------|--------|--------|--------|--------|--------|--------|
E|--------|--------|--------|--------|--------|--------|--------|--------|--------|
B|--------|--------|--------|--------|--------|--------|--------|--------|--------|


E|--------|--------|--------|--------|--------|--------|--------|--------|--------|
B|--------|--------|--------|--------|--------|--------|--------|--------|--------|
G|--------|--------|--------|--------|--------|--------|--------|--------|--------|
D|--------|--------|--------|--------|--------|--------|--------|--------|--------|
A|--------|--------|--------|--------|--------|--------|--------|--------|--------|
E|--------|--------|--------|--------|--------|--------|--------|--------|--------|
B|--------|--------|--------|--------|--------|--------|--------|--------|--------|


E|--------|--------|--------|--------|--------|--------|--------|--------|--------|
B|--------|--------|--------|--------|--------|--------|--------|--------|--------|
G|--------|--------|--------|--------|--------|--------|--------|--------|--------|
D|--------|--------|--------|--------|--------|--------|--------|--------|--------|
A|--------|--------|--------|--------|--------|--------|--------|--------|--------|
E|--------|--------|--------|--------|--------|--------|--------|--------|--------|
B|--------|--------|--------|--------|--------|--------|--------|--------|--------|


E|--------|--------|--------|--------|--------|--------|--------|--------|--------|
B|--------|--------|--------|--------|--------|--------|--------|--------|--------|
G|--------|--------|--------|--------|--------|--------|--------|--------|--------|
D|--------|--------|--------|--------|--------|--------|--------|--------|--------|
A|--------|--------|--------|--------|--------|--------|--------|--------|--------|
E|--------|--------|--------|--------|--------|--------|--------|--------|--------|
B|--------|--------|--------|--------|--------|--------|--------|--------|--------|


E|--------|--------|--------|--------|--------|--------|--------|--------|--------|
B|--------|--------|--------|--------|--------|--------|--------|--------|--------|
G|--------|--------|--------|--------|--------|--------|--------|--------|--------|
D|--------|--------|--------|--------|--------|--------|--------|--------|--------|
A|--------|--------|--------|--------|--------|--------|--------|--------|--------|
E|--------|--------|--------|--------|--------|--------|--------|--------|--------|
B|--------|--------|--------|--------|--------|--------|--------|--------|--------|


E|--------|--------|--------|--------|--------|--------|--------|--------|--------|
B|--------|--------|--------|--------|--------|--------|--------|--------|--------|
G|--------|--------|--------|--------|--------|--------|--------|--------|--------|
D|--------|--------|--------|--------|--------|--------|--------|--------|--------|
A|--------|--------|--------|--------|--------|--------|--------|--------|--------|
E|--------|--------|--------|--------|--------|--------|--------|--------|--------|
B|--------|--------|--------|--------|--------|--------|--------|--------|--------|


E|--------|--------|--------|--------|--------|--------|--------|--------|--------|
B|--------|--------|--------|--------|--------|--------|--------|--------|--------|
G|--------|--------|--------|--------|--------|--------|--------|--------|--------|
D|--------|--------|--------|--------|--------|--------|--------|--------|--------|
A|--------|--------|--------|--------|--------|--------|--------|--------|--------|
E|--------|--------|--------|--------|--------|--------|--------|--------|--------|
B|--------|--------|--------|--------|--------|--------|--------|--------|--------|


E|--------|--------|--------|--------|--------|--------|--------|--------|--------|
B|--------|--------|--------|--------|--------|--------|--------|--------|--------|
G|--------|--------|--------|--------|--------|--------|--------|--------|--------|
D|--------|--------|--------|--------|--------|--------|--------|--------|--------|
A|--------|--------|--------|--------|--------|--------|--------|--------|--------|
E|--------|--------|--------|--------|--------|--------|--------|--------|--------|
B|--------|--------|--------|--------|--------|--------|--------|--------|--------|


E|--------|--------|--------|--------|--------|--------|--------|--------|--------|
B|--------|--------|--------|--------|--------|--------|--------|--------|--------|
G|--------|--------|--------|--------|--------|--------|--------|--------|--------|
D|--------|--------|--------|--------|--------|--------|--------|--------|--------|
A|--------|--------|--------|--------|--------|--------|--------|--------|--------|
E|--------|--------|--------|--------|--------|--------|--------|--------|--------|
B|--------|--------|--------|--------|--------|--------|--------|--------|--------|


E|--------|--------|--------|--------|--------|--------|--------|--------|--------|
B|--------|--------|--------|--------|--------|--------|--------|--------|--------|
G|--------|--------|--------|--------|--------|--------|--------|--------|--------|
D|--------|--------|--------|--------|--------|--------|--------|--------|--------|
A|--------|--------|--------|--------|--------|--------|--------|--------|--------|
E|--------|--------|--------|--------|--------|--------|--------|--------|--------|
B|--------|--------|--------|--------|--------|--------|--------|--------|--------|


E|--------|--------|--------|--------|--------|--------|--------|--------|--------|
B|--------|--------|--------|--------|--------|--------|--------|--------|--------|
G|--------|--------|--------|--------|--------|--------|--------|--------|--------|
D|--------|--------|--------|--------|--------|--------|--------|--------|--------|
A|--------|--------|--------|--------|--------|--------|--------|--------|--------|
E|--------|--------|--------|--------|--------|--------|--------|--------|--------|
B|--------|--------|--------|--------|--------|--------|--------|--------|--------|


E|--------|--------|--------|--------|--------|--------|--------|--------|--------|
B|--------|--------|--------|--------|--------|--------|--------|--------|--------|
G|--------|--------|--------|--------|--------|--------|--------|--------|--------|
D|--------|--------|--------|--------|--------|--------|--------|--------|--------|
A|--------|--------|--------|--------|--------|--------|--------|--------|--------|
E|--------|--------|--------|--------|--------|--------|--------|--------|--------|
B|--------|--------|--------|--------|--------|--------|--------|--------|--------|


E|--------|--------|--------|--------|--------|--------|-----------------------|---------------------------------|
B|--------|--------|--------|--------|--------|--------|-------14----------12--|---------14----------12----------|
G|--------|--------|--------|--------|--------|--------|---------------13------|-11--13----------13------11--13--|
D|--------|--------|--------|--------|--------|--------|-----------11----------|-------------11------------------|
A|--------|--------|--------|--------|--------|--------|-----------------------|---------------------------------|
E|--------|--------|--------|--------|--------|--------|-----------------------|---------------------------------|
B|--------|--------|--------|--------|--------|--------|-----------------------|---------------------------------|


E|---------------------------------|---------------------------------|---------------------------------|
B|-14------12------14----------12--|---------14----------12----------|-12------14----------12----------|
G|-----13------11----------13------|-11--13----------13------11--13--|-----11----------13------11--13--|
D|---------------------11----------|-------------11------------------|-------------11------------------|
A|---------------------------------|---------------------------------|---------------------------------|
E|---------------------------------|---------------------------------|---------------------------------|
B|---------------------------------|---------------------------------|---------------------------------|


E|---------------------------------|---------------------------------|---------------------------------|
B|-14----------12----------14------|-12------14----------12----------|-14----------12----------12------|
G|---------13------11--13------13--|-----11----------13------11--13--|---------13------11--13------11--|
D|-----11--------------------------|-------------11------------------|-----11--------------------------|
A|---------------------------------|---------------------------------|---------------------------------|
E|---------------------------------|---------------------------------|---------------------------------|
B|---------------------------------|---------------------------------|---------------------------------|


E|--------|--------|--------|--------|--------|--------|--------|--------|--------|
B|--------|--------|--------|--------|--------|--------|--------|--------|--------|
G|--------|--------|--------|--------|--------|--------|--------|--------|--------|
D|--------|--------|--------|--------|--------|--------|--------|--------|--------|
A|--------|--------|--------|--------|--------|--------|--------|--------|--------|
E|--------|--------|--------|--------|--------|--------|--------|--------|--------|
B|--------|--------|--------|--------|--------|--------|--------|--------|--------|


E|--------|--------|--------|--------|--------|--------|--------|--------|--------|
B|--------|--------|--------|--------|--------|--------|--------|--------|--------|
G|--------|--------|--------|--------|--------|--------|--------|--------|--------|
D|--------|--------|--------|--------|--------|--------|--------|--------|--------|
A|--------|--------|--------|--------|--------|--------|--------|--------|--------|
E|--------|--------|--------|--------|--------|--------|--------|--------|--------|
B|--------|--------|--------|--------|--------|--------|--------|--------|--------|


E|--------|--------|--------|--------|--------|--------|--------|--------|--------|
B|--------|--------|--------|--------|--------|--------|--------|--------|--------|
G|--------|--------|--------|--------|--------|--------|--------|--------|--------|
D|--------|--------|--------|--------|--------|--------|--------|--------|--------|
A|--------|--------|--------|--------|--------|--------|--------|--------|--------|
E|--------|--------|--------|--------|--------|--------|--------|--------|--------|
B|--------|--------|--------|--------|--------|--------|--------|--------|--------|


E|--------|--------|--------|--------|--------|--------|--------|--------|--------|
B|--------|--------|--------|--------|--------|--------|--------|--------|--------|
G|--------|--------|--------|--------|--------|--------|--------|--------|--------|
D|--------|--------|--------|--------|--------|--------|--------|--------|--------|
A|--------|--------|--------|--------|--------|--------|--------|--------|--------|
E|--------|--------|--------|--------|--------|--------|--------|--------|--------|
B|--------|--------|--------|--------|--------|--------|--------|--------|--------|


E|--------|--------|--------|--------|--------|--------|--------|--------|--------|
B|--------|--------|--------|--------|--------|--------|--------|--------|--------|
G|--------|--------|--------|--------|--------|--------|--------|--------|--------|
D|--------|--------|--------|--------|--------|--------|--------|--------|--------|
A|--------|--------|--------|--------|--------|--------|--------|--------|--------|
E|--------|--------|--------|--------|--------|--------|--------|--------|--------|
B|--------|--------|--------|--------|--------|--------|--------|--------|--------|


E|--------|--------|--------|--------|--------|--------|--------|--------|--------|
B|--------|--------|--------|--------|--------|--------|--------|--------|--------|
G|--------|--------|--------|--------|--------|--------|--------|--------|--------|
D|--------|--------|--------|--------|--------|--------|--------|--------|--------|
A|--------|--------|--------|--------|--------|--------|--------|--------|--------|
E|--------|--------|--------|--------|--------|--------|--------|--------|--------|
B|--------|--------|--------|--------|--------|--------|--------|--------|--------|


E|--------|--------|--------|--------|--------|--------|--------|--------|--------|
B|--------|--------|--------|--------|--------|--------|--------|--------|--------|
G|--------|--------|--------|--------|--------|--------|--------|--------|--------|
D|--------|--------|--------|--------|--------|--------|--------|--------|--------|
A|--------|--------|--------|--------|--------|--------|--------|--------|--------|
E|--------|--------|--------|--------|--------|--------|--------|--------|--------|
B|--------|--------|--------|--------|--------|--------|--------|--------|--------|


E|--------|--------|--------|--------|--------|--------|--------|--------|--------|
B|--------|--------|--------|--------|--------|--------|--------|--------|--------|
G|--------|--------|--------|--------|--------|--------|--------|--------|--------|
D|--------|--------|--------|--------|--------|--------|--------|--------|--------|
A|--------|--------|--------|--------|--------|--------|--------|--------|--------|
E|--------|--------|--------|--------|--------|--------|--------|--------|--------|
B|--------|--------|--------|--------|--------|--------|--------|--------|--------|


E|--------|--------|--------|--------|--------|--------|--------|--------|--------|
B|--------|--------|--------|--------|--------|--------|--------|--------|--------|
G|--------|--------|--------|--------|--------|--------|--------|--------|--------|
D|--------|--------|--------|--------|--------|--------|--------|--------|--------|
A|--------|--------|--------|--------|--------|--------|--------|--------|--------|
E|--------|--------|--------|--------|--------|--------|--------|--------|--------|
B|--------|--------|--------|--------|--------|--------|--------|--------|--------|


E|--------|--------|--------|--------|--------|--------|--------|--------|--------|
B|--------|--------|--------|--------|--------|--------|--------|--------|--------|
G|--------|--------|--------|--------|--------|--------|--------|--------|--------|
D|--------|--------|--------|--------|--------|--------|--------|--------|--------|
A|--------|--------|--------|--------|--------|--------|--------|--------|--------|
E|--------|--------|--------|--------|--------|--------|--------|--------|--------|
B|--------|--------|--------|--------|--------|--------|--------|--------|--------|


E|--------|--------|--------|--------|--------|--------|--------|--------|--------|
B|--------|--------|--------|--------|--------|--------|--------|--------|--------|
G|--------|--------|--------|--------|--------|--------|--------|--------|--------|
D|--------|--------|--------|--------|--------|--------|--------|--------|--------|
A|--------|--------|--------|--------|--------|--------|--------|--------|--------|
E|--------|--------|--------|--------|--------|--------|--------|--------|--------|
B|--------|--------|--------|--------|--------|--------|--------|--------|--------|


E|--------|--------|--------|
B|--------|--------|--------|
G|--------|--------|--------|
D|--------|--------|--------|
A|--------|--------|--------|
E|--------|--------|--------|
B|--------|--------|--------|





Track 7: Gtr.1

E|--------|--------|--------|--------|--------|--------|--------|--------|--------|
B|--------|--------|--------|--------|--------|--------|--------|--------|--------|
G|--------|--------|--------|--------|--------|--------|--------|--------|--------|
D|--------|--------|--------|--------|--------|--------|--------|--------|--------|
A|--------|--------|--------|--------|--------|--------|--------|--------|--------|
E|--------|--------|--------|--------|--------|--------|--------|--------|--------|
B|--------|--------|--------|--------|--------|--------|--------|--------|--------|


E|--------|--------|--------|--------|--------|--------|--------|--------|--------|
B|--------|--------|--------|--------|--------|--------|--------|--------|--------|
G|--------|--------|--------|--------|--------|--------|--------|--------|--------|
D|--------|--------|--------|--------|--------|--------|--------|--------|--------|
A|--------|--------|--------|--------|--------|--------|--------|--------|--------|
E|--------|--------|--------|--------|--------|--------|--------|--------|--------|
B|--------|--------|--------|--------|--------|--------|--------|--------|--------|


E|--------|--------|--------|--------|--------|--------|--------|--------|--------|
B|--------|--------|--------|--------|--------|--------|--------|--------|--------|
G|--------|--------|--------|--------|--------|--------|--------|--------|--------|
D|--------|--------|--------|--------|--------|--------|--------|--------|--------|
A|--------|--------|--------|--------|--------|--------|--------|--------|--------|
E|--------|--------|--------|--------|--------|--------|--------|--------|--------|
B|--------|--------|--------|--------|--------|--------|--------|--------|--------|


E|--------|--------|--------|--------|--------|--------|--------|--------|--------|
B|--------|--------|--------|--------|--------|--------|--------|--------|--------|
G|--------|--------|--------|--------|--------|--------|--------|--------|--------|
D|--------|--------|--------|--------|--------|--------|--------|--------|--------|
A|--------|--------|--------|--------|--------|--------|--------|--------|--------|
E|--------|--------|--------|--------|--------|--------|--------|--------|--------|
B|--------|--------|--------|--------|--------|--------|--------|--------|--------|


E|--------|--------|--------|--------|--------|--------|--------|--------|--------|
B|--------|--------|--------|--------|--------|--------|--------|--------|--------|
G|--------|--------|--------|--------|--------|--------|--------|--------|--------|
D|--------|--------|--------|--------|--------|--------|--------|--------|--------|
A|--------|--------|--------|--------|--------|--------|--------|--------|--------|
E|--------|--------|--------|--------|--------|--------|--------|--------|--------|
B|--------|--------|--------|--------|--------|--------|--------|--------|--------|


E|--------|--------|--------|--------|--------|--------|--------|--------|--------|
B|--------|--------|--------|--------|--------|--------|--------|--------|--------|
G|--------|--------|--------|--------|--------|--------|--------|--------|--------|
D|--------|--------|--------|--------|--------|--------|--------|--------|--------|
A|--------|--------|--------|--------|--------|--------|--------|--------|--------|
E|--------|--------|--------|--------|--------|--------|--------|--------|--------|
B|--------|--------|--------|--------|--------|--------|--------|--------|--------|


E|--------|--------|--------|--------|--------|--------|--------|--------|--------|
B|--------|--------|--------|--------|--------|--------|--------|--------|--------|
G|--------|--------|--------|--------|--------|--------|--------|--------|--------|
D|--------|--------|--------|--------|--------|--------|--------|--------|--------|
A|--------|--------|--------|--------|--------|--------|--------|--------|--------|
E|--------|--------|--------|--------|--------|--------|--------|--------|--------|
B|--------|--------|--------|--------|--------|--------|--------|--------|--------|


E|--------|--------|--------|--------|--------|--------|--------|--------|--------|
B|--------|--------|--------|--------|--------|--------|--------|--------|--------|
G|--------|--------|--------|--------|--------|--------|--------|--------|--------|
D|--------|--------|--------|--------|--------|--------|--------|--------|--------|
A|--------|--------|--------|--------|--------|--------|--------|--------|--------|
E|--------|--------|--------|--------|--------|--------|--------|--------|--------|
B|--------|--------|--------|--------|--------|--------|--------|--------|--------|


E|--------|--------|--------|--------|--------|--------|--------|--------|--------|
B|--------|--------|--------|--------|--------|--------|--------|--------|--------|
G|--------|--------|--------|--------|--------|--------|--------|--------|--------|
D|--------|--------|--------|--------|--------|--------|--------|--------|--------|
A|--------|--------|--------|--------|--------|--------|--------|--------|--------|
E|--------|--------|--------|--------|--------|--------|--------|--------|--------|
B|--------|--------|--------|--------|--------|--------|--------|--------|--------|


E|--------|--------|--------|--------|--------|--------|--------|--------|--------|
B|--------|--------|--------|--------|--------|--------|--------|--------|--------|
G|--------|--------|--------|--------|--------|--------|--------|--------|--------|
D|--------|--------|--------|--------|--------|--------|--------|--------|--------|
A|--------|--------|--------|--------|--------|--------|--------|--------|--------|
E|--------|--------|--------|--------|--------|--------|--------|--------|--------|
B|--------|--------|--------|--------|--------|--------|--------|--------|--------|


E|--------|--------|--------|--------|--------|--------|--------|--------|--------|
B|--------|--------|--------|--------|--------|--------|--------|--------|--------|
G|--------|--------|--------|--------|--------|--------|--------|--------|--------|
D|--------|--------|--------|--------|--------|--------|--------|--------|--------|
A|--------|--------|--------|--------|--------|--------|--------|--------|--------|
E|--------|--------|--------|--------|--------|--------|--------|--------|--------|
B|--------|--------|--------|--------|--------|--------|--------|--------|--------|


E|--------|--------|--------|--------|--------|--------|--------|--------|--------|
B|--------|--------|--------|--------|--------|--------|--------|--------|--------|
G|--------|--------|--------|--------|--------|--------|--------|--------|--------|
D|--------|--------|--------|--------|--------|--------|--------|--------|--------|
A|--------|--------|--------|--------|--------|--------|--------|--------|--------|
E|--------|--------|--------|--------|--------|--------|--------|--------|--------|
B|--------|--------|--------|--------|--------|--------|--------|--------|--------|


E|--------|--------|--------|--------|--------|--------|--------|--------|--------|
B|--------|--------|--------|--------|--------|--------|--------|--------|--------|
G|--------|--------|--------|--------|--------|--------|--------|--------|--------|
D|--------|--------|--------|--------|--------|--------|--------|--------|--------|
A|--------|--------|--------|--------|--------|--------|--------|--------|--------|
E|--------|--------|--------|--------|--------|--------|--------|--------|--------|
B|--------|--------|--------|--------|--------|--------|--------|--------|--------|


E|--------|--------|--------|--------|--------|--------|--------|--------|--------|
B|--------|--------|--------|--------|--------|--------|--------|--------|--------|
G|--------|--------|--------|--------|--------|--------|--------|--------|--------|
D|--------|--------|--------|--------|--------|--------|--------|--------|--------|
A|--------|--------|--------|--------|--------|--------|--------|--------|--------|
E|--------|--------|--------|--------|--------|--------|--------|--------|--------|
B|--------|--------|--------|--------|--------|--------|--------|--------|--------|


E|--------|--------|--------|--------|--------|--------|--------|--------|--------|
B|--------|--------|--------|--------|--------|--------|--------|--------|--------|
G|--------|--------|--------|--------|--------|--------|--------|--------|--------|
D|--------|--------|--------|--------|--------|--------|--------|--------|--------|
A|--------|--------|--------|--------|--------|--------|--------|--------|--------|
E|--------|--------|--------|--------|--------|--------|--------|--------|--------|
B|--------|--------|--------|--------|--------|--------|--------|--------|--------|


E|--------|--------|--------|--------|--------|--------|--------|--------|--------|
B|--------|--------|--------|--------|--------|--------|--------|--------|--------|
G|--------|--------|--------|--------|--------|--------|--------|--------|--------|
D|--------|--------|--------|--------|--------|--------|--------|--------|--------|
A|--------|--------|--------|--------|--------|--------|--------|--------|--------|
E|--------|--------|--------|--------|--------|--------|--------|--------|--------|
B|--------|--------|--------|--------|--------|--------|--------|--------|--------|


E|--------|--------|--------|--------|--------|--------|--------|--------|--------|
B|--------|--------|--------|--------|--------|--------|--------|--------|--------|
G|--------|--------|--------|--------|--------|--------|--------|--------|--------|
D|--------|--------|--------|--------|--------|--------|--------|--------|--------|
A|--------|--------|--------|--------|--------|--------|--------|--------|--------|
E|--------|--------|--------|--------|--------|--------|--------|--------|--------|
B|--------|--------|--------|--------|--------|--------|--------|--------|--------|


E|--------|--------|--------|--------|--------|--------|--------|--------|--------|
B|--------|--------|--------|--------|--------|--------|--------|--------|--------|
G|--------|--------|--------|--------|--------|--------|--------|--------|--------|
D|--------|--------|--------|--------|--------|--------|--------|--------|--------|
A|--------|--------|--------|--------|--------|--------|--------|--------|--------|
E|--------|--------|--------|--------|--------|--------|--------|--------|--------|
B|--------|--------|--------|--------|--------|--------|--------|--------|--------|


E|--------|--------|--------|--------|--------|--------|--------|--------|--------|
B|--------|--------|--------|--------|--------|--------|--------|--------|--------|
G|--------|--------|--------|--------|--------|--------|--------|--------|--------|
D|--------|--------|--------|--------|--------|--------|--------|--------|--------|
A|--------|--------|--------|--------|--------|--------|--------|--------|--------|
E|--------|--------|--------|--------|--------|--------|--------|--------|--------|
B|--------|--------|--------|--------|--------|--------|--------|--------|--------|


E|--------|--------|--------|--------|--------|--------|--------|--------|--------|
B|--------|--------|--------|--------|--------|--------|--------|--------|--------|
G|--------|--------|--------|--------|--------|--------|--------|--------|--------|
D|--------|--------|--------|--------|--------|--------|--------|--------|--------|
A|--------|--------|--------|--------|--------|--------|--------|--------|--------|
E|--------|--------|--------|--------|--------|--------|--------|--------|--------|
B|--------|--------|--------|--------|--------|--------|--------|--------|--------|


E|--------|--------|--------|--------|--------|--------|--------|-------------|-------------|
B|--------|--------|--------|--------|--------|--------|--------|-------------|-------------|
G|--------|--------|--------|--------|--------|--------|--------|-------------|-------------|
D|--------|--------|--------|--------|--------|--------|--------|-------------|-------------|
A|--------|--------|--------|--------|--------|--------|--------|-------------|-------------|
E|--------|--------|--------|--------|--------|--------|--------|-------------|-------------|
B|--------|--------|--------|--------|--------|--------|--------|-------------|-------------|


E|--------|--------|--------|--------|--------|--------|--------|--------|--------|
B|--------|--------|--------|--------|--------|--------|--------|--------|--------|
G|--------|--------|--------|--------|--------|--------|--------|--------|--------|
D|--------|--------|--------|--------|--------|--------|--------|--------|--------|
A|--------|--------|--------|--------|--------|--------|--------|--------|--------|
E|--------|--------|--------|--------|--------|--------|--------|--------|--------|
B|--------|--------|--------|--------|--------|--------|--------|--------|--------|


E|--------|--------|--------|--------|--------|--------|--------|--------|--------|
B|--------|--------|--------|--------|--------|--------|--------|--------|--------|
G|--------|--------|--------|--------|--------|--------|--------|--------|--------|
D|--------|--------|--------|--------|--------|--------|--------|--------|--------|
A|--------|--------|--------|--------|--------|--------|--------|--------|--------|
E|--------|--------|--------|--------|--------|--------|--------|--------|--------|
B|--------|--------|--------|--------|--------|--------|--------|--------|--------|


E|--------|--------|--------|--------|--------|--------|--------|--------|--------|
B|--------|--------|--------|--------|--------|--------|--------|--------|--------|
G|--------|--------|--------|--------|--------|--------|--------|--------|--------|
D|--------|--------|--------|--------|--------|--------|--------|--------|--------|
A|--------|--------|--------|--------|--------|--------|--------|--------|--------|
E|--------|--------|--------|--------|--------|--------|--------|--------|--------|
B|--------|--------|--------|--------|--------|--------|--------|--------|--------|


E|--------|--------|--------|--------|--------|--------|--------|--------|--------|
B|--------|--------|--------|--------|--------|--------|--------|--------|--------|
G|--------|--------|--------|--------|--------|--------|--------|--------|--------|
D|--------|--------|--------|--------|--------|--------|--------|--------|--------|
A|--------|--------|--------|--------|--------|--------|--------|--------|--------|
E|--------|--------|--------|--------|--------|--------|--------|--------|--------|
B|--------|--------|--------|--------|--------|--------|--------|--------|--------|


E|--------|--------|--------|--------|--------|--------|--------|--------|--------|
B|--------|--------|--------|--------|--------|--------|--------|--------|--------|
G|--------|--------|--------|--------|--------|--------|--------|--------|--------|
D|--------|--------|--------|--------|--------|--------|--------|--------|--------|
A|--------|--------|--------|--------|--------|--------|--------|--------|--------|
E|--------|--------|--------|--------|--------|--------|--------|--------|--------|
B|--------|--------|--------|--------|--------|--------|--------|--------|--------|


E|--------|--------|--------|--------|--------|--------|--------|--------|--------|
B|--------|--------|--------|--------|--------|--------|--------|--------|--------|
G|--------|--------|--------|--------|--------|--------|--------|--------|--------|
D|--------|--------|--------|--------|--------|--------|--------|--------|--------|
A|--------|--------|--------|--------|--------|--------|--------|--------|--------|
E|--------|--------|--------|--------|--------|--------|--------|--------|--------|
B|--------|--------|--------|--------|--------|--------|--------|--------|--------|


E|--------|--------|--------|--------|--------|--------|--------|--------|--------|
B|--------|--------|--------|--------|--------|--------|--------|--------|--------|
G|--------|--------|--------|--------|--------|--------|--------|--------|--------|
D|--------|--------|--------|--------|--------|--------|--------|--------|--------|
A|--------|--------|--------|--------|--------|--------|--------|--------|--------|
E|--------|--------|--------|--------|--------|--------|--------|--------|--------|
B|--------|--------|--------|--------|--------|--------|--------|--------|--------|


E|--------|--------|--------|--------|--------|--------|--------|--------|--------|
B|--------|--------|--------|--------|--------|--------|--------|--------|--------|
G|--------|--------|--------|--------|--------|--------|--------|--------|--------|
D|--------|--------|--------|--------|--------|--------|--------|--------|--------|
A|--------|--------|--------|--------|--------|--------|--------|--------|--------|
E|--------|--------|--------|--------|--------|--------|--------|--------|--------|
B|--------|--------|--------|--------|--------|--------|--------|--------|--------|


E|--------|--------|--------|--------|--------|--------|--------|--------|--------|
B|--------|--------|--------|--------|--------|--------|--------|--------|--------|
G|--------|--------|--------|--------|--------|--------|--------|--------|--------|
D|--------|--------|--------|--------|--------|--------|--------|--------|--------|
A|--------|--------|--------|--------|--------|--------|--------|--------|--------|
E|--------|--------|--------|--------|--------|--------|--------|--------|--------|
B|--------|--------|--------|--------|--------|--------|--------|--------|--------|


E|--------|--------|--------|--------|--------|--------|--------|--------|
B|--------|--------|--------|--------|--------|--------|--------|--------|
G|--------|--------|--------|--------|--------|--------|--------|--------|
D|--------|--------|--------|--------|--------|--------|--------|--------|
A|--------|--------|--------|--------|--------|--------|--------|--------|
E|--------|--------|--------|--------|--------|--------|--------|--------|
B|--------|--------|--------|--------|--------|--------|--------|--------|





Track 8: Gtr.1

E|--------|--------|--------|--------|--------|--------|--------|--------|--------|
B|--------|--------|--------|--------|--------|--------|--------|--------|--------|
G|--------|--------|--------|--------|--------|--------|--------|--------|--------|
D|--------|--------|--------|--------|--------|--------|--------|--------|--------|
A|--------|--------|--------|--------|--------|--------|--------|--------|--------|
E|--------|--------|--------|--------|--------|--------|--------|--------|--------|
B|--------|--------|--------|--------|--------|--------|--------|--------|--------|


E|--------|--------|--------|--------|--------|--------|--------|--------|--------|
B|--------|--------|--------|--------|--------|--------|--------|--------|--------|
G|--------|--------|--------|--------|--------|--------|--------|--------|--------|
D|--------|--------|--------|--------|--------|--------|--------|--------|--------|
A|--------|--------|--------|--------|--------|--------|--------|--------|--------|
E|--------|--------|--------|--------|--------|--------|--------|--------|--------|
B|--------|--------|--------|--------|--------|--------|--------|--------|--------|


E|--------|--------|--------|--------|--------|--------|--------|--------|--------|
B|--------|--------|--------|--------|--------|--------|--------|--------|--------|
G|--------|--------|--------|--------|--------|--------|--------|--------|--------|
D|--------|--------|--------|--------|--------|--------|--------|--------|--------|
A|--------|--------|--------|--------|--------|--------|--------|--------|--------|
E|--------|--------|--------|--------|--------|--------|--------|--------|--------|
B|--------|--------|--------|--------|--------|--------|--------|--------|--------|


E|--------|--------|--------|--------|--------|--------|--------|--------|--------|
B|--------|--------|--------|--------|--------|--------|--------|--------|--------|
G|--------|--------|--------|--------|--------|--------|--------|--------|--------|
D|--------|--------|--------|--------|--------|--------|--------|--------|--------|
A|--------|--------|--------|--------|--------|--------|--------|--------|--------|
E|--------|--------|--------|--------|--------|--------|--------|--------|--------|
B|--------|--------|--------|--------|--------|--------|--------|--------|--------|


E|--------|--------|--------|--------|--------|--------|--------|--------|--------|
B|--------|--------|--------|--------|--------|--------|--------|--------|--------|
G|--------|--------|--------|--------|--------|--------|--------|--------|--------|
D|--------|--------|--------|--------|--------|--------|--------|--------|--------|
A|--------|--------|--------|--------|--------|--------|--------|--------|--------|
E|--------|--------|--------|--------|--------|--------|--------|--------|--------|
B|--------|--------|--------|--------|--------|--------|--------|--------|--------|


E|--------|--------|--------|--------|--------|--------|--------|--------|--------|
B|--------|--------|--------|--------|--------|--------|--------|--------|--------|
G|--------|--------|--------|--------|--------|--------|--------|--------|--------|
D|--------|--------|--------|--------|--------|--------|--------|--------|--------|
A|--------|--------|--------|--------|--------|--------|--------|--------|--------|
E|--------|--------|--------|--------|--------|--------|--------|--------|--------|
B|--------|--------|--------|--------|--------|--------|--------|--------|--------|


E|--------|--------|--------|--------|--------|--------|--------|--------|--------|
B|--------|--------|--------|--------|--------|--------|--------|--------|--------|
G|--------|--------|--------|--------|--------|--------|--------|--------|--------|
D|--------|--------|--------|--------|--------|--------|--------|--------|--------|
A|--------|--------|--------|--------|--------|--------|--------|--------|--------|
E|--------|--------|--------|--------|--------|--------|--------|--------|--------|
B|--------|--------|--------|--------|--------|--------|--------|--------|--------|


E|--------|--------|--------|--------|--------|--------|--------|--------|--------|
B|--------|--------|--------|--------|--------|--------|--------|--------|--------|
G|--------|--------|--------|--------|--------|--------|--------|--------|--------|
D|--------|--------|--------|--------|--------|--------|--------|--------|--------|
A|--------|--------|--------|--------|--------|--------|--------|--------|--------|
E|--------|--------|--------|--------|--------|--------|--------|--------|--------|
B|--------|--------|--------|--------|--------|--------|--------|--------|--------|


E|--------|--------|--------|--------|--------|--------|--------|--------|--------|
B|--------|--------|--------|--------|--------|--------|--------|--------|--------|
G|--------|--------|--------|--------|--------|--------|--------|--------|--------|
D|--------|--------|--------|--------|--------|--------|--------|--------|--------|
A|--------|--------|--------|--------|--------|--------|--------|--------|--------|
E|--------|--------|--------|--------|--------|--------|--------|--------|--------|
B|--------|--------|--------|--------|--------|--------|--------|--------|--------|


E|--------|--------|--------|--------|--------|--------|--------|--------|--------|
B|--------|--------|--------|--------|--------|--------|--------|--------|--------|
G|--------|--------|--------|--------|--------|--------|--------|--------|--------|
D|--------|--------|--------|--------|--------|--------|--------|--------|--------|
A|--------|--------|--------|--------|--------|--------|--------|--------|--------|
E|--------|--------|--------|--------|--------|--------|--------|--------|--------|
B|--------|--------|--------|--------|--------|--------|--------|--------|--------|


E|--------|--------|--------|--------|--------|--------|--------|--------|--------|
B|--------|--------|--------|--------|--------|--------|--------|--------|--------|
G|--------|--------|--------|--------|--------|--------|--------|--------|--------|
D|--------|--------|--------|--------|--------|--------|--------|--------|--------|
A|--------|--------|--------|--------|--------|--------|--------|--------|--------|
E|--------|--------|--------|--------|--------|--------|--------|--------|--------|
B|--------|--------|--------|--------|--------|--------|--------|--------|--------|


E|--------|--------|--------|--------|--------|--------|--------|--------|--------|
B|--------|--------|--------|--------|--------|--------|--------|--------|--------|
G|--------|--------|--------|--------|--------|--------|--------|--------|--------|
D|--------|--------|--------|--------|--------|--------|--------|--------|--------|
A|--------|--------|--------|--------|--------|--------|--------|--------|--------|
E|--------|--------|--------|--------|--------|--------|--------|--------|--------|
B|--------|--------|--------|--------|--------|--------|--------|--------|--------|


E|--------|--------|--------|--------|--------|--------|--------|--------|--------|
B|--------|--------|--------|--------|--------|--------|--------|--------|--------|
G|--------|--------|--------|--------|--------|--------|--------|--------|--------|
D|--------|--------|--------|--------|--------|--------|--------|--------|--------|
A|--------|--------|--------|--------|--------|--------|--------|--------|--------|
E|--------|--------|--------|--------|--------|--------|--------|--------|--------|
B|--------|--------|--------|--------|--------|--------|--------|--------|--------|


E|--------|--------|--------|--------|--------|--------|--------|--------|--------|
B|--------|--------|--------|--------|--------|--------|--------|--------|--------|
G|--------|--------|--------|--------|--------|--------|--------|--------|--------|
D|--------|--------|--------|--------|--------|--------|--------|--------|--------|
A|--------|--------|--------|--------|--------|--------|--------|--------|--------|
E|--------|--------|--------|--------|--------|--------|--------|--------|--------|
B|--------|--------|--------|--------|--------|--------|--------|--------|--------|


E|--------|--------|--------|--------|--------|--------|--------|--------|--------|
B|--------|--------|--------|--------|--------|--------|--------|--------|--------|
G|--------|--------|--------|--------|--------|--------|--------|--------|--------|
D|--------|--------|--------|--------|--------|--------|--------|--------|--------|
A|--------|--------|--------|--------|--------|--------|--------|--------|--------|
E|--------|--------|--------|--------|--------|--------|--------|--------|--------|
B|--------|--------|--------|--------|--------|--------|--------|--------|--------|


E|--------|--------|--------|--------|--------|--------|--------|--------|--------|
B|--------|--------|--------|--------|--------|--------|--------|--------|--------|
G|--------|--------|--------|--------|--------|--------|--------|--------|--------|
D|--------|--------|--------|--------|--------|--------|--------|--------|--------|
A|--------|--------|--------|--------|--------|--------|--------|--------|--------|
E|--------|--------|--------|--------|--------|--------|--------|--------|--------|
B|--------|--------|--------|--------|--------|--------|--------|--------|--------|


E|--------|--------|--------|--------|--------|--------|--------|--------|--------|
B|--------|--------|--------|--------|--------|--------|--------|--------|--------|
G|--------|--------|--------|--------|--------|--------|--------|--------|--------|
D|--------|--------|--------|--------|--------|--------|--------|--------|--------|
A|--------|--------|--------|--------|--------|--------|--------|--------|--------|
E|--------|--------|--------|--------|--------|--------|--------|--------|--------|
B|--------|--------|--------|--------|--------|--------|--------|--------|--------|


E|--------|--------|--------|--------|--------|--------|--------|--------|--------|
B|--------|--------|--------|--------|--------|--------|--------|--------|--------|
G|--------|--------|--------|--------|--------|--------|--------|--------|--------|
D|--------|--------|--------|--------|--------|--------|--------|--------|--------|
A|--------|--------|--------|--------|--------|--------|--------|--------|--------|
E|--------|--------|--------|--------|--------|--------|--------|--------|--------|
B|--------|--------|--------|--------|--------|--------|--------|--------|--------|


E|--------|--------|--------|--------|--------|--------|--------|--------|--------|
B|--------|--------|--------|--------|--------|--------|--------|--------|--------|
G|--------|--------|--------|--------|--------|--------|--------|--------|--------|
D|--------|--------|--------|--------|--------|--------|--------|--------|--------|
A|--------|--------|--------|--------|--------|--------|--------|--------|--------|
E|--------|--------|--------|--------|--------|--------|--------|--------|--------|
B|--------|--------|--------|--------|--------|--------|--------|--------|--------|


E|--------|--------|--------|--------|--------|--------|--------|--------|--------|
B|--------|--------|--------|--------|--------|--------|--------|--------|--------|
G|--------|--------|--------|--------|--------|--------|--------|--------|--------|
D|--------|--------|--------|--------|--------|--------|--------|--------|--------|
A|--------|--------|--------|--------|--------|--------|--------|--------|--------|
E|--------|--------|--------|--------|--------|--------|--------|--------|--------|
B|--------|--------|--------|--------|--------|--------|--------|--------|--------|


E|--------|--------|--------|--------|--------|--------|--------|--------|--------|
B|--------|--------|--------|--------|--------|--------|--------|--------|--------|
G|--------|--------|--------|--------|--------|--------|--------|--------|--------|
D|--------|--------|--------|--------|--------|--------|--------|--------|--------|
A|--------|--------|--------|--------|--------|--------|--------|--------|--------|
E|--------|--------|--------|--------|--------|--------|--------|--------|--------|
B|--------|--------|--------|--------|--------|--------|--------|--------|--------|


E|--------|--------|--------|--------|--------|--------|--------|--------|--------|
B|--------|--------|--------|--------|--------|--------|--------|--------|--------|
G|--------|--------|--------|--------|--------|--------|--------|--------|--------|
D|--------|--------|--------|--------|--------|--------|--------|--------|--------|
A|--------|--------|--------|--------|--------|--------|--------|--------|--------|
E|--------|--------|--------|--------|--------|--------|--------|--------|--------|
B|--------|--------|--------|--------|--------|--------|--------|--------|--------|


E|--------|--------|--------|--------|--------|--------|--------|--------|--------|
B|--------|--------|--------|--------|--------|--------|--------|--------|--------|
G|--------|--------|--------|--------|--------|--------|--------|--------|--------|
D|--------|--------|--------|--------|--------|--------|--------|--------|--------|
A|--------|--------|--------|--------|--------|--------|--------|--------|--------|
E|--------|--------|--------|--------|--------|--------|--------|--------|--------|
B|--------|--------|--------|--------|--------|--------|--------|--------|--------|


E|--------|--------|--------|--------|--------|--------|--------|--------|--------|
B|--------|--------|--------|--------|--------|--------|--------|--------|--------|
G|--------|--------|--------|--------|--------|--------|--------|--------|--------|
D|--------|--------|--------|--------|--------|--------|--------|--------|--------|
A|--------|--------|--------|--------|--------|--------|--------|--------|--------|
E|--------|--------|--------|--------|--------|--------|--------|--------|--------|
B|--------|--------|--------|--------|--------|--------|--------|--------|--------|


E|--------|--------|--------|-------------|--------|--------|--------|--------|--------|
B|--------|--------|--------|-------------|--------|--------|--------|--------|--------|
G|--------|--------|--------|-------------|--------|--------|--------|--------|--------|
D|--------|--------|--------|-------------|--------|--------|--------|--------|--------|
A|--------|--------|--------|-------------|--------|--------|--------|--------|--------|
E|--------|--------|--------|-------------|--------|--------|--------|--------|--------|
B|--------|--------|--------|-------------|--------|--------|--------|--------|--------|


E|--------|--------|--------|--------|--------|--------|--------|--------|--------|
B|--------|--------|--------|--------|--------|--------|--------|--------|--------|
G|--------|--------|--------|--------|--------|--------|--------|--------|--------|
D|--------|--------|--------|--------|--------|--------|--------|--------|--------|
A|--------|--------|--------|--------|--------|--------|--------|--------|--------|
E|--------|--------|--------|--------|--------|--------|--------|--------|--------|
B|--------|--------|--------|--------|--------|--------|--------|--------|--------|


E|--------|--------|--------|--------|--------|--------|--------|--------|--------|
B|--------|--------|--------|--------|--------|--------|--------|--------|--------|
G|--------|--------|--------|--------|--------|--------|--------|--------|--------|
D|--------|--------|--------|--------|--------|--------|--------|--------|--------|
A|--------|--------|--------|--------|--------|--------|--------|--------|--------|
E|--------|--------|--------|--------|--------|--------|--------|--------|--------|
B|--------|--------|--------|--------|--------|--------|--------|--------|--------|


E|--------|--------|--------|--------|--------|--------|--------|--------|--------|
B|--------|--------|--------|--------|--------|--------|--------|--------|--------|
G|--------|--------|--------|--------|--------|--------|--------|--------|--------|
D|--------|--------|--------|--------|--------|--------|--------|--------|--------|
A|--------|--------|--------|--------|--------|--------|--------|--------|--------|
E|--------|--------|--------|--------|--------|--------|--------|--------|--------|
B|--------|--------|--------|--------|--------|--------|--------|--------|--------|


E|--------|--------|--------|--------|--------|--------|--------|--------|--------|
B|--------|--------|--------|--------|--------|--------|--------|--------|--------|
G|--------|--------|--------|--------|--------|--------|--------|--------|--------|
D|--------|--------|--------|--------|--------|--------|--------|--------|--------|
A|--------|--------|--------|--------|--------|--------|--------|--------|--------|
E|--------|--------|--------|--------|--------|--------|--------|--------|--------|
B|--------|--------|--------|--------|--------|--------|--------|--------|--------|


E|--------|--------|--------|--------|--------|--------|--------|--------|--------|
B|--------|--------|--------|--------|--------|--------|--------|--------|--------|
G|--------|--------|--------|--------|--------|--------|--------|--------|--------|
D|--------|--------|--------|--------|--------|--------|--------|--------|--------|
A|--------|--------|--------|--------|--------|--------|--------|--------|--------|
E|--------|--------|--------|--------|--------|--------|--------|--------|--------|
B|--------|--------|--------|--------|--------|--------|--------|--------|--------|


E|--------|--------|--------|--------|--------|--------|--------|--------|
B|--------|--------|--------|--------|--------|--------|--------|--------|
G|--------|--------|--------|--------|--------|--------|--------|--------|
D|--------|--------|--------|--------|--------|--------|--------|--------|
A|--------|--------|--------|--------|--------|--------|--------|--------|
E|--------|--------|--------|--------|--------|--------|--------|--------|
B|--------|--------|--------|--------|--------|--------|--------|--------|





Track 9: Gtr.1

E|--------|--------|--------|--------|--------|--------|--------|--------|--------|
B|--------|--------|--------|--------|--------|--------|--------|--------|--------|
G|--------|--------|--------|--------|--------|--------|--------|--------|--------|
D|--------|--------|--------|--------|--------|--------|--------|--------|--------|
A|--------|--------|--------|--------|--------|--------|--------|--------|--------|
E|--------|--------|--------|--------|--------|--------|--------|--------|--------|
B|--------|--------|--------|--------|--------|--------|--------|--------|--------|


E|--------|--------|--------|--------|--------|--------|--------|--------|--------|
B|--------|--------|--------|--------|--------|--------|--------|--------|--------|
G|--------|--------|--------|--------|--------|--------|--------|--------|--------|
D|--------|--------|--------|--------|--------|--------|--------|--------|--------|
A|--------|--------|--------|--------|--------|--------|--------|--------|--------|
E|--------|--------|--------|--------|--------|--------|--------|--------|--------|
B|--------|--------|--------|--------|--------|--------|--------|--------|--------|


E|--------|--------|--------|--------|--------|--------|--------|--------|--------|
B|--------|--------|--------|--------|--------|--------|--------|--------|--------|
G|--------|--------|--------|--------|--------|--------|--------|--------|--------|
D|--------|--------|--------|--------|--------|--------|--------|--------|--------|
A|--------|--------|--------|--------|--------|--------|--------|--------|--------|
E|--------|--------|--------|--------|--------|--------|--------|--------|--------|
B|--------|--------|--------|--------|--------|--------|--------|--------|--------|


E|--------|--------|--------|--------|--------|--------|--------|--------|--------|
B|--------|--------|--------|--------|--------|--------|--------|--------|--------|
G|--------|--------|--------|--------|--------|--------|--------|--------|--------|
D|--------|--------|--------|--------|--------|--------|--------|--------|--------|
A|--------|--------|--------|--------|--------|--------|--------|--------|--------|
E|--------|--------|--------|--------|--------|--------|--------|--------|--------|
B|--------|--------|--------|--------|--------|--------|--------|--------|--------|


E|--------|--------|--------|--------|--------|--------|--------|--------|--------|
B|--------|--------|--------|--------|--------|--------|--------|--------|--------|
G|--------|--------|--------|--------|--------|--------|--------|--------|--------|
D|--------|--------|--------|--------|--------|--------|--------|--------|--------|
A|--------|--------|--------|--------|--------|--------|--------|--------|--------|
E|--------|--------|--------|--------|--------|--------|--------|--------|--------|
B|--------|--------|--------|--------|--------|--------|--------|--------|--------|


E|--------|--------|--------|--------|--------|--------|--------|--------|--------|
B|--------|--------|--------|--------|--------|--------|--------|--------|--------|
G|--------|--------|--------|--------|--------|--------|--------|--------|--------|
D|--------|--------|--------|--------|--------|--------|--------|--------|--------|
A|--------|--------|--------|--------|--------|--------|--------|--------|--------|
E|--------|--------|--------|--------|--------|--------|--------|--------|--------|
B|--------|--------|--------|--------|--------|--------|--------|--------|--------|


E|--------|--------|--------|--------|--------|--------|--------|--------|--------|
B|--------|--------|--------|--------|--------|--------|--------|--------|--------|
G|--------|--------|--------|--------|--------|--------|--------|--------|--------|
D|--------|--------|--------|--------|--------|--------|--------|--------|--------|
A|--------|--------|--------|--------|--------|--------|--------|--------|--------|
E|--------|--------|--------|--------|--------|--------|--------|--------|--------|
B|--------|--------|--------|--------|--------|--------|--------|--------|--------|


E|--------|--------|--------|--------|--------|--------|--------|--------|--------|
B|--------|--------|--------|--------|--------|--------|--------|--------|--------|
G|--------|--------|--------|--------|--------|--------|--------|--------|--------|
D|--------|--------|--------|--------|--------|--------|--------|--------|--------|
A|--------|--------|--------|--------|--------|--------|--------|--------|--------|
E|--------|--------|--------|--------|--------|--------|--------|--------|--------|
B|--------|--------|--------|--------|--------|--------|--------|--------|--------|


E|--------|--------|--------|--------|--------|--------|--------|--------|--------|
B|--------|--------|--------|--------|--------|--------|--------|--------|--------|
G|--------|--------|--------|--------|--------|--------|--------|--------|--------|
D|--------|--------|--------|--------|--------|--------|--------|--------|--------|
A|--------|--------|--------|--------|--------|--------|--------|--------|--------|
E|--------|--------|--------|--------|--------|--------|--------|--------|--------|
B|--------|--------|--------|--------|--------|--------|--------|--------|--------|


E|--------|--------|--------|--------|--------|--------|--------|--------|--------|
B|--------|--------|--------|--------|--------|--------|--------|--------|--------|
G|--------|--------|--------|--------|--------|--------|--------|--------|--------|
D|--------|--------|--------|--------|--------|--------|--------|--------|--------|
A|--------|--------|--------|--------|--------|--------|--------|--------|--------|
E|--------|--------|--------|--------|--------|--------|--------|--------|--------|
B|--------|--------|--------|--------|--------|--------|--------|--------|--------|


E|--------|--------|--------|--------|--------|--------|--------|--------|--------|
B|--------|--------|--------|--------|--------|--------|--------|--------|--------|
G|--------|--------|--------|--------|--------|--------|--------|--------|--------|
D|--------|--------|--------|--------|--------|--------|--------|--------|--------|
A|--------|--------|--------|--------|--------|--------|--------|--------|--------|
E|--------|--------|--------|--------|--------|--------|--------|--------|--------|
B|--------|--------|--------|--------|--------|--------|--------|--------|--------|


E|--------|--------|--------|--------|--------|--------|--------|--------|--------|
B|--------|--------|--------|--------|--------|--------|--------|--------|--------|
G|--------|--------|--------|--------|--------|--------|--------|--------|--------|
D|--------|--------|--------|--------|--------|--------|--------|--------|--------|
A|--------|--------|--------|--------|--------|--------|--------|--------|--------|
E|--------|--------|--------|--------|--------|--------|--------|--------|--------|
B|--------|--------|--------|--------|--------|--------|--------|--------|--------|


E|--------|--------|--------|--------|--------|--------|--------|--------|--------|
B|--------|--------|--------|--------|--------|--------|--------|--------|--------|
G|--------|--------|--------|--------|--------|--------|--------|--------|--------|
D|--------|--------|--------|--------|--------|--------|--------|--------|--------|
A|--------|--------|--------|--------|--------|--------|--------|--------|--------|
E|--------|--------|--------|--------|--------|--------|--------|--------|--------|
B|--------|--------|--------|--------|--------|--------|--------|--------|--------|


E|--------|--------|--------|--------|--------|--------|--------|--------|--------|
B|--------|--------|--------|--------|--------|--------|--------|--------|--------|
G|--------|--------|--------|--------|--------|--------|--------|--------|--------|
D|--------|--------|--------|--------|--------|--------|--------|--------|--------|
A|--------|--------|--------|--------|--------|--------|--------|--------|--------|
E|--------|--------|--------|--------|--------|--------|--------|--------|--------|
B|--------|--------|--------|--------|--------|--------|--------|--------|--------|


E|--------|--------|--------|--------|--------|--------|--------|--------|--------|
B|--------|--------|--------|--------|--------|--------|--------|--------|--------|
G|--------|--------|--------|--------|--------|--------|--------|--------|--------|
D|--------|--------|--------|--------|--------|--------|--------|--------|--------|
A|--------|--------|--------|--------|--------|--------|--------|--------|--------|
E|--------|--------|--------|--------|--------|--------|--------|--------|--------|
B|--------|--------|--------|--------|--------|--------|--------|--------|--------|


E|--------|--------|--------|--------|--------|--------|--------|--------|--------|
B|--------|--------|--------|--------|--------|--------|--------|--------|--------|
G|--------|--------|--------|--------|--------|--------|--------|--------|--------|
D|--------|--------|--------|--------|--------|--------|--------|--------|--------|
A|--------|--------|--------|--------|--------|--------|--------|--------|--------|
E|--------|--------|--------|--------|--------|--------|--------|--------|--------|
B|--------|--------|--------|--------|--------|--------|--------|--------|--------|


E|--------|--------|--------|--------|--------|--------|--------|--------|--------|
B|--------|--------|--------|--------|--------|--------|--------|--------|--------|
G|--------|--------|--------|--------|--------|--------|--------|--------|--------|
D|--------|--------|--------|--------|--------|--------|--------|--------|--------|
A|--------|--------|--------|--------|--------|--------|--------|--------|--------|
E|--------|--------|--------|--------|--------|--------|--------|--------|--------|
B|--------|--------|--------|--------|--------|--------|--------|--------|--------|


E|--------|--------|--------|--------|--------|--------|--------|--------|--------|
B|--------|--------|--------|--------|--------|--------|--------|--------|--------|
G|--------|--------|--------|--------|--------|--------|--------|--------|--------|
D|--------|--------|--------|--------|--------|--------|--------|--------|--------|
A|--------|--------|--------|--------|--------|--------|--------|--------|--------|
E|--------|--------|--------|--------|--------|--------|--------|--------|--------|
B|--------|--------|--------|--------|--------|--------|--------|--------|--------|


E|--------|--------|--------|--------|--------|--------|--------|--------|--------|
B|--------|--------|--------|--------|--------|--------|--------|--------|--------|
G|--------|--------|--------|--------|--------|--------|--------|--------|--------|
D|--------|--------|--------|--------|--------|--------|--------|--------|--------|
A|--------|--------|--------|--------|--------|--------|--------|--------|--------|
E|--------|--------|--------|--------|--------|--------|--------|--------|--------|
B|--------|--------|--------|--------|--------|--------|--------|--------|--------|


E|--------|--------|--------|--------|--------|--------|--------|--------|--------|
B|--------|--------|--------|--------|--------|--------|--------|--------|--------|
G|--------|--------|--------|--------|--------|--------|--------|--------|--------|
D|--------|--------|--------|--------|--------|--------|--------|--------|--------|
A|--------|--------|--------|--------|--------|--------|--------|--------|--------|
E|--------|--------|--------|--------|--------|--------|--------|--------|--------|
B|--------|--------|--------|--------|--------|--------|--------|--------|--------|


E|--------|--------|--------|--------|--------|--------|--------|--------|--------|
B|--------|--------|--------|--------|--------|--------|--------|--------|--------|
G|--------|--------|--------|--------|--------|--------|--------|--------|--------|
D|--------|--------|--------|--------|--------|--------|--------|--------|--------|
A|--------|--------|--------|--------|--------|--------|--------|--------|--------|
E|--------|--------|--------|--------|--------|--------|--------|--------|--------|
B|--------|--------|--------|--------|--------|--------|--------|--------|--------|


E|--------|--------|--------|--------|--------|--------|--------|--------|--------|
B|--------|--------|--------|--------|--------|--------|--------|--------|--------|
G|--------|--------|--------|--------|--------|--------|--------|--------|--------|
D|--------|--------|--------|--------|--------|--------|--------|--------|--------|
A|--------|--------|--------|--------|--------|--------|--------|--------|--------|
E|--------|--------|--------|--------|--------|--------|--------|--------|--------|
B|--------|--------|--------|--------|--------|--------|--------|--------|--------|


E|--------|--------|--------|--------|--------|--------|--------|--------|--------|
B|--------|--------|--------|--------|--------|--------|--------|--------|--------|
G|--------|--------|--------|--------|--------|--------|--------|--------|--------|
D|--------|--------|--------|--------|--------|--------|--------|--------|--------|
A|--------|--------|--------|--------|--------|--------|--------|--------|--------|
E|--------|--------|--------|--------|--------|--------|--------|--------|--------|
B|--------|--------|--------|--------|--------|--------|--------|--------|--------|


E|--------|--------|--------|--------|--------|--------|--------|--------|--------|
B|--------|--------|--------|--------|--------|--------|--------|--------|--------|
G|--------|--------|--------|--------|--------|--------|--------|--------|--------|
D|--------|--------|--------|--------|--------|--------|--------|--------|--------|
A|--------|--------|--------|--------|--------|--------|--------|--------|--------|
E|--------|--------|--------|--------|--------|--------|--------|--------|--------|
B|--------|--------|--------|--------|--------|--------|--------|--------|--------|


E|--------|--------|--------|--------|--------|--------|--------|--------|--------|
B|--------|--------|--------|--------|--------|--------|--------|--------|--------|
G|--------|--------|--------|--------|--------|--------|--------|--------|--------|
D|--------|--------|--------|--------|--------|--------|--------|--------|--------|
A|--------|--------|--------|--------|--------|--------|--------|--------|--------|
E|--------|--------|--------|--------|--------|--------|--------|--------|--------|
B|--------|--------|--------|--------|--------|--------|--------|--------|--------|


E|--------|--------|--------|--------|--------|--------|--------|--------|--------|
B|--------|--------|--------|--------|--------|--------|--------|--------|--------|
G|--------|--------|--------|--------|--------|--------|--------|--------|--------|
D|--------|--------|--------|--------|--------|--------|--------|--------|--------|
A|--------|--------|--------|--------|--------|--------|--------|--------|--------|
E|--------|--------|--------|--------|--------|--------|--------|--------|--------|
B|--------|--------|--------|--------|--------|--------|--------|--------|--------|


E|--------|--------|--------|--------|--------|--------|--------|--------|--------|
B|--------|--------|--------|--------|--------|--------|--------|--------|--------|
G|--------|--------|--------|--------|--------|--------|--------|--------|--------|
D|--------|--------|--------|--------|--------|--------|--------|--------|--------|
A|--------|--------|--------|--------|--------|--------|--------|--------|--------|
E|--------|--------|--------|--------|--------|--------|--------|--------|--------|
B|--------|--------|--------|--------|--------|--------|--------|--------|--------|


E|--------|--------|--------|--------|--------|--------|--------|--------|--------|
B|--------|--------|--------|--------|--------|--------|--------|--------|--------|
G|--------|--------|--------|--------|--------|--------|--------|--------|--------|
D|--------|--------|--------|--------|--------|--------|--------|--------|--------|
A|--------|--------|--------|--------|--------|--------|--------|--------|--------|
E|--------|--------|--------|--------|--------|--------|--------|--------|--------|
B|--------|--------|--------|--------|--------|--------|--------|--------|--------|


E|--------|--------|--------|--------|----------------|--------|--------|--------|
B|--------|--------|--------|--------|----------------|--------|--------|--------|
G|--------|--------|--------|--------|----------------|--------|--------|--------|
D|--------|--------|--------|--------|----------------|--------|--------|--------|
A|--------|--------|--------|--------|----------------|--------|--------|--------|
E|--------|--------|--------|--------|----------------|--------|--------|--------|
B|--------|--------|--------|--------|----------------|--------|--------|--------|


E|--------|--------|--------|--------|--------|--------|--------|--------|--------|
B|--------|--------|--------|--------|--------|--------|--------|--------|--------|
G|--------|--------|--------|--------|--------|--------|--------|--------|--------|
D|--------|--------|--------|--------|--------|--------|--------|--------|--------|
A|--------|--------|--------|--------|--------|--------|--------|--------|--------|
E|--------|--------|--------|--------|--------|--------|--------|--------|--------|
B|--------|--------|--------|--------|--------|--------|--------|--------|--------|


E|--------|--------|--------|--------|--------|--------|--------|--------|--------|
B|--------|--------|--------|--------|--------|--------|--------|--------|--------|
G|--------|--------|--------|--------|--------|--------|--------|--------|--------|
D|--------|--------|--------|--------|--------|--------|--------|--------|--------|
A|--------|--------|--------|--------|--------|--------|--------|--------|--------|
E|--------|--------|--------|--------|--------|--------|--------|--------|--------|
B|--------|--------|--------|--------|--------|--------|--------|--------|--------|





Track 10: Gtr.1 (Chapman stick arr. for Bass Gtr.)

C|--------|--------|--------|--------|--------|--------|--------|--------|--------|
G|--------|--------|--------|--------|--------|--------|--------|--------|--------|
D|--------|--------|--------|--------|--------|--------|--------|--------|--------|
A|--------|--------|--------|--------|--------|--------|--------|--------|--------|
E|--------|--------|--------|--------|--------|--------|--------|--------|--------|
B|--------|--------|--------|--------|--------|--------|--------|--------|--------|


C|--------|--------|--------|--------|--------|--------|--------|---------------------------------|
G|--------|--------|--------|--------|--------|--------|--------|---------------------------------|
D|--------|--------|--------|--------|--------|--------|--------|-11----------11----------11------|
A|--------|--------|--------|--------|--------|--------|--------|---------------------------------|
E|--------|--------|--------|--------|--------|--------|--------|-----7---9-------7---9-------7---|
B|--------|--------|--------|--------|--------|--------|--------|---------------------------------|


C|---------------------------------|---------------------------------|---------------------------------|
G|---------------------------------|---------------------------------|---------------------------------|
D|-----11----------11------11------|-11----------11----------11------|-11------11------11------11------|
A|---------------------------------|---------------------------------|---------------------------------|
E|-9-------7---9-------9-------9---|-----7---9-------7---9-------9---|-----9-------7-------7-------7---|
B|---------------------------------|---------------------------------|---------------------------------|


C|---------------------------------|---------------------------------|---------------------------------|
G|---------------------------------|---------------------------------|---------------------------------|
D|-----11----------11----------11--|---------11------11------11------|-----11----------11------11------|
A|---------------------------------|---------------------------------|---------------------------------|
E|-9-------7---9-------7---9-------|-7---9-------9-------9-------7---|-9-------7---9-------9-------9---|
B|---------------------------------|---------------------------------|---------------------------------|


C|---------------------------------|---------------------------------|---------------------------------|
G|---------------------------------|---------------------------------|---------------------------------|
D|-11------11------11----------11--|---------11----------11----------|-11------11------11----------11--|
A|---------------------------------|---------------------------------|---------------------------------|
E|-----7-------7-------7---9-------|-7---9-------7---9-------7---9---|-----9-------9-------7---9-------|
B|---------------------------------|---------------------------------|---------------------------------|


C|---------------------------------|---------------------------------|---------------------------------|
G|---------------------------------|---------------------------------|---------------------------------|
D|---------11------11------11------|-11------11----------11----------|-11----------11----------11------|
A|---------------------------------|---------------------------------|---------------------------------|
E|-7---9-------9-------9-------7---|-----7-------7---9-------7---9---|-----7---9-------7---9-------9---|
B|---------------------------------|---------------------------------|---------------------------------|


C|---------------------------------|---------------------------------|---------------------------------|
G|---------------------------------|---------------------------------|---------------------------------|
D|-11------11----------11----------|-11------11------11------11------|-11----------11----------11------|
A|---------------------------------|---------------------------------|---------------------------------|
E|-----9-------7---9-------7---9---|-----9-------9-------7-------7---|-----7---9-------7---9-------7---|
B|---------------------------------|---------------------------------|---------------------------------|


C|---------------------------------|---------------------------------|---------------------------------|
G|---------------------------------|---------------------------------|---------------------------------|
D|-----11----------11------11------|-14----------14----------14------|-----14----------14------11------|
A|---------------------------------|---------------------------------|---------------------------------|
E|-9-------7---9-------9-------9---|---------------------------------|-----------------------------7---|
B|---------------------------------|-----2---5-------2---5-------2---|-5-------2---5-------2-----------|


C|---------------------------------|---------------------------------|---------------------------------|
G|---------------------------------|---------------------------------|---------------------------------|
D|-----11----------11----------11--|---------11------11------14------|-----14----------14----------14--|
A|---------------------------------|---------------------------------|---------------------------------|
E|-9-------7---9-------7---9-------|-7---9-------9-------9-----------|---------------------------------|
B|---------------------------------|-----------------------------2---|-5-------2---5-------2---5-------|


C|---------------------------------|---------------------------------|---------------------------------|
G|---------------------------------|---------------------------------|---------------------------------|
D|---------14------11----------11--|---------11----------11----------|-11------14----------14----------|
A|---------------------------------|---------------------------------|---------------------------------|
E|---------------------7---9-------|-7---9-------7---9-------7---9---|-----7---------------------------|
B|-2---5-------2-------------------|---------------------------------|-------------2---5-------2---5---|


C|---------------------------------|---------------------------------|------------------------------|
G|---------------------------------|---------------------------------|------------------------------|
D|-14----------14----------14------|-11----------11----------11------|-----11----------11-----------|
A|---------------------------------|---------------------------------|------------------------------|
E|---------------------------------|-----7---9-------7---9-------7---|-9-------7---9-------7---0----|
B|-----2---5-------2---5-------2---|---------------------------------|------------------------------|


C|--------------------|---------------------------------|---------------------------------|
G|--------------------|---------------------------------|---------------------------------|
D|--------------------|---------------------------------|---------------------------------|
A|---------------2----|-----2---2---2---2---2---4---4---|-4---4---4---2---2---2---2---9---|
E|-----0---0----------|---------------------------------|---------------------------------|
B|--------------------|---------------------------------|---------------------------------|


C|---------------------------------|---------------------------------|---------------------------------|
G|---------------------------------|---------------------------------|---------------------------------|
D|---------------------------------|---------------------------------|---------------------------------|
A|-9---9---9---7---7---7---4---4---|-4---4---4---2---2---2---2---9---|-9---9---9---7---7---7---4---4---|
E|---------------------------------|---------------------------------|---------------------------------|
B|---------------------------------|---------------------------------|---------------------------------|


C|---------------------------------|---------------------------------|---------------------------------|
G|---------------------------------|---------------------------------|---------------------------------|
D|---------------------------------|---------------------------------|---------------------------------|
A|-4---4---4---2---2---2---2---9---|-9---9---9---7---7---7---4---4---|-4---4---4---2---2---2---2---9---|
E|---------------------------------|---------------------------------|---------------------------------|
B|---------------------------------|---------------------------------|---------------------------------|


C|---------------------------------|---------------------------------|---------------------------------|
G|---------------------------------|---------------------------------|---------------------------------|
D|---------------------------------|---------------------------------|---------------------------------|
A|-9---9---9---7---7---7---4---4---|-4---4---4---2---2---2---2---9---|-9---9---9---7---7---7---4---4---|
E|---------------------------------|---------------------------------|---------------------------------|
B|---------------------------------|---------------------------------|---------------------------------|


C|---------------------------------|---------------------------------|---------------------------------|
G|---------------------------------|---------------------------------|---------------------------------|
D|---------------------------------|---------------------------------|---------------------------------|
A|-4---4---4---2---2---2---2---9---|-9---9---9---7---7---7---4---4---|-4---4---4---2---2---2---2---9---|
E|---------------------------------|---------------------------------|---------------------------------|
B|---------------------------------|---------------------------------|---------------------------------|


C|---------------------------------|---------------------------------|------------------------------|
G|---------------------------------|---------------------------------|------------------------------|
D|---------------------------------|---------------------------------|------------------------------|
A|-9---9---9---7---7---7---4---4---|-4---4---4---2---2---2---2---9---|-9---9---9---7---7---7--------|
E|---------------------------------|---------------------------------|------------------------------|
B|---------------------------------|---------------------------------|-------------------------2----|


C|-----------------|-------------|-----------------|-------------|-----------------|
G|-----------------|-------------|-----------------|-------------|-----------------|
D|-----------------|-------------|-----------------|-------------|-----------------|
A|-----------------|-------------|-----------------|-------------|-----------------|
E|-----------------|-------------|-----------------|-------------|-----------------|
B|-2---------------|--------2----|-2---------------|--------2----|-2---------------|


C|-------------|-----------------|-------------|-----------------|-------------|-----------------|
G|-------------|-----------------|-------------|-----------------|-------------|-----------------|
D|-------------|-----------------|-------------|-----------------|-------------|-----------------|
A|-------------|-----------------|-------------|-----------------|-------------|-----------------|
E|-------------|-----------------|-------------|-----------------|-------------|-----------------|
B|--------2----|-2---------------|--------2----|-2---------------|--------2----|-2---------------|


C|-------------|-----------------|-------------|------------------------|----------------|
G|-------------|-----------------|-------------|------------------------|----------------|
D|-------------|-----------------|-------------|------------------------|----------------|
A|-------------|-----------------|-------------|------------------------|----------------|
E|-------------|-----------------|-------------|------------------------|----------------|
B|--------2----|-2---------------|--------2----|-----2---2--------------|--------2---2---|


C|-----------------|-------------|-----------------|-------------|------------------------|
G|-----------------|-------------|-----------------|-------------|------------------------|
D|-----------------|-------------|-----------------|-------------|------------------------|
A|-----------------|-------------|-----------------|-------------|------------------------|
E|-----------------|-------------|-----------------|-------------|------------------------|
B|-----------------|--------2----|-2---------------|--------2----|-----2---2--------------|


C|----------------|-----------------|----------------|---------------------------------|
G|----------------|-----------------|----------------|---------------------------------|
D|----------------|-----------------|------------11--|-13----------11--13--------------|
A|----------------|-----------------|----------------|---------------------------------|
E|----------------|-----------------|----------------|---------------------------------|
B|--------2---2---|-----------------|--------4-------|-----4---4-----------4-------4---|


C|---------------------------------|---------------------------------|---------------------------------|
G|---------------------------------|---------------------------------|---------------------------------|
D|-----------------------------11--|-13----------11--13--------------|-----------------------------11--|
A|-4---6---------------------------|---------------------------------|-4---6---------------------------|
E|-----------------2---4-----------|---------------------------------|-----------------2---4-----------|
B|---------4---4-----------4-------|-----4---4-----------4-------4---|---------4---4-----------4-------|


C|---------------------------------|---------------------------------|---------------------------------|
G|---------------------------------|---------------------------------|---------------------------------|
D|-13----------11--13--------------|-----------------------------13--|-14----------13--14----------13--|
A|---------------------------------|-4---6---------------------------|---------------------------------|
E|---------------------------------|-----------------2---4---0-------|-----0---0-----------0---0-------|
B|-----4---4-----------4-------4---|---------4---4-------------------|---------------------------------|


C|---------------------------------|---------------------------------|----------------------------------|
G|---------------------------------|---------------------------------|----------------------------------|
D|-14----------13--14----------14--|-16------14--16------14--16------|-14--16-------------2-------------|
A|---------------------------------|---------------------------------|---------4--2--4--------4--2------|
E|-----0---0-----------0---2-------|-----2-----------2-----------2---|------------------------------4---|
B|---------------------------------|---------------------------------|----------------------------------|


C|-----------------------------------|-----------------------------------|----------------------------------|
G|-----------------------------------|-----------------------------------|----------------------------------|
D|-----------------------------------|-----2-----------------------------|--------------------2-------------|
A|-4-----------------------4--2--4---|---------4--2------4---------------|---------4--2--4--------4--2------|
E|-----0---2---3---2---0-------------|---------------4-------0---2---3---|-2---0------------------------4---|
B|-----------------------------------|-----------------------------------|----------------------------------|


C|-----------------------------------|-----------------------------------|----------------------------------|
G|-----------------------------------|-----------------------------------|----------------------------------|
D|-----------------------------------|-----2-----------------------------|--------------------2-------------|
A|-4-----------------------4--2--4---|---------4--2------4---------------|---------4--2--4--------4--2------|
E|-----0---2---3---2---0-------------|---------------4-------0---2---3---|-2---0------------------------4---|
B|-----------------------------------|-----------------------------------|----------------------------------|


C|-----------------------------------|-----------------------------------|----------------------------------|
G|-----------------------------------|-----------------------------------|----------------------------------|
D|-----------------------------------|-----2-----------------------------|--------------------2-------------|
A|-4-----------------------4--2--4---|---------4--2------4---------------|---------4--2--4--------4--2------|
E|-----0---2---3---2---0-------------|---------------4-------0---2---3---|-2---0------------------------4---|
B|-----------------------------------|-----------------------------------|----------------------------------|


C|-----------------------------------|-----------------------------------|---------------------------------|
G|-----------------------------------|-----------------------------------|---------------------------------|
D|-----------------------------------|-----2-----------------------------|---------------------------------|
A|-4-----------------------4--2--4---|---------4--2------4---------------|---------4---4---4---4---4---2---|
E|-----0---2---3---2---0-------------|---------------4-------0---2---3---|-2---0---------------------------|
B|-----------------------------------|-----------------------------------|---------------------------------|


C|---------------------------------|---------------------------------|---------------------------------|
G|---------------------------------|---------------------------------|---------------------------------|
D|---------------------------------|---------------------------------|---------------------------------|
A|-2---2---2---9---9---9---9---7---|-7---7---4---4---4---4---4---2---|-2---2---2---9---9---9---9---7---|
E|---------------------------------|---------------------------------|---------------------------------|
B|---------------------------------|---------------------------------|---------------------------------|


C|---------------------------------|---------------------------------|---------------------------------|
G|---------------------------------|---------------------------------|---------------------------------|
D|---------------------------------|---------------------------------|---------------------------------|
A|-7---7---4---4---4---4---4---2---|-2---2---2---9---9---9---9---7---|-7---7---4---4---4---4---4---2---|
E|---------------------------------|---------------------------------|---------------------------------|
B|---------------------------------|---------------------------------|---------------------------------|


C|---------------------------------|---------------------------------|---------------------------------|
G|---------------------------------|---------------------------------|---------------------------------|
D|---------------------------------|---------11----------11----------|-11----------11----------11------|
A|-2---2---2---9---9---9---9---7---|-7---7---------------------------|---------------------------------|
E|---------------------------------|-------------7---9-------7---9---|-----7---9-------7---9-------9---|
B|---------------------------------|---------------------------------|---------------------------------|


C|---------------------------------|---------------------------------|------------------------------|
G|---------------------------------|---------------------------------|------------------------------|
D|-11------11----------11----------|-11----------11----------11------|------------------------------|
A|---------------------------------|---------------------------------|------------------4---4-------|
E|-----9-------7---9-------7---9---|-----7---9-------7---9-----------|------------------------------|
B|---------------------------------|---------------------------------|------2---0---2-----------2---|


C|---------------------------------|---------------------------------|---------------------------------|
G|---------------------------------|---------------------------------|---------------------------------|
D|---------------------------------|---------------------------------|---------------------------------|
A|-2-------------------------------|---------------------4---4-------|-2-------------------------------|
E|---------------------------------|---------------------------------|---------------------------------|
B|-----2---2---2---2---0---2---0---|-2---5---2---0---2-----------2---|-----2---2---2---2---0---2---0---|


C|------------------------------|---------------------------------|---------------------------------|
G|------------------------------|---------------------------------|---------------------------------|
D|------------------------------|---------------------------------|---------------------------------|
A|------------------4---4-------|-2-------------------------------|---------------------4---4-------|
E|------------------------------|---------------------------------|---------------------------------|
B|-5----2---0---2-----------2---|-----2---2---2---2---0---2---0---|-2---5---2---0---2-----------2---|


C|---------------------------------|------------------------------|---------------------------------|
G|---------------------------------|------------------------------|---------------------------------|
D|---------------------------------|------------------------------|---------------------------------|
A|-2-------------------------------|------------------4---4-------|-2-------------------------------|
E|---------------------------------|------------------------------|---------------------------------|
B|-----2---2---2---2---0---2---0---|-5----2---0---2-----------2---|-----2---2---2---2---0---2---0---|


C|---------------------------------|---------------------------------|------------------------------|
G|---------------------------------|---------------------------------|------------------------------|
D|---------------------------------|---------------------------------|------------------------------|
A|---------------------4---4-------|-2-------------------------------|------------------4---4-------|
E|---------------------------------|---------------------------------|------------------------------|
B|-2---5---2---0---2-----------2---|-----2---2---2---2---0---2---0---|-5----2---0---2-----------2---|


C|---------------------------------|---------------------------------|---------------------------------|
G|---------------------------------|---------------------------------|---------------------------------|
D|---------------------------------|---------------------------------|---------------------------------|
A|-2-------------------------------|---------------------4---4-------|-2-------------------------------|
E|---------------------------------|---------------------------------|---------------------------------|
B|-----2---2---2---2---0---2---0---|-2---5---2---0---2-----------2---|-----2---2---2---2---0---2---0---|


C|------------------------------|-----------------------------------|-----------------------------------|
G|------------------------------|-----------------------------------|-----------------------------------|
D|------------------------------|-----------------------------------|-----------------------------------|
A|------------------------------|-----------------------------------|-----------------------------------|
E|------------------------------|-2---------------------------------|-0---0-----------------------------|
B|-5----4---2---4---4---2---4---|-----4---4---4---4--4--2---4---2---|---------4--4--2---4---4---2---4---|


C|-----------------------------------|---------------------------------|-----------------------------------|
G|-----------------------------------|---------------------------------|-----------------------------------|
D|-----------------------------------|---------------------------------|-----------------------------------|
A|-----------------------------------|---------------------------------|-----------------------------------|
E|-2---------------------------------|-0---0---------------------------|-2-----------------------------6---|
B|-----4---4---4---4--4--2---4---2---|---------4---2---4---4---2---4---|-----4---4---4---4--4--2---4-------|


C|---------------------------------|---------------------------------|---------------------------------|
G|---------------------------------|---------------------------------|---------------------------------|
D|-------------13--14----------13--|-14----------13--14----------13--|-14----------14--16------14--16--|
A|-4---6---------------------------|---------------------------------|---------------------------------|
E|---------0-----------0---0-------|-----0---0-----------0---0-------|-----0---2-----------2-----------|
B|---------------------------------|---------------------------------|---------------------------------|


C|---------------------------------|---------------------------------|---------------------------------|
G|---------------------------------|---------------------------------|---------------------------------|
D|-----14--16------14--16----------|---------------------------------|---------------------------------|
A|---------------------------------|-------------4-------------------|---------------------------------|
E|-2-----------2-------------------|-----0---2-------0---0---2---3---|-2---0---------------0---2---4---|
B|-------------------------2---2---|-2-------------------------------|---------2---2---2---------------|


C|---------------------------------|---------------------------------|---------------------------------|
G|---------------------------------|---------------------------------|---------------------------------|
D|---------------------------------|---------------------------------|---------------------------------|
A|-----------------2---4-----------|-------------4-------------------|---------------------------------|
E|-0---2---3---4-------------------|-----0---2-------0---0---2---3---|-2---0---------------0---2---4---|
B|-------------------------2---2---|-2-------------------------------|---------2---2---2---------------|


C|---------------------------------|---------------------------------|---------------------------------|
G|---------------------------------|---------------------------------|---------------------------------|
D|---------------------------------|---------------------------------|---------------------------------|
A|-4-------2-----------------------|-------------4-------------------|---------------------------------|
E|-----4-------2---3---0-----------|-----0---2-----------0---2---3---|-2---0---------------0---2---4---|
B|-------------------------2---2---|-2---------------2---------------|---------2---2---2---------------|


C|---------------------------------|---------------------------------|---------------------------------|
G|---------------------------------|---------------------------------|---------------------------------|
D|---------------------------------|---------------------------------|---------------------------------|
A|---------------------------------|-------------4-------------------|---------------------------------|
E|-2---0---2---3---2---0-----------|-----0---2-----------0---2---3---|-2---0---------------0---2-------|
B|-------------------------2---2---|-2---------------2---------------|---------2---2---2-----------2---|


C|---------------------------------|---------------------------------|---------------------------------|
G|---------------------------------|---------------------------------|---------------------------------|
D|---------------------------------|---------------------------------|---------------------------------|
A|-------------------------4---4---|-4---4---4---2---2---2---2---9---|-9---9---9---7---7---7---4---4---|
E|-----0---2---3---2---0-----------|---------------------------------|---------------------------------|
B|-2-------------------------------|---------------------------------|---------------------------------|


C|---------------------------------|---------------------------------|---------------------------------|
G|---------------------------------|---------------------------------|---------------------------------|
D|---------------------------------|---------------------------------|---------------------------------|
A|-4---4---4---2---2---2---2---9---|-9---9---9---7---7---7---4---4---|-4---4---4---2---2---2---2---9---|
E|---------------------------------|---------------------------------|---------------------------------|
B|---------------------------------|---------------------------------|---------------------------------|


C|---------------------------------|---------------------------------|------------------------------|
G|---------------------------------|---------------------------------|------------------------------|
D|---------------------------------|---------------------------------|------------------------------|
A|-9---9---9---7---7---7---4---4---|-4---4---4---2---2---2---2---9---|-9---9---9---7---7---7--------|
E|---------------------------------|---------------------------------|------------------------------|
B|---------------------------------|---------------------------------|-------------------------2----|


C|-----------------|------------------------|-----------------|---------------------|
G|-----------------|------------------------|-----------------|---------------------|
D|-----------------|------------------------|-----------------|---------------------|
A|-----------------|------------------------|-----------------|---------------------|
E|-----------------|------------------------|-----------------|---------------------|
B|-------2---------|------2-------2----2----|-------2---------|------2----2---------|


C|-----------------|------------------------|-----------------|-----------------|--------------------|
G|-----------------|------------------------|-----------------|-----------------|--------------------|
D|-----------------|------------------------|-----------------|-----------------|--------------------|
A|-----------------|------------------------|-----------------|-----------------|--------------------|
E|-----------------|------------------------|-----------------|-----------------|--------------------|
B|------2----------|-2-------2----2---------|------2----------|-2----2----------|-2----------2-------|


C|-----------------|-----------------|---------------------------------|---------------------------------|
G|-----------------|-----------------|---------------------------------|---------------------------------|
D|-----------------|-----------------|-11----------9-----------11------|-----9-----------11------9-------|
A|-----------------|-----------------|---------11------9---11----------|-11------9---11------11------9---|
E|-----------------|-----------------|-----9-----------------------9---|---------------------------------|
B|-2----2----------|-2----------2----|---------------------------------|---------------------------------|


C|---------------------------------|---------------------------------|---------------------------------|
G|---------------------------------|---------------------------------|---------------------------------|
D|-11----------9-----------11------|-----9-----------9-------11------|-----9-----------11----------9---|
A|---------11------9---11----------|-11------9---11------9-----------|-11------9---11----------11------|
E|-----9-----------------------9---|-----------------------------9---|---------------------9-----------|
B|---------------------------------|---------------------------------|---------------------------------|


C|---------------------------------|---------------------------------|---------------------------------|
G|---------------------------------|---------------------------------|---------------------------------|
D|---------11------9-------11------|-----9-----------11----------9---|---------9-------11----------9---|
A|-9---11------11------9-----------|-11------9---11----------11------|-9---11------9-----------11------|
E|-----------------------------9---|---------------------9-----------|---------------------9-----------|
B|---------------------------------|---------------------------------|---------------------------------|


C|---------------------------------|---------------------------------|---------------------------------|
G|---------------------------------|---------------------------------|---------------------------------|
D|---------11----------9-----------|-11------9-------11----------9---|---------11--------------11------|
A|-9---11----------11------9---11--|-----11------9-----------11------|-9---11----------9---11----------|
E|-------------9-------------------|---------------------9-----------|-------------9---------------9---|
B|---------------------------------|---------------------------------|---------------------------------|


C|---------------------------------|---------------------------------|---------------------------------|
G|---------------------------------|---------------------------------|---------------------------------|
D|-9-------11----------9-----------|-11----------9-----------11------|-9-------11----------9-----------|
A|-----9-----------11------9---11--|---------11------9---11------11--|-----9-----------11------9---11--|
E|-------------9-------------------|-----9---------------------------|-------------9-------------------|
B|---------------------------------|---------------------------------|---------------------------------|


C|---------------------------------|---------------------------------|---------------------------------|
G|---------------------------------|---------------------------------|---------------------------------|
D|-11----------9-----------9-------|-11----------11----------11------|-----11----------11------11------|
A|---------11------9---11------9---|---------------------------------|---------------------------------|
E|-----9---------------------------|-----7---9-------7---9-------7---|-9-------7---9-------9-------9---|
B|---------------------------------|---------------------------------|---------------------------------|


C|---------------------------------|------------------------------|---------------------------------|
G|---------------------------------|------------------------------|---------------------------------|
D|-11----------11--------------11--|-----11---------------11------|-----11----------11----------11--|
A|---------------------------------|------------------------------|---------------------------------|
E|-----7---9-------7---9---9-------|-9-------9----------------7---|-9-------7---9-------7---9-------|
B|---------------------------------|------------------------------|---------------------------------|


C|---------------------------------|---------------------------------|------------------------------|
G|---------------------------------|---------------------------------|------------------------------|
D|---------11------11------11------|-----11--------------11------11--|--------------11----------11--|
A|---------------------------------|---------------------------------|------------------------------|
E|-7---9-------9-------9-------7---|-9-------7---9---9-------9-------|-9----------------7---9-------|
B|---------------------------------|---------------------------------|------------------------------|


C|---------------------------------|---------------------------------|---------------------------------|
G|---------------------------------|---------------------------------|---------------------------------|
D|---------11----------11----------|-11------11------11----------11--|-------------11------11----------|
A|---------------------------------|---------------------------------|---------------------------------|
E|-7---9-------7---9-------7---9---|-----9-------9-------7---9-------|-7---9---9-------9-------9-------|
B|---------------------------------|---------------------------------|---------------------------------|


C|------------------------------|---------------------------------|---------------------------------|
G|------------------------------|---------------------------------|---------------------------------|
D|------11----------11----------|-11----------11----------11------|-11------11----------11----------|
A|------------------------------|---------------------------------|---------------------------------|
E|----------7---9-------7---9---|-----7---9-------7---9-------9---|-----9-------7---9-------7---9---|
B|------------------------------|---------------------------------|---------------------------------|


C|------------------------------|---------------------------------|---------------------------------|
G|------------------------------|---------------------------------|---------------------------------|
D|-----11------11---------------|-11----------11----------11------|-----11----------11------11------|
A|------------------------------|---------------------------------|---------------------------------|
E|-9-------9-------9------------|-----7---9-------7---9-------7---|-9-------7---9-------9-------9---|
B|------------------------------|---------------------------------|---------------------------------|


C|---------------------------------|------------------------------|---------------------------------|
G|---------------------------------|------------------------------|---------------------------------|
D|-11----------11--------------11--|-----11---------------11------|-----11----------11----------11--|
A|---------------------------------|------------------------------|---------------------------------|
E|-----7---9-------7---9---9-------|-9-------9----------------7---|-9-------7---9-------7---9-------|
B|---------------------------------|------------------------------|---------------------------------|


C|---------------------------------|---------------------------------|---------------------------|
G|---------------------------------|---------------------------------|---------------------------|
D|---------11------11------11------|-----11--------------11------11--|---------------------------|
A|---------------------------------|---------------------------------|---------------------------|
E|-7---9-------9-------9-------7---|-9-------7---9---9-------9-------|-9------------0--------0---|
B|---------------------------------|---------------------------------|---------------------------|


C|------------------------|------------------------|---------------------|------------------------------|
G|------------------------|------------------------|---------------------|------------------------------|
D|------------------------|------------------------|---------------------|------11----------11----------|
A|------------------------|-----------2--------2---|-2---------2----2----|-2----------------------------|
E|-0---------0--------0---|-0----------------------|---------------------|----------7---9-------7---9---|
B|------------------------|------------------------|---------------------|------------------------------|


C|---------------------------------|---------------------------------|------------------------------|
G|---------------------------------|---------------------------------|------------------------------|
D|-11----------11----------11------|-11------11----------11----------|-----11------11---------------|
A|---------------------------------|---------------------------------|------------------------------|
E|-----7---9-------7---9-------9---|-----9-------7---9-------7---9---|-9-------9-------9------------|
B|---------------------------------|---------------------------------|------------------------------|


C|---------------------------------|---------------------------------|---------------------------------|
G|---------------------------------|---------------------------------|---------------------------------|
D|-11----------11----------11------|-----11----------11------11------|-11----------11--------------11--|
A|---------------------------------|---------------------------------|---------------------------------|
E|-----7---9-------7---9-------7---|-9-------7---9-------9-------9---|-----7---9-------7---9---9-------|
B|---------------------------------|---------------------------------|---------------------------------|


C|---------------------------|------------------------|---------------------|------------------------------|
G|---------------------------|------------------------|---------------------|------------------------------|
D|-----11--------------------|------------------------|---------------------|------------------------------|
A|---------------------------|------------------------|---------------------|------------------------------|
E|-9-------9------------2----|-2--------2----2--------|-2----2---------2----|-2--------2---2-------2---2---|
B|---------------------------|------------------------|---------------------|------------------------------|


C|---------------------------|---------------------------|---------------------|------------------------|
G|---------------------------|---------------------------|---------------------|------------------------|
D|---------------------------|---------------------------|---------------------|------------------------|
A|---------------------------|---------------------------|---------------------|------------------------|
E|-----2---2-------0----0----|-----0----0-------0--------|-0----0----0----0----|-0----0--------0---0----|
B|---------------------------|---------------------------|---------------------|------------------------|


C|---------------------|---------------------------|---------------------|------------------------------|
G|---------------------|---------------------------|---------------------|------------------------------|
D|---------------------|---------------------------|---------------------|------------------------------|
A|---------------------|---------------------------|---------------------|------------------------------|
E|-0----0----0----2----|-2----2---2---2----2-------|-2----2----2----2----|-2--------2---2-------2---2---|
B|---------------------|---------------------------|---------------------|------------------------------|


C|---------------------------|---------------------------|---------------------|---------------------------|
G|---------------------------|---------------------------|---------------------|---------------------------|
D|---------------------------|---------------------------|---------------------|---------------------------|
A|---------------------------|---------------------------|---------------------|---------------------------|
E|-----2---2-------0----0----|-----0----0-------0--------|-0----0----0----0----|-0----0--------0---0-------|
B|---------------------------|---------------------------|---------------------|---------------------------|


C|------------------------------------|----------------------------------------|---------------------------------|
G|-----------------------------7---4--|----------------------------------------|---------------------------------|
D|-----------------9---7---6----------|----7---6---4---------------------------|---------------------------------|
A|-------------7----------------------|----------------5-----------------------|---------------------------------|
E|-0---0------------------------------|----------------------------------------|---------------------------------|
B|------------------------------------|--------------------2---2---2---2---2---|-2---2---2---2---2---2---2---2---|


C|---------------------------------|---------------------------------|---------------------------------|
G|---------------------------------|---------------------------------|---------------------------------|
D|---------------------------------|---------------------------------|---------------------------------|
A|---------------------------------|---------------------------------|---------------------------------|
E|---------------------------------|---------------------------------|-------------------------0---2---|
B|-2---2---2---2---2---2---2---2---|-2---2---2---2---2---2---2---2---|-2---2---2---2---2---2-----------|


C|---------------------------------|---------------------------------|---------------------------------|
G|---------------------------------|---------------------------------|---------------------------------|
D|---------------------------------|---------------------------------|---------------------------------|
A|---------------------------------|---------------------------------|---------------------------------|
E|---------0---2---3---2---0-------|---------0---2-----------0---2---|-3---2---0---------------0---2---|
B|-2---2-----------------------2---|-2---2-----------2---2-----------|-------------2---2---2-----------|


C|---------------------------------|---------------------------------|---------------------------------|
G|---------------------------------|---------------------------------|---------------------------------|
D|---------------------------------|---------------------------------|---------------------------------|
A|---------------------------------|---------------------------------|---------------------------------|
E|---------0---2---3---2---0-------|---------0---2-----------0---2---|-3---2---0---------------0---2---|
B|-2---2-----------------------2---|-2---2-----------2---2-----------|-------------2---2---2-----------|


C|---------------------------------|---------------------------------|---------------------------------|
G|---------------------------------|---------------------------------|---------------------------------|
D|---------------------------------|---------------------------------|---------------------------------|
A|---------------------------------|---------------------------------|---------------------------------|
E|---------0---2---3---2---0-------|---------0---2-----------0---2---|-3---2---0---------------0---2---|
B|-2---2-----------------------2---|-2---2-----------2---2-----------|-------------2---2---2-----------|


C|---------------------------------|---------------------------------|---------------------------------|
G|---------------------------------|---------------------------------|---------------------------------|
D|---------------------------------|---------------------------------|---------------------------------|
A|---------------------------------|---------------------------------|-----------------------------4---|
E|---------0---2---3---2---0-------|---------0---2-----------0---3---|-3---2---2---0---0---2---2-------|
B|-2---2-----------------------2---|-2---2-----------2---2-----------|---------------------------------|


C|---------------------------------|---------------------------------|---------------------------------|
G|---------------------------------|---------------------------------|---------------------------------|
D|---------------------------------|---------------------------------|---------------------------------|
A|-4---4---4---4---2---2---2---2---|-9---9---9---9---7---7---7---4---|-4---4---4---4---2---2---2---2---|
E|---------------------------------|---------------------------------|---------------------------------|
B|---------------------------------|---------------------------------|---------------------------------|


C|---------------------------------|---------------------------------|---------------------------------|
G|---------------------------------|---------------------------------|---------------------------------|
D|---------------------------------|---------------------------------|---------------------------------|
A|-9---9---9---9---7---7---7---4---|-4---4---4---4---2---2---2---2---|-9---9---9---9---7---7---7---4---|
E|---------------------------------|---------------------------------|---------------------------------|
B|---------------------------------|---------------------------------|---------------------------------|


C|---------------------------------|---------------------------------|---------------------------------|
G|---------------------------------|---------------------------------|---------------------------------|
D|---------------------------------|---------------------------------|---------------------------------|
A|-4---4---4---4---2---2---2---2---|-9---9---9---9---7---7---7---4---|-4---4---4---4---2---2---2---2---|
E|---------------------------------|---------------------------------|---------------------------------|
B|---------------------------------|---------------------------------|---------------------------------|


C|---------------------------------|---------------------------------|---------------------------------|
G|---------------------------------|---------------------------------|---------------------------------|
D|---------------------------------|---------------------------------|---------------------------------|
A|-9---9---9---9---7---7---7---4---|-4---4---4---4---2---2---2---2---|-9---9---9---9---7---7---7---4---|
E|---------------------------------|---------------------------------|---------------------------------|
B|---------------------------------|---------------------------------|---------------------------------|


C|---------------------------------|---------------------------------|---------------------------------|
G|---------------------------------|---------------------------------|---------------------------------|
D|---------------------------------|---------------------------------|---------------------------------|
A|-4---4---4---4---2---2---2---2---|-9---9---9---9---7---7---7---4---|-4---4---4---4---2---2---2---2---|
E|---------------------------------|---------------------------------|---------------------------------|
B|---------------------------------|---------------------------------|---------------------------------|


C|---------------------------------|--------------------|---------------------|--------------------|
G|---------------------------------|--------------------|---------------------|--------------------|
D|---------------------------------|--------------------|---------------------|--------------------|
A|-9---9---9---9---7---7---7-------|--------------------|---------------------|--------------------|
E|---------------------------------|--------------------|---------------------|--------------------|
B|-----------------------------2---|-----------2--------|-------2----2----2---|-----------2--------|


C|---------------------|
G|---------------------|
D|---------------------|
A|---------------------|
E|---------------------|
B|-------2----2--------|