Menu:

 

Search:

 

dream theater - never enough:

 



Title: Never Enough
Artist: 
Album: Octavarium
Author: Dream Theater


Track 1: Keyboard (Lead)

D|-------------------------------------------------|-------------------------------------------------|
A|-------------------------------------------------|-------------------------------------------------|
F|-------------------------------------------------|-------------------------------------------------|
C|-------------------------------------------------|-------------------------------------------------|
G|-------------------------------------------------|-------------------------------------------------|
D|-0--12-10-0--10-12-0--8--0--12-7--0--5--7--0--5--|-0--7--3--0--2--3--0--2--0--3--0--5--0--7--2--3--|


D|-------------------------------------------------|-------------------------------------------------|
A|-------------------------------------------------|-------------------------------------------------|
F|-------------------------------------------------|-------------------------------------------------|
C|-------------------------------------------------|-------------------------------------------------|
G|-------------------------------------------------|-------------------------------------------------|
D|-0--12-10-0--10-12-0--8--0--12-7--0--5--7--0--5--|-0--7--3--0--2--3--0--2--0--3--0--5--0--7--2--3--|


D|-------------------------------------------------|-------------------------------------------------|
A|-------------------------------------------------|-------------------------------------------------|
F|-------------------------------------------------|-------------------------------------------------|
C|-------------------------------------------------|-------------------------------------------------|
G|-------------------------------------------------|-------------------------------------------------|
D|-0--12-10-0--10-12-0--8--0--12-7--0--5--7--0--5--|-0--7--3--0--2--3--0--2--0--3--0--5--0--7--2--3--|


D|-------------------------------------------------|-------------------------------------------------|
A|-------------------------------------------------|-------------------------------------------------|
F|-------------------------------------------------|-------------------------------------------------|
C|-------------------------------------------------|-------------------------------------------------|
G|-------------------------------------------------|-------------------------------------------------|
D|-0--12-10-0--10-12-0--8--0--12-7--0--5--7--0--5--|-0--7--3--0--2--3--0--2--0--3--0--5--0--7--2--3--|


D|--------|--------|--------|--------|--------|--------|--------|--------|--------|
A|--------|--------|--------|--------|--------|--------|--------|--------|--------|
F|--------|--------|--------|--------|--------|--------|--------|--------|--------|
C|--------|--------|--------|--------|--------|--------|--------|--------|--------|
G|--------|--------|--------|--------|--------|--------|--------|--------|--------|
D|--------|--------|--------|--------|--------|--------|--------|--------|--------|


D|--------|--------|--------|--------|--------|--------|--------|--------|--------|
A|--------|--------|--------|--------|--------|--------|--------|--------|--------|
F|--------|--------|--------|--------|--------|--------|--------|--------|--------|
C|--------|--------|--------|--------|--------|--------|--------|--------|--------|
G|--------|--------|--------|--------|--------|--------|--------|--------|--------|
D|--------|--------|--------|--------|--------|--------|--------|--------|--------|


D|--------|--------|--------|--------|--------|--------|----------------------15-------------------------|
A|--------|--------|--------|--------|--------|--------|-------------------17----17----------------------|
F|--------|--------|--------|--------|--------|--------|----------------16----------16-------------------|
C|--------|--------|--------|--------|--------|--------|----------14-17----------------17-14-------------|
G|--------|--------|--------|--------|--------|--------|-------14----------------------------14----------|
D|--------|--------|--------|--------|--------|--------|-12-15----------------------------------15-12-10-|


D|----------------------15-------------------------|-------------------------14----------------------|
A|-------------------17----17----------------------|-------------------14-17----17-14----------------|
F|----------------16----------16-------------------|----------------15----------------15-------------|
C|----------14-17----------------17-14-------------|----------14-16----------------------16-14-------|
G|-------14----------------------------14----------|----13-16----------------------------------16-13-|
D|-12-15----------------------------------15-12-15-|-14----------------------------------------------|


D|-------------------------14----------------------|-------------------12-17-12----------------------|
A|-------------------14-17----17-14----------------|----------------13----------13-------------------|
F|----------------15----------------15-------------|----------12-14----------------14-12-------------|
C|----------14-16----------------------16-14-------|-------14----------------------------14----------|
G|----13-16----------------------------------16-13-|-12-15----------------------------------15-12----|
D|-14----------------------------------------------|----------------------------------------------15-|


D|-------------------12-17-12----------------------|-------------------14-19-14----------------------|
A|----------------13----------13-------------------|-------------14-16----------16-14----------------|
F|----------12-14----------------14-12-------------|----------16----------------------16-------------|
C|-------14----------------------------14----------|----13-16----------------------------16-13-------|
G|-12-15----------------------------------15-12----|-14----------------------------------------14-12-|
D|----------------------------------------------15-|-------------------------------------------------|


D|------------------------------|--------|--------|--------|--------|--------|--------|
A|---------16--------------16---|--------|--------|--------|--------|--------|--------|
F|-----16------16----------16---|--------|--------|--------|--------|--------|--------|
C|-16--------------16-----------|--------|--------|--------|--------|--------|--------|
G|---------------------14-------|--------|--------|--------|--------|--------|--------|
D|------------------------------|--------|--------|--------|--------|--------|--------|


D|--------|--------|--------|--------|--------|--------|--------|--------|--------|
A|--------|--------|--------|--------|--------|--------|--------|--------|--------|
F|--------|--------|--------|--------|--------|--------|--------|--------|--------|
C|--------|--------|--------|--------|--------|--------|--------|--------|--------|
G|--------|--------|--------|--------|--------|--------|--------|--------|--------|
D|--------|--------|--------|--------|--------|--------|--------|--------|--------|


D|--------|--------|--------|--------|--------|--------|--------|--------|--------|
A|--------|--------|--------|--------|--------|--------|--------|--------|--------|
F|--------|--------|--------|--------|--------|--------|--------|--------|--------|
C|--------|--------|--------|--------|--------|--------|--------|--------|--------|
G|--------|--------|--------|--------|--------|--------|--------|--------|--------|
D|--------|--------|--------|--------|--------|--------|--------|--------|--------|


D|--------|--------|--------|--------|--------|--------|--------|--------|--------|
A|--------|--------|--------|--------|--------|--------|--------|--------|--------|
F|--------|--------|--------|--------|--------|--------|--------|--------|--------|
C|--------|--------|--------|--------|--------|--------|--------|--------|--------|
G|--------|--------|--------|--------|--------|--------|--------|--------|--------|
D|--------|--------|--------|--------|--------|--------|--------|--------|--------|


D|--------|--------|--------|--------|--------|--------|--------|--------|--------|
A|--------|--------|--------|--------|--------|--------|--------|--------|--------|
F|--------|--------|--------|--------|--------|--------|--------|--------|--------|
C|--------|--------|--------|--------|--------|--------|--------|--------|--------|
G|--------|--------|--------|--------|--------|--------|--------|--------|--------|
D|--------|--------|--------|--------|--------|--------|--------|--------|--------|


D|----------------------15-------------------------|----------------------15-------------------------|
A|-------------------17----17----------------------|-------------------17----17----------------------|
F|----------------16----------16-------------------|----------------16----------16-------------------|
C|----------14-17----------------17-14-------------|----------14-17----------------17-14-------------|
G|-------14----------------------------14----------|-------14----------------------------14----------|
D|-12-15----------------------------------15-12-10-|-12-15----------------------------------15-12-15-|


D|-------------------------14----------------------|-------------------------14----------------------|
A|-------------------14-17----17-14----------------|-------------------14-17----17-14----------------|
F|----------------15----------------15-------------|----------------15----------------15-------------|
C|----------14-16----------------------16-14-------|----------14-16----------------------16-14-------|
G|----13-16----------------------------------16-13-|----13-16----------------------------------16-13-|
D|-14----------------------------------------------|-14----------------------------------------------|


D|-------------------12-17-12----------------------|-------------------12-17-12----------------------|
A|----------------13----------13-------------------|----------------13----------13-------------------|
F|----------12-14----------------14-12-------------|----------12-14----------------14-12-------------|
C|-------14----------------------------14----------|-------14----------------------------14----------|
G|-12-15----------------------------------15-12----|-12-15----------------------------------15-12----|
D|----------------------------------------------15-|----------------------------------------------15-|


D|-------------------14-19-14----------------------|------------------------------|
A|-------------14-16----------16-14----------------|---------16--------------16---|
F|----------16----------------------16-------------|-----16------16----------16---|
C|----13-16----------------------------16-13-------|-16--------------16-----------|
G|-14----------------------------------------14-12-|---------------------14-------|
D|-------------------------------------------------|------------------------------|


D|--------|--------|--------|--------|--------|--------|--------|--------|--------|
A|--------|--------|--------|--------|--------|--------|--------|--------|--------|
F|--------|--------|--------|--------|--------|--------|--------|--------|--------|
C|--------|--------|--------|--------|--------|--------|--------|--------|--------|
G|--------|--------|--------|--------|--------|--------|--------|--------|--------|
D|--------|--------|--------|--------|--------|--------|--------|--------|--------|


D|--------|--------|--------|--------|--------|--------|--------|--------|--------|
A|--------|--------|--------|--------|--------|--------|--------|--------|--------|
F|--------|--------|--------|--------|--------|--------|--------|--------|--------|
C|--------|--------|--------|--------|--------|--------|--------|--------|--------|
G|--------|--------|--------|--------|--------|--------|--------|--------|--------|
D|--------|--------|--------|--------|--------|--------|--------|--------|--------|


D|--------|--------|--------|--------|-------------------------------------------------|
A|--------|--------|--------|--------|-------------------------------------------------|
F|--------|--------|--------|--------|-------------------------------------------------|
C|--------|--------|--------|--------|----------------------12-14----------------------|
G|--------|--------|--------|--------|-------------------------------------------------|
D|--------|--------|--------|--------|-0--10-12-0--10-12-0--------0--10-12-0--10-12-10-|


D|-------------------------------------------------|-------------------------------------------------|
A|----------------------15-17----------------------|-------------------------------------------------|
F|-------------------------------------------------|-------------------------------------------------|
C|-------------12-14-------------12-14-------------|----------------------12-14----------------------|
G|----------------------------------------9--10-9--|-------------------------------------------------|
D|-0--10-12-0--------0--------0--------0-----------|-0--10-12-0--10-12-0--------0--10-12-0--10-12-10-|


D|-------------------------------10-12----15-17-19-|-------------------------------------------------|
A|----------------------10-12----------12----------|-------------------------------------------------|
F|-------------7--9-----------9--------------------|-------------------------------------------------|
C|----7--9-----------------------------------------|----------------------12-14----------------------|
G|-------------------7-----------------------------|-------------------------------------------------|
D|-0--------7--------------------------------------|-0--10-12-0--10-12-0--------0--10-12-0--10-12-10-|


D|-------------------------------------------------|-------------------------------------------------|
A|----------------------15-17----------------------|-------------------------------------------------|
F|-------------------------------------------------|-------------------------------------------------|
C|-------------12-14-------------12-14-------------|----------------------12-14----------------------|
G|----------------------------------------9--10-9--|-------------------------------------------------|
D|-0--10-12-0--------0--------0--------0-----------|-0--10-12-0--10-12-0--------0--10-12-0--10-12-10-|


D|----------------------------------------------------19-------24-------22-|--------|
A|----------------------------------10-------17----17-------24----22-24----|--------|
F|-------------------------------7--------16----16-------21----------------|--------|
C|-------------7--9-----------7--------14----------------------------------|--------|
G|----------7--------0--5--9-----------------------------------------------|--------|
D|-0--5--7-----------------------------------------------------------------|--------|


D|--------|--------|--------|--------|--------|--------|--------|--------|--------|
A|--------|--------|--------|--------|--------|--------|--------|--------|--------|
F|--------|--------|--------|--------|--------|--------|--------|--------|--------|
C|--------|--------|--------|--------|--------|--------|--------|--------|--------|
G|--------|--------|--------|--------|--------|--------|--------|--------|--------|
D|--------|--------|--------|--------|--------|--------|--------|--------|--------|


D|--------|--------|--------|--------|--------|--------|--------|--------|--------|
A|--------|--------|--------|--------|--------|--------|--------|--------|--------|
F|--------|--------|--------|--------|--------|--------|--------|--------|--------|
C|--------|--------|--------|--------|--------|--------|--------|--------|--------|
G|--------|--------|--------|--------|--------|--------|--------|--------|--------|
D|--------|--------|--------|--------|--------|--------|--------|--------|--------|


D|--------|--------|--------|--------|--------|-------------------------15----------------------|
A|--------|--------|--------|--------|--------|----------13-15-13----------15-------------------|
F|--------|--------|--------|--------|--------|----12-15----------15-12-------15-17-15-14-12----|
C|--------|--------|--------|--------|--------|-12-------------------------------------------13-|
G|--------|--------|--------|--------|--------|-------------------------------------------------|
D|--------|--------|--------|--------|--------|-------------------------------------------------|


D|-------------------------22-18----18-------------------------|-------------------------------------------------|
A|----------13-15-13-------------20----20----20----------------|-------------14----------17-14----14-------------|
F|----12-15----------15-12----------------19----19----19-------|----------15----15-------------15----15----15----|
C|-12----------------------------------------------20----20-17-|----14-17----------17-14----------------17----17-|
G|-------------------------------------------------------------|-16----------------------------------------------|
D|-------------------------------------------------------------|-------------------------------------------------|


D|-------------------------------------18-21-18----------------|-------------------------20----------------------|
A|-------------14-------------------17----------17-------------|----------18-20-18----------20-16-18-16----20-16-|
F|----------15----15----------15-18----------------18-15-------|----17-20----------20-17----------------17-------|
C|----14-17----------17-14-17----------------------------17-14-|-17----------------------------------------------|
G|-16----------------------------------------------------------|-------------------------------------------------|
D|-------------------------------------------------------------|-------------------------------------------------|


D|----------------------------------------------------|-------------------------------------------------------------------------|
A|----------18-20-18-------16-20-16-------------------|-------------------------------------------------------15-16-19-15-16-19-|
F|----17-20----------20-17----------17----------------|-------------------------------------14-15-17-14-15-17-------------------|
C|-17----------------------------------17-------------|-------------------12-13-16-12-13-16-------------------------------------|
G|----------------------------------------18-15----15-|-12-13-15-12-13-15-------------------------------------------------------|
D|----------------------------------------------15----|-------------------------------------------------------------------------|


D|----------------14-15-17-18-15-17-14------------------------|--------|--------|--------|
A|----------15-16----------------------16-15------------------|--------|--------|--------|
F|-14-15-17----------------------------------17-15-14---------|--------|--------|--------|
C|----------------------------------------------------17-16---|--------|--------|--------|
G|------------------------------------------------------------|--------|--------|--------|
D|------------------------------------------------------------|--------|--------|--------|


D|--------|--------|--------|--------|--------|--------|--------|--------|--------|
A|--------|--------|--------|--------|--------|--------|--------|--------|--------|
F|--------|--------|--------|--------|--------|--------|--------|--------|--------|
C|--------|--------|--------|--------|--------|--------|--------|--------|--------|
G|--------|--------|--------|--------|--------|--------|--------|--------|--------|
D|--------|--------|--------|--------|--------|--------|--------|--------|--------|


D|--------|--------|--------|--------|--------|--------|--------|--------|--------|
A|--------|--------|--------|--------|--------|--------|--------|--------|--------|
F|--------|--------|--------|--------|--------|--------|--------|--------|--------|
C|--------|--------|--------|--------|--------|--------|--------|--------|--------|
G|--------|--------|--------|--------|--------|--------|--------|--------|--------|
D|--------|--------|--------|--------|--------|--------|--------|--------|--------|


D|--------|--------|--------|--------|--------|--------|--------|--------|--------|
A|--------|--------|--------|--------|--------|--------|--------|--------|--------|
F|--------|--------|--------|--------|--------|--------|--------|--------|--------|
C|--------|--------|--------|--------|--------|--------|--------|--------|--------|
G|--------|--------|--------|--------|--------|--------|--------|--------|--------|
D|--------|--------|--------|--------|--------|--------|--------|--------|--------|


D|--------|--------|--------|--------|--------|--------|--------|--------|--------|
A|--------|--------|--------|--------|--------|--------|--------|--------|--------|
F|--------|--------|--------|--------|--------|--------|--------|--------|--------|
C|--------|--------|--------|--------|--------|--------|--------|--------|--------|
G|--------|--------|--------|--------|--------|--------|--------|--------|--------|
D|--------|--------|--------|--------|--------|--------|--------|--------|--------|


D|--------|--------|--------|--------|--------|--------|--------|--------|--------|
A|--------|--------|--------|--------|--------|--------|--------|--------|--------|
F|--------|--------|--------|--------|--------|--------|--------|--------|--------|
C|--------|--------|--------|--------|--------|--------|--------|--------|--------|
G|--------|--------|--------|--------|--------|--------|--------|--------|--------|
D|--------|--------|--------|--------|--------|--------|--------|--------|--------|


D|--------|--------|
A|--------|--------|
F|--------|--------|
C|--------|--------|
G|--------|--------|
D|--------|--------|





Track 2: Rhythm Left

D|--------|--------|--------|--------|--------|--------|--------|--------|-------------------------------------------------|
A|--------|--------|--------|--------|--------|--------|--------|--------|-------------------------------------------------|
F|--------|--------|--------|--------|--------|--------|--------|--------|-------------------------------------------------|
C|--------|--------|--------|--------|--------|--------|--------|--------|-------------------------------------------------|
G|--------|--------|--------|--------|--------|--------|--------|--------|-------------------------------------------------|
D|--------|--------|--------|--------|--------|--------|--------|--------|-0--12-10-0--10-12-0--8--0--12-7--0--5--7--0--5--|


D|-------------------------------------------------|-------------------------------------------------|
A|-------------------------------------------------|-------------------------------------------------|
F|-------------------------------------------------|-------------------------------------------------|
C|-------------------------------------------------|-------------------------------------------------|
G|-------------------------------------------------|-------------------------------------------------|
D|-0--7--3--0--2--3--0--2--0--3--0--5--0--7--2--3--|-0--12-10-0--10-12-0--8--0--12-7--0--5--7--0--5--|


D|-------------------------------------------------|-------------------------------------------------|
A|-------------------------------------------------|-------------------------------------------------|
F|-------------------------------------------------|-------------------------------------------------|
C|-------------------------------------------------|-------------------------------------------------|
G|-------------------------------------------------|-------------------------------------------------|
D|-0--7--3--0--2--3--0--2--0--3--0--5--0--7--2--3--|-0--12-10-0--10-12-0--8--0--12-7--0--5--7--0--5--|


D|-------------------------------------------------|-------------------------------------------------|
A|-------------------------------------------------|-------------------------------------------------|
F|-------------------------------------------------|-------------------------------------------------|
C|-------------------------------------------------|-------------------------------------------------|
G|-------------------------------------------------|-------------------------------------------------|
D|-0--7--3--0--2--3--0--2--0--3--0--5--0--7--2--3--|-0--12-10-0--10-12-0--8--0--12-7--0--5--7--0--5--|


D|-------------------------------------------------|---------------------------------------------|
A|-------------------------------------------------|---------------------------------------------|
F|-------------------------------------------------|---------------------------------------------|
C|-------------------------------------------------|---------------------------------------------|
G|-------------------------------------------------|---------------------------------------------|
D|-0--7--3--0--2--3--0--2--0--3--0--5--0--7--2--3--|-0--0--0--0-----0--0--0-----0--0-------0--0--|


D|---------------------------------------------|---------------------------------------------|
A|---------------------------------------------|---------------------------------------------|
F|---------------------------------------------|---------------------------------------------|
C|---------------------------------------------|---------------------------------------------|
G|---------------------------------------------|---------------------------------------------|
D|-0--0--0--0-----0--0--0-----0--0-------0--0--|-0--0--0--0-----0--0--0-----0--0-------0--0--|


D|---------------------------------------------|---------------------------------------------|
A|---------------------------------------------|---------------------------------------------|
F|---------------------------------------------|---------------------------------------------|
C|---------------------------------------------|---------------------------------------------|
G|---------------------------------------------|---------------------------------------------|
D|-0--0--0--0-----0--0--0-----0--0-------0--0--|-5--5--5--5-----5--5--5-----5--5-------5--5--|


D|---------------------------------------------|---------------------------------------------|
A|---------------------------------------------|---------------------------------------------|
F|---------------------------------------------|---------------------------------------------|
C|---------------------------------------------|---------------------------------------------|
G|---------------------------------------------|-6--6--6--6-----6--6--6-----6--6-------6--6--|
D|-5--5--5--5-----5--5--5-----5--5-------5--5--|---------------------------------------------|


D|---------------------------------------------|---------------------------------------------|
A|---------------------------------------------|---------------------------------------------|
F|---------------------------------------------|---------------------------------------------|
C|---------------------------------------------|---------------------------------------------|
G|-6--6--6--6-----6--6--6-----6--6-------6--6--|---------------------------------------------|
D|---------------------------------------------|-0--0--0--0-----0--0--0-----0--0-------0--0--|


D|---------------------------------------------|---------------------------------------------|
A|---------------------------------------------|---------------------------------------------|
F|---------------------------------------------|---------------------------------------------|
C|---------------------------------------------|---------------------------------------------|
G|---------------------------------------------|-3--3--3--3-----3--3--3-----3--3-------3--3--|
D|-0--0--0--0-----0--0--0-----0--0-------0--0--|---------------------------------------------|


D|---------------------------------------------|---------------------------------------------|
A|---------------------------------------------|---------------------------------------------|
F|---------------------------------------------|---------------------------------------------|
C|---------------------------------------------|---------------------------------------------|
G|-3--3--3--3-----3--3--3-----3--3-------3--3--|-0--0--0--0-----0--0--0-----0--0-------0--0--|
D|---------------------------------------------|---------------------------------------------|


D|---------------------------------------------|---------------------------------------------|
A|---------------------------------------------|---------------------------------------------|
F|---------------------------------------------|---------------------------------------------|
C|---------------------------------------------|---------------------------------------------|
G|-0--0--0--0-----0--0--0-----0--0-------0--0--|-6--6--6--6-----6--6--6-----6--6-------6--6--|
D|---------------------------------------------|---------------------------------------------|


D|---------------------------------------------|---------------------------------------------|
A|---------------------------------------------|---------------------------------------------|
F|---------------------------------------------|---------------------------------------------|
C|---------------------------------------------|---------------------------------------------|
G|-6--6--6--6-----6--6--6-----6--6-------6--6--|---------------------------------------------|
D|---------------------------------------------|-0--0--0--0-----0--0--0-----0--0-------0--0--|


D|---------------------------------------------|---------------------------------------------|
A|---------------------------------------------|---------------------------------------------|
F|---------------------------------------------|---------------------------------------------|
C|---------------------------------------------|---------------------------------------------|
G|---------------------------------------------|---------------------------------------------|
D|-0--0--0--0-----0--0--0-----0--0-------0--0--|-2--2--2--2-----2--2--2-----2--2-------2--2--|


D|---------------------------------------------|---------------------------------------------|
A|---------------------------------------------|---------------------------------------------|
F|---------------------------------------------|---------------------------------------------|
C|---------------------------------------------|---------------------------------------------|
G|---------------------------------------------|-0--0--0--0-----0--0--0-----0--0-------0--0--|
D|-2--2--2--2-----2--2--2-----2--2-------2--2--|---------------------------------------------|


D|---------------------------------------------|---------------------------------------------|
A|---------------------------------------------|---------------------------------------------|
F|---------------------------------------------|---------------------------------------------|
C|---------------------------------------------|---------------------------------------------|
G|-0--0--0--0-----0--0--0-----0--0-------0--0--|-2--2--2--2-----2--2--2-----2--2-------2--2--|
D|---------------------------------------------|---------------------------------------------|


D|---------------------------------------------|-----------------|-3---------------|
A|---------------------------------------------|-----------------|-----------------|
F|---------------------------------------------|-----------3-----|------3----------|
C|---------------------------------------------|------2----------|-----------------|
G|-2--2--2--2-----2--2--2-----2--2-------2--2--|-3---------------|-----------------|
D|---------------------------------------------|-----------------|------------2----|


D|---------------------------|--------------------|-----------------|-3---------------|
A|---------------------------|--------------------|-----------------|-----------------|
F|--------------12-----------|-11-----------9-----|-----------3-----|------3----------|
C|-2----0---0--------0---0---|------0---0---------|------2----------|-----------------|
G|-2----0---0---10---0---0---|-9----0---0---7-----|-3---------------|-----------------|
D|-0----0---0--------0---0---|------0---0---------|-----------------|------------2----|


D|---------------------------|--------------------|-----------------|-3-----------|
A|---------------------------|--------------------|-----------------|-------------|
F|--------------12-----------|-11-----------9-----|-----------3-----|------3------|
C|-2----0---0--------0---0---|------0---0---------|------2----------|-------------|
G|-2----0---0---10---0---0---|-9----0---0---7-----|-3---------------|-------------|
D|-0----0---0--------0---0---|------0---0---------|-----------------|-------------|


D|-3---3--------3---------|-3---------3---------|-------------|-------------|-----------------|
A|-3---3---3---------3----|-3----3---------3----|-------------|-------------|-----------------|
F|-0---0------------------|-0-------------------|-4-----------|-------------|-9-----9---9-----|
C|-0---0------------------|-0-------------------|-4-----10----|-9-----------|-9-----9---9-----|
G|------------------------|---------------------|-2-----------|-------9-----|-7-----7---7-----|
D|-3---3------------------|-3-------------------|-------------|-------------|-----------------|


D|-----------------|------------------------------|-----------------------|-3---------3---------|
A|-----------------|------------------------------|-----------------------|-3----3---------3----|
F|-7-----7---7-----|------------------------------|-3---3---3---3---3-----|-0-------------------|
C|-7-----7---7-----|-------------------------2----|-----------------------|-0-------------------|
G|-5-----5---5-----|-3---3---3---3---3---3--------|-----------------------|---------------------|
D|-----------------|------------------------------|-----------------------|-3-------------------|


D|-3---------3---------|-------------|-------------|-------------------------------------------------|
A|-3----3---------3----|-------------|-------------|-------------------------------------------------|
F|-0-------------------|-7-----7-----|-8-----8-----|-------------------------------------------------|
C|-0-------------------|-7-----7-----|-8-----8-----|-------------------------------------------------|
G|---------------------|-5-----5-----|-6-----6-----|-------------------------------------------------|
D|-3-------------------|-5-----5-----|-6-----6-----|-0--12-10-0--10-12-0--8--0--12-7--0--5--7--0--5--|


D|-------------------------------------------------|-------------------------------------------------|
A|-------------------------------------------------|-------------------------------------------------|
F|-------------------------------------------------|-------------------------------------------------|
C|-------------------------------------------------|-------------------------------------------------|
G|-------------------------------------------------|-------------------------------------------------|
D|-0--7--3--0--2--3--0--2--0--3--0--5--0--7--2--3--|-0--12-10-0--10-12-0--8--0--12-7--0--5--7--0--5--|


D|-------------------------------------------------|-------------------------------------------------|
A|-------------------------------------------------|-------------------------------------------------|
F|-------------------------------------------------|-------------------------------------------------|
C|-------------------------------------------------|-------------------------------------------------|
G|-------------------------------------------------|-7--7--7--7--7--7--7--7--7--7--7--7--7--7--7--7--|
D|-0--7--3--0--2--3--0--2--0--3--0--5--0--7--2--3--|-------------------------------------------------|


D|-------------------------------------------------|-------------------------------------------------|
A|-------------------------------------------------|-------------------------------------------------|
F|-------------------------------------------------|-------------------------------------------------|
C|-9--9--9--9--9--9--9--9--9--9--9--9--9--9--9--9--|-------------------------------------------------|
G|-------------------------------------------------|-7--7--7--7--7--7--7--7--7--7--7--7--7--7--7--7--|
D|-------------------------------------------------|-------------------------------------------------|


D|-------------------------------------------------|-------------------------------------------------|
A|-------------------------------------------------|-------------------------------------------------|
F|-------------------------------------------------|-------------------------------------------------|
C|-10-10-10-10-10-10-10-10-10-10-10-10-10-10-10-10-|-7--7--7--7--7--7--7--7--7--7--7--7--7--7--7--7--|
G|-------------------------------------------------|-------------------------------------------------|
D|-------------------------------------------------|-------------------------------------------------|


D|-------------------------------------------------|-------------------------------------------------|
A|-------------------------------------------------|-------------------------------------------------|
F|-------------------------------------------------|-------------------------------------------------|
C|-------------------------------------------------|-------------------------10-10-10-10-10-10-10-10-|
G|-7--7--7--7--7--7--7--7--7--7--7--7--7--7--7--7--|-6--6--6--6--6--6--6--6--------------------------|
D|-------------------------------------------------|-------------------------------------------------|


D|-------------------------------------------------|-------------------------------------------------|
A|-------------------------------------------------|-------------------------------------------------|
F|-------------------------------------------------|-------------------------------------------------|
C|-9--9--9--9--9--9--9--9--------------------------|-------------------------------------------------|
G|-------------------------6--6--6--6--6--6--6--6--|-7--7--7--7--7--7--7--7--7--7--7--7--7--7--7--7--|
D|-------------------------------------------------|-------------------------------------------------|


D|-------------------------------------------------|-------------------------------------------------|
A|-------------------------------------------------|-------------------------------------------------|
F|-------------------------------------------------|-------------------------------------------------|
C|-9--9--9--9--9--9--9--9--9--9--9--9--9--9--9--9--|-------------------------------------------------|
G|-------------------------------------------------|-3--3--3--3--3--3--3--3--3--3--3--3--3--3--3--3--|
D|-------------------------------------------------|-------------------------------------------------|


D|-------------------------------------------------|-------------------------------------------------|
A|-------------------------------------------------|-------------------------------------------------|
F|-------------------------------------------------|-------------------------------------------------|
C|-10-10-10-10-10-10-10-10-10-10-10-10-10-10-10-10-|-7--7--7--7--7--7--7--7--7--7--7--7--7--7--7--7--|
G|-------------------------------------------------|-------------------------------------------------|
D|-------------------------------------------------|-------------------------------------------------|


D|-------------------------------------------------|-------------------------------------------------|
A|-------------------------------------------------|-------------------------------------------------|
F|-------------------------------------------------|-------------------------------------------------|
C|-------------------------------------------------|-------------------------10-10-10-10-10-10-10-10-|
G|-7--7--7--7--7--7--7--7--7--7--7--7--7--7--9--9--|-6--6--6--6--6--6--6--6--------------------------|
D|-------------------------------------------------|-------------------------------------------------|


D|-------------------------------------------------|-------------------------------------------------|
A|-------------------------------------------------|-------------------------------------------------|
F|-------------------------------------------------|-9--9--9--9--9--9--9--9--9--9--9--9--9--9--9--9--|
C|-9--9--9--9--9--9--9--9--------------------------|-------------------------------------------------|
G|-------------------------6--6--6--6--6--6--6--6--|-7--7--7--7--7--7--7--7--7--7--7--7--7--7--7--7--|
D|-------------------------------------------------|-------------------------------------------------|


D|-------------------------------------------------|-------------------------------------------------|
A|-12-12-12-12-12-12-12-12-12-12-12-12-12-12-12-12-|-------------------------------------------------|
F|-------------------------------------------------|-11-11-11-11-11-11-11-11-11-11-11-11-11-11-11-11-|
C|-9--9--9--9--9--9--9--9--9--9--9--9--9--9--9--9--|-------------------------------------------------|
G|-------------------------------------------------|-9--9--9--9--9--9--9--9--9--9--9--9--9--9--9--9--|
D|-------------------------------------------------|-------------------------------------------------|


D|-------------------------------------------------|-------------------------------------------------|
A|-11-11-11-11-11-11-11-11-11-11-11-11-11-11-11-11-|-10-10-10-10-10-10-10-10-10-10-10-10-10-10-10-10-|
F|-------------------------------------------------|-------------------------------------------------|
C|-8--8--8--8--8--8--8--8--8--8--8--8--8--8--8--8--|-7--7--7--7--7--7--7--7--7--7--7--7--7--7--7--7--|
G|-------------------------------------------------|-------------------------------------------------|
D|-------------------------------------------------|-------------------------------------------------|


D|-------------------------------------------------|-------------------------------------------------|
A|-13-13-13-13-13-13-13-13-13-13-13-13-13-13-13-13-|-12-12-12-12-12-12-12-12-12-12-12-12-12-12-12-12-|
F|-------------------------------------------------|-------------------------------------------------|
C|-10-10-10-10-10-10-10-10-10-10-10-10-10-10-10-10-|-9--9--9--9--9--9--9--9--9--9--9--9--9--9--9--9--|
G|-------------------------------------------------|-------------------------------------------------|
D|-------------------------------------------------|-------------------------------------------------|


D|-------------------------------------------------|-----------------|-3---------------|
A|-16-16-16-16-16-16-16-16-16-16-16-16-16-16-16-16-|-----------------|-----------------|
F|-------------------------------------------------|-----------3-----|------3----------|
C|-13-13-13-13-13-13-13-13-13-13-13-13-13-13-13-13-|------2----------|-----------------|
G|-------------------------------------------------|-3---------------|-----------------|
D|-------------------------------------------------|-----------------|------------2----|


D|---------------------------|--------------------|-----------------|-3---------------|
A|---------------------------|--------------------|-----------------|-----------------|
F|--------------12-----------|-11-----------9-----|-----------3-----|------3----------|
C|-2----0---0--------0---0---|------0---0---------|------2----------|-----------------|
G|-2----0---0---10---0---0---|-9----0---0---7-----|-3---------------|-----------------|
D|-0----0---0--------0---0---|------0---0---------|-----------------|------------2----|


D|---------------------------|--------------------|-----------------|-3-----------|
A|---------------------------|--------------------|-----------------|-------------|
F|--------------12-----------|-11-----------9-----|-----------3-----|------3------|
C|-2----0---0--------0---0---|------0---0---------|------2----------|-------------|
G|-2----0---0---10---0---0---|-9----0---0---7-----|-3---------------|-------------|
D|-0----0---0--------0---0---|------0---0---------|-----------------|-------------|


D|-3---3--------3---------|-3---------3---------|-------------|-------------|-----------------|
A|-3---3---3---------3----|-3----3---------3----|-------------|-------------|-----------------|
F|-0---0------------------|-0-------------------|-4-----------|-------------|-9-----9---9-----|
C|-0---0------------------|-0-------------------|-4-----10----|-9-----------|-9-----9---9-----|
G|------------------------|---------------------|-2-----------|-------9-----|-7-----7---7-----|
D|-3---3------------------|-3-------------------|-------------|-------------|-----------------|


D|-----------------|------------------------------|-----------------------|-3---------3---------|
A|-----------------|------------------------------|-----------------------|-3----3---------3----|
F|-7-----7---7-----|------------------------------|-3---3---3---3---3-----|-0-------------------|
C|-7-----7---7-----|-------------------------2----|-----------------------|-0-------------------|
G|-5-----5---5-----|-3---3---3---3---3---3--------|-----------------------|---------------------|
D|-----------------|------------------------------|-----------------------|-3-------------------|


D|-3---------3---------|-------------|-------------|-------------|--------|--------|
A|-3----3---------3----|-------------|-------------|-------------|--------|--------|
F|-0-------------------|-7-----7-----|-8-----8-----|-9-----------|--------|--------|
C|-0-------------------|-7-----7-----|-8-----8-----|-9-----------|--------|--------|
G|---------------------|-5-----5-----|-6-----6-----|-7-----------|--------|--------|
D|-3-------------------|-5-----5-----|-6-----6-----|-------------|--------|--------|


D|----------------|-------------|--------|----------------|-------------|-------------------------------------------------|
A|----------------|-------------|--------|----------------|-------------|-------------------------------------------------|
F|----------------|-------------|--------|----------------|-------------|-------------------------------------------------|
C|----------------|-------------|--------|----------------|-------------|-------------------12-12-------13-13-12-12-------|
G|----------------|-------------|--------|----------------|-------------|-10-10-13-13-10-10-------10-10-------------12-12-|
D|------------7---|-12----12----|--------|------------0---|-9-----21----|-------------------------------------------------|


D|-------------------------------------------------|-------------------------------------------------|
A|-------------------------------------------------|-------------------------------------------------|
F|-------------------------------------------------|-------------------------------------------------|
C|-------------------12-12-------13-13-12-12-------|-------------------12-12-------13-13-12-12-------|
G|-10-10-13-13-10-10-------10-10-------------12-12-|-10-10-13-13-10-10-------10-10-------------12-12-|
D|-------------------------------------------------|-------------------------------------------------|


D|-------------------------------------------------|-------------------------------------------------|
A|-------------------------------------------------|-------------------------------------------------|
F|-------------------------------------------------|-------------------------------------------------|
C|-------------------12-12-------13-13-12-12-------|-------------------------------------------------|
G|-10-10-13-13-10-10-------10-10-------------12-12-|-------------------10-10-------13-13-12-12-------|
D|-------------------------------------------------|-8--8--11-11-8--8--------8--8--------------11-11-|


D|-------------------------------------------------|-------------------------------------------------|
A|-------------------------------------------------|-------------------------------------------------|
F|-------------------------------------------------|-------------------------------------------------|
C|-------------------------------------------------|-------------------10-10-------13-13-12-12-------|
G|-------------------10-10-------13-13-12-12-------|-9--9--12-12-9--9--------9--9--------------12-12-|
D|-8--8--11-11-8--8--------8--8--------------11-11-|-------------------------------------------------|


D|-------------------------------------------------|-------------------------------------------------|
A|-------------------------------------------------|-------------------------------------------------|
F|-------------------------------------------------|-------------------------------------------------|
C|-------------------10-10-------13-13-12-12-------|-------------------12-12-------13-13-12-12-------|
G|-9--9--12-12-9--9--------9--9--------------9--9--|-10-10-13-13-10-10-------10-10-------------12-12-|
D|-------------------------------------------------|-------------------------------------------------|


D|-------------------------------------------------|-------------------------------------------------|
A|-------------------------------------------------|-------------------------------------------------|
F|-------------------------------------------------|-------------------------------------------------|
C|-------------------12-12-------13-13-12-12-------|-------------------14-14-------17-17-14-14-------|
G|-10-10-13-13-10-10-------10-10-------------10-10-|-12-12-16-16-12-12-------12-12-------------16-16-|
D|-------------------------------------------------|-------------------------------------------------|


D|-------------------------------------------------|-------------------------------------------------|
A|-------------------------------------------------|-------------------------------------------------|
F|-------------------------------------------------|-------------------------------------------------|
C|-------------------14-14-------17-17-14-14-------|-------------------17-17-------20-20-17-17-------|
G|-12-12-16-16-12-12-------12-12-------------16-16-|-15-15-18-18-15-15-------15-15-------------18-18-|
D|-------------------------------------------------|-------------------------------------------------|


D|-------------------------------------------------|-------------------------------------------------|
A|-------------------------------------------------|-------------------------------------------------|
F|-------------------------------------------------|-------------------14-14-------17-17-14-14-------|
C|-------------------17-17-------20-20-17-17-------|-12-12-16-16-12-12-------12-12-------------16-16-|
G|-15-15-18-18-15-15-------15-15-------------18-18-|-------------------------------------------------|
D|-------------------------------------------------|-------------------------------------------------|


D|-------------------------------------------------|-------------------------------------------------|
A|-------------------------------16-16-15-15-------|----------10-11-10-------15-11-------------11----|
F|-------------------14-14-------------------------|-------12----------12----------12-14-12-------12-|
C|-12-12-16-16-12-12-------12-12-------------16-16-|----12----------------12----------------12-------|
G|-------------------------------------------------|-10----------------------------------------------|
D|-------------------------------------------------|-------------------------------------------------|


D|-------------------------15-10----10-------------------------|-------------10----------11----------------10----|
A|----------10-11-10-------------11----11----11----------------|----------13----13----------13----13----------13-|
F|-------12----------12-------------------12----12----12-------|-------12----------12----------12----12----------|
C|----12----------------12-------------------------12----12----|----13----------------13----------------13-------|
G|-10-------------------------------------------------------13-|-10----------------------------------------------|
D|-------------------------------------------------------------|-------------------------------------------------|


D|-------------10----------------------------11-------15-11----|----------10-11-10-------15-11-------------11----|
A|----------13----13----------------13----------13----------13-|-------13----------13----------13-15-13-------13-|
F|-------12----------12----12----------12----------12----------|----12----------------12----------------12-------|
C|----13----------------13----13-10-------13-------------------|-10----------------------------------------------|
G|-10----------------------------------------------------------|-------------------------------------------------|
D|-------------------------------------------------------------|-------------------------------------------------|


D|----------10-11-10-------20-15----15-------11----------------|-------------14----------17-14----14-------------|
A|-------13----------13----------16----16-------13----13-------|----------13----13-------------13----13----13----|
F|----12----------------12----------------17-------12----12----|-------14----------14-------------------14----14-|
C|-10-------------------------------------------------------13-|-13-16----------------16-------------------------|
G|-------------------------------------------------------------|-------------------------------------------------|
D|-------------------------------------------------------------|-------------------------------------------------|


D|-------------14----------------------14-17-14----------------|-------------------------------------------------|
A|----------13----13----------------13----------13-------------|----------10-11-10-------15-11-------------11----|
F|-------14----------14----------14----------------14----------|-------12----------12----------12-14-12-------12-|
C|-13-16----------------16----16----------------------16-------|----12----------------12----------------12-------|
G|-------------------------17----------------------------17-12-|-10----------------------------------------------|
D|-------------------------------------------------------------|-------------------------------------------------|


D|-------------------------18-15----15-------------------------|-------------------------------------------------|
A|----------10-11-10-------------15----15----15----------------|-------------11----------14-11----11-------------|
F|-------12----------12-------------------15----15----15-------|----------12----12-------------12----12----12----|
C|----12----------------12-------------------------17----17----|----11-14----------14-11----------------14----14-|
G|-10-------------------------------------------------------17-|-12----------------------------------------------|
D|-------------------------------------------------------------|-------------------------------------------------|


D|-----------------------------------151815------------------|-------------------------15----------------------|
A|-------------11------------------17------17-14-------------|----------15-16-15----------16----15-------16----|
F|----------12----12-----------1518--------------15----------|-------17----------17----------17----17-------17-|
C|----11-14----------14-11-1417---------------------17-14----|----17----------------17----------------17-------|
G|-12-----------------------------------------------------16-|-15----------------------------------------------|
D|-----------------------------------------------------------|-------------------------------------------------|


D|-------------------------15-20-15-11----------------|-------------------------------------------------------------------------|
A|----------15-16-15-------------------13-------------|-------------------------------------------------------11-13-15-11-13-15-|
F|-------17----------17-------------------12----------|-------------------------------------11-12-14-11-12-14-------------------|
C|----17----------------17-------------------13-10----|-------------------10-12-13-10-12-13-------------------------------------|
G|-15----------------------------------------------10-|-9--10-12-9--10-12-------------------------------------------------------|
D|----------------------------------------------------|-------------------------------------------------------------------------|


D|----------------------14-15-14------------------------------|---------------------------------|
A|----------11-13-15-16----------16-15-13-11-10---------------|-8---------------8---------------|
F|-11-12-14-------------------------------------12-11---------|-----9-------9-------9-------9---|
C|----------------------------------------------------13-12---|---------9---------------9-------|
G|------------------------------------------------------------|---------------------------------|
D|------------------------------------------------------------|---------------------------------|


D|-----------------------------------|-----------------------------------|-------------------------|
A|-12-12-------------12------12--14--|-11-11-------------11--------------|-14-14-------------14----|
F|-------12------12------12----------|-------11------11------11------11--|-------15------15--------|
C|-----------14----------------------|-----------11--------------11------|-----------16------------|
G|-----------------------------------|-----------------------------------|-------------------------|
D|-----------------------------------|-----------------------------------|-------------------------|


D|-----------------------------------|-----------------------------------|-----------------------------------|
A|-13-13-------------13--------------|-17-17-------------17------17--19--|-16-16-------------16--------------|
F|-------14------14------14------14--|-------17------17------17----------|-------16------16------16------16--|
C|-----------14--------------14------|-----------19----------------------|-----------16--------------16------|
G|-----------------------------------|-----------------------------------|-----------------------------------|
D|-----------------------------------|-----------------------------------|-----------------------------------|


D|-14-14-------------14----|-15-15-------------15--------------|-19-19-------------19------19--21--|
A|-------16------16--------|-------17------17------17------17--|-------20------20------20----------|
F|-----------16------------|-----------16--------------16------|-----------21----------------------|
C|-------------------------|-----------------------------------|-----------------------------------|
G|-------------------------|-----------------------------------|-----------------------------------|
D|-------------------------|-----------------------------------|-----------------------------------|


D|-18-18-------------18--------------|-21-21-------------21-----------|-17-17-------------17----------19--|
A|-------19------19------19------19--|-------23------23------23-------|-------17------17------17----------|
F|-----------18--------------18------|-----------23--------------23---|-----------17--------------17------|
C|-----------------------------------|--------------------------------|-----------------------------------|
G|-----------------------------------|--------------------------------|-----------------------------------|
D|-----------------------------------|--------------------------------|-----------------------------------|


D|-20-20-------------20------24------|-19-19-------------19--------------|-23-23-------------24----24--|
A|-------22------22------22------22--|-------19------19------19------19--|-------24------24------------|
F|-----------21----------------------|-----------20--------------20------|-----------23----------------|
C|-----------------------------------|-----------------------------------|-----------------------------|
G|-----------------------------------|-----------------------------------|-----------------------------|
D|-----------------------------------|-----------------------------------|-----------------------------|


D|-----------------|-3---------------|---------------------------|--------------------|
A|-----------------|-----------------|---------------------------|--------------------|
F|-----------3-----|------3----------|--------------12-----------|-11-----------9-----|
C|------2----------|-----------------|-2----0---0--------0---0---|------0---0---------|
G|-3---------------|-----------------|-2----0---0---10---0---0---|-9----0---0---7-----|
D|-----------------|------------2----|-0----0---0--------0---0---|------0---0---------|


D|-----------------|-3---------------|---------------------------|--------------------|
A|-----------------|-----------------|---------------------------|--------------------|
F|-----------3-----|------3----------|--------------12-----------|-11-----------9-----|
C|------2----------|-----------------|-2----0---0--------0---0---|------0---0---------|
G|-3---------------|-----------------|-2----0---0---10---0---0---|-9----0---0---7-----|
D|-----------------|------------2----|-0----0---0--------0---0---|------0---0---------|


D|-----------------|-3-----------|-3---3--------3---------|-3---------3---------|-------------|
A|-----------------|-------------|-3---3---3---------3----|-3----3---------3----|-------------|
F|-----------3-----|------3------|-0---0------------------|-0-------------------|-4-----------|
C|------2----------|-------------|-0---0------------------|-0-------------------|-4-----10----|
G|-3---------------|-------------|------------------------|---------------------|-2-----------|
D|-----------------|-------------|-3---3------------------|-3-------------------|-------------|


D|-------------|-----------------|-----------------|---------------------|-6---------------|
A|-------------|-----------------|-----------------|---------------------|------5----------|
F|-------------|-9-----9---9-----|-7-----7---7-----|---------------------|-----------3-----|
C|-9-----------|-9-----9---9-----|-7-----7---7-----|----------------2----|-----------------|
G|-------9-----|-7-----7---7-----|-5-----5---5-----|-3----3----3---------|-----------------|
D|-------------|-----------------|-----------------|---------------------|-----------------|


D|-3---3--------3---------|-3---------3---------|-------------|-------------|-------------------------------------------------|
A|-3---3---3---------3----|-3----3---------3----|-------------|-------------|-------------------------------------------------|
F|-0---0------------------|-0-------------------|-7-----7-----|-8-----8-----|-------------------------------------------------|
C|-0---0------------------|-0-------------------|-7-----7-----|-8-----8-----|-------------------------------------------------|
G|------------------------|---------------------|-5-----5-----|-6-----6-----|-------------------------------------------------|
D|-3---3------------------|-3-------------------|-5-----5-----|-6-----6-----|-0--12-10-0--10-12-0--8--0--12-7--0--5--7--0--5--|


D|-------------------------------------------------|-------------------------------------------------|
A|-------------------------------------------------|-------------------------------------------------|
F|-------------------------------------------------|-------------------------------------------------|
C|-------------------------------------------------|-------------------------------------------------|
G|-------------------------------------------------|-------------------------------------------------|
D|-0--7--3--0--2--3--0--2--0--3--0--5--0--7--2--3--|-0--12-10-0--10-12-0--8--0--12-7--0--5--7--0--5--|


D|-------------------------------------------------|-------------------------------------------------|
A|-------------------------------------------------|-------------------------------------------------|
F|-------------------------------------------------|-------------------------------------------------|
C|-------------------------------------------------|-------------------------------------------------|
G|-------------------------------------------------|-------------------------------------------------|
D|-0--7--3--0--2--3--0--2--0--3--0--5--0--7--2--3--|-0--12-10-0--10-12-0--8--0--12-7--0--5--7--0--5--|


D|-------------------------------------------------|-------------------------------------------------|
A|-------------------------------------------------|-------------------------------------------------|
F|-------------------------------------------------|-------------------------------------------------|
C|-------------------------------------------------|-------------------------------------------------|
G|-------------------------------------------------|-------------------------------------------------|
D|-0--7--3--0--2--3--0--2--0--3--0--5--0--7--2--3--|-0--12-10-0--10-12-0--8--0--12-7--0--5--7--0--5--|


D|-------------------------------------------------|--------|--------|--------|--------|
A|-------------------------------------------------|--------|--------|--------|--------|
F|-------------------------------------------------|--------|--------|--------|--------|
C|-------------------------------------------------|-2------|-2------|-2------|-2------|
G|-------------------------------------------------|-2------|-2------|-2------|-2------|
D|-0--7--3--0--2--3--0--2--0--3--0--5--0--7--2--3--|-0------|-0------|-0------|-0------|





Track 3: Keyboard (Piano)

D|--------|--------|--------|--------|--------|--------|--------|--------|--------|
A|--------|--------|--------|--------|--------|--------|--------|--------|--------|
F|--------|--------|--------|--------|--------|--------|--------|--------|--------|
C|--------|--------|--------|--------|--------|--------|--------|--------|--------|
G|--------|--------|--------|--------|--------|--------|--------|--------|--------|
D|--------|--------|--------|--------|--------|--------|--------|--------|--------|


D|--------|--------|--------|--------|--------|--------|--------|-------------|-0-----------|
A|--------|--------|--------|--------|--------|--------|--------|-1-----0-----|-0-----0-----|
F|--------|--------|--------|--------|--------|--------|--------|-0-----0-----|-0-----0-----|
C|--------|--------|--------|--------|--------|--------|--------|-2-----2-----|-2-----2-----|
G|--------|--------|--------|--------|--------|--------|--------|-2-----2-----|-2-----2-----|
D|--------|--------|--------|--------|--------|--------|--------|-0-----0-----|-0-----0-----|


D|-------------|-5-----------|-------------|-5-----------|-------------|-5---------------|
A|-1-----5-----|-5-----5-----|-1-----5-----|-5-----5-----|-------7-----|-7----------7----|
F|-2-----2-----|-2-----0-----|-2-----2-----|-2-----2-----|-8-----8-----|-8-----8----8----|
C|-2-----2-----|-2-----2-----|-2-----2-----|-2-----2-----|-7-----7-----|-7-----7----7----|
G|-2-----2-----|-2-----2-----|-0-----0-----|-0-----0-----|-6-----6-----|-6-----6----6----|
D|-0-----0-----|-0-----0-----|-------------|-------------|-------------|-----------------|


D|-------0-----|-3-----0-----|-------------|-8-----------|-------------|-5---------------|
A|-1-----0-----|-0-----0-----|-------8-----|-8-----10----|-1-----5-----|-5-----5----5----|
F|-0-----0-----|-0-----0-----|-9-----9-----|-9-----9-----|-2-----2-----|-2-----2----5----|
C|-2-----2-----|-2-----2-----|-10----10----|-10----10----|-2-----2-----|-2-----2----2----|
G|-2-----2-----|-2-----2-----|-10----10----|-10----10----|-0-----0-----|-0-----0----0----|
D|-0-----0-----|-0-----0-----|-8-----8-----|-8-----8-----|-------------|-----------------|


D|-------------|-8-----7-----|--------|--------|--------|--------|--------|--------|
A|-7-----10----|-10----8-----|--------|--------|--------|--------|--------|--------|
F|-8-----8-----|-8-----8-----|--------|--------|--------|--------|--------|--------|
C|-7-----7-----|-7-----7-----|--------|--------|--------|--------|--------|--------|
G|-6-----6-----|-6-----6-----|--------|--------|--------|--------|--------|--------|
D|-------------|-------------|--------|--------|--------|--------|--------|--------|


D|--------|--------|--------|--------|--------|--------|--------|--------|--------|
A|--------|--------|--------|--------|--------|--------|--------|--------|--------|
F|--------|--------|--------|--------|--------|--------|--------|--------|--------|
C|--------|--------|--------|--------|--------|--------|--------|--------|--------|
G|--------|--------|--------|--------|--------|--------|--------|--------|--------|
D|--------|--------|--------|--------|--------|--------|--------|--------|--------|


D|--------|--------|--------|--------|--------|--------|--------|--------|--------|
A|--------|--------|--------|--------|--------|--------|--------|--------|--------|
F|--------|--------|--------|--------|--------|--------|--------|--------|--------|
C|--------|--------|--------|--------|--------|--------|--------|--------|--------|
G|--------|--------|--------|--------|--------|--------|--------|--------|--------|
D|--------|--------|--------|--------|--------|--------|--------|--------|--------|


D|--------|--------|--------|--------|--------|--------|--------|--------|--------|
A|--------|--------|--------|--------|--------|--------|--------|--------|--------|
F|--------|--------|--------|--------|--------|--------|--------|--------|--------|
C|--------|--------|--------|--------|--------|--------|--------|--------|--------|
G|--------|--------|--------|--------|--------|--------|--------|--------|--------|
D|--------|--------|--------|--------|--------|--------|--------|--------|--------|


D|--------|--------|--------|--------|--------|--------|--------|--------|--------|
A|--------|--------|--------|--------|--------|--------|--------|--------|--------|
F|--------|--------|--------|--------|--------|--------|--------|--------|--------|
C|--------|--------|--------|--------|--------|--------|--------|--------|--------|
G|--------|--------|--------|--------|--------|--------|--------|--------|--------|
D|--------|--------|--------|--------|--------|--------|--------|--------|--------|


D|--------|--------|--------|--------|--------|--------|--------|--------|--------|
A|--------|--------|--------|--------|--------|--------|--------|--------|--------|
F|--------|--------|--------|--------|--------|--------|--------|--------|--------|
C|--------|--------|--------|--------|--------|--------|--------|--------|--------|
G|--------|--------|--------|--------|--------|--------|--------|--------|--------|
D|--------|--------|--------|--------|--------|--------|--------|--------|--------|


D|--------|--------|--------|--------|--------|--------|--------|--------|--------|
A|--------|--------|--------|--------|--------|--------|--------|--------|--------|
F|--------|--------|--------|--------|--------|--------|--------|--------|--------|
C|--------|--------|--------|--------|--------|--------|--------|--------|--------|
G|--------|--------|--------|--------|--------|--------|--------|--------|--------|
D|--------|--------|--------|--------|--------|--------|--------|--------|--------|


D|--------|--------|--------|--------|--------|--------|--------|--------|--------|
A|--------|--------|--------|--------|--------|--------|--------|--------|--------|
F|--------|--------|--------|--------|--------|--------|--------|--------|--------|
C|--------|--------|--------|--------|--------|--------|--------|--------|--------|
G|--------|--------|--------|--------|--------|--------|--------|--------|--------|
D|--------|--------|--------|--------|--------|--------|--------|--------|--------|


D|--------|--------|--------|--------|--------|--------|--------|--------|--------|
A|--------|--------|--------|--------|--------|--------|--------|--------|--------|
F|--------|--------|--------|--------|--------|--------|--------|--------|--------|
C|--------|--------|--------|--------|--------|--------|--------|--------|--------|
G|--------|--------|--------|--------|--------|--------|--------|--------|--------|
D|--------|--------|--------|--------|--------|--------|--------|--------|--------|


D|--------|--------|--------|--------|--------|--------|--------|--------|--------|
A|--------|--------|--------|--------|--------|--------|--------|--------|--------|
F|--------|--------|--------|--------|--------|--------|--------|--------|--------|
C|--------|--------|--------|--------|--------|--------|--------|--------|--------|
G|--------|--------|--------|--------|--------|--------|--------|--------|--------|
D|--------|--------|--------|--------|--------|--------|--------|--------|--------|


D|--------|--------|--------|--------|--------|--------|--------|--------|--------|
A|--------|--------|--------|--------|--------|--------|--------|--------|--------|
F|--------|--------|--------|--------|--------|--------|--------|--------|--------|
C|--------|--------|--------|--------|--------|--------|--------|--------|--------|
G|--------|--------|--------|--------|--------|--------|--------|--------|--------|
D|--------|--------|--------|--------|--------|--------|--------|--------|--------|


D|--------|--------|--------|--------|--------|--------|--------|--------|--------|
A|--------|--------|--------|--------|--------|--------|--------|--------|--------|
F|--------|--------|--------|--------|--------|--------|--------|--------|--------|
C|--------|--------|--------|--------|--------|--------|--------|--------|--------|
G|--------|--------|--------|--------|--------|--------|--------|--------|--------|
D|--------|--------|--------|--------|--------|--------|--------|--------|--------|


D|--------|--------|--------|--------|--------|--------|--------|--------|--------|
A|--------|--------|--------|--------|--------|--------|--------|--------|--------|
F|--------|--------|--------|--------|--------|--------|--------|--------|--------|
C|--------|--------|--------|--------|--------|--------|--------|--------|--------|
G|--------|--------|--------|--------|--------|--------|--------|--------|--------|
D|--------|--------|--------|--------|--------|--------|--------|--------|--------|


D|--------|--------|--------|--------|--------|--------|--------|--------|--------|
A|--------|--------|--------|--------|--------|--------|--------|--------|--------|
F|--------|--------|--------|--------|--------|--------|--------|--------|--------|
C|--------|--------|--------|--------|--------|--------|--------|--------|--------|
G|--------|--------|--------|--------|--------|--------|--------|--------|--------|
D|--------|--------|--------|--------|--------|--------|--------|--------|--------|


D|--------|--------|--------|--------|--------|--------|--------|--------|--------|
A|--------|--------|--------|--------|--------|--------|--------|--------|--------|
F|--------|--------|--------|--------|--------|--------|--------|--------|--------|
C|--------|--------|--------|--------|--------|--------|--------|--------|--------|
G|--------|--------|--------|--------|--------|--------|--------|--------|--------|
D|--------|--------|--------|--------|--------|--------|--------|--------|--------|


D|--------|--------|--------|--------|--------|--------|--------|--------|--------|
A|--------|--------|--------|--------|--------|--------|--------|--------|--------|
F|--------|--------|--------|--------|--------|--------|--------|--------|--------|
C|--------|--------|--------|--------|--------|--------|--------|--------|--------|
G|--------|--------|--------|--------|--------|--------|--------|--------|--------|
D|--------|--------|--------|--------|--------|--------|--------|--------|--------|


D|--------|--------|--------|--------|--------|--------|--------|--------|--------|
A|--------|--------|--------|--------|--------|--------|--------|--------|--------|
F|--------|--------|--------|--------|--------|--------|--------|--------|--------|
C|--------|--------|--------|--------|--------|--------|--------|--------|--------|
G|--------|--------|--------|--------|--------|--------|--------|--------|--------|
D|--------|--------|--------|--------|--------|--------|--------|--------|--------|


D|--------|--------|--------|--------|--------|--------|--------|--------|--------|
A|--------|--------|--------|--------|--------|--------|--------|--------|--------|
F|--------|--------|--------|--------|--------|--------|--------|--------|--------|
C|--------|--------|--------|--------|--------|--------|--------|--------|--------|
G|--------|--------|--------|--------|--------|--------|--------|--------|--------|
D|--------|--------|--------|--------|--------|--------|--------|--------|--------|


D|--------|--------|--------|--------|--------|--------|--------|--------|--------|
A|--------|--------|--------|--------|--------|--------|--------|--------|--------|
F|--------|--------|--------|--------|--------|--------|--------|--------|--------|
C|--------|--------|--------|--------|--------|--------|--------|--------|--------|
G|--------|--------|--------|--------|--------|--------|--------|--------|--------|
D|--------|--------|--------|--------|--------|--------|--------|--------|--------|


D|--------|--------|
A|--------|--------|
F|--------|--------|
C|--------|--------|
G|--------|--------|
D|--------|--------|





Track 4: Rhythm Right

D|--------|--------|--------|--------|--------|--------|--------|--------|--------|
A|--------|--------|--------|--------|--------|--------|--------|--------|--------|
F|--------|--------|--------|--------|--------|--------|--------|--------|--------|
C|--------|--------|--------|--------|--------|--------|--------|--------|--------|
G|--------|--------|--------|--------|--------|--------|--------|--------|--------|
D|--------|--------|--------|--------|--------|--------|--------|--------|--------|


D|--------|--------|--------|--------|--------|--------|--------|--------|--------|
A|--------|--------|--------|--------|--------|--------|--------|--------|--------|
F|--------|--------|--------|--------|--------|--------|--------|--------|--------|
C|--------|--------|--------|--------|--------|--------|--------|--------|--------|
G|--------|--------|--------|--------|--------|--------|--------|--------|--------|
D|--------|--------|--------|--------|--------|--------|--------|--------|--------|


D|--------|--------|--------|--------|--------|--------|--------|--------|--------|
A|--------|--------|--------|--------|--------|--------|--------|--------|--------|
F|--------|--------|--------|--------|--------|--------|--------|--------|--------|
C|--------|--------|--------|--------|--------|--------|--------|--------|--------|
G|--------|--------|--------|--------|--------|--------|--------|--------|--------|
D|--------|--------|--------|--------|--------|--------|--------|--------|--------|


D|--------|--------|--------|--------|--------|--------|--------|--------|--------|
A|--------|--------|--------|--------|--------|--------|--------|--------|--------|
F|--------|--------|--------|--------|--------|--------|--------|--------|--------|
C|--------|--------|--------|--------|--------|--------|--------|--------|--------|
G|--------|--------|--------|--------|--------|--------|--------|--------|--------|
D|--------|--------|--------|--------|--------|--------|--------|--------|--------|


D|--------|--------|--------|--------|--------|--------|--------|--------|-----------------|
A|--------|--------|--------|--------|--------|--------|--------|--------|-----------------|
F|--------|--------|--------|--------|--------|--------|--------|--------|-----------3-----|
C|--------|--------|--------|--------|--------|--------|--------|--------|------2----------|
G|--------|--------|--------|--------|--------|--------|--------|--------|-3---------------|
D|--------|--------|--------|--------|--------|--------|--------|--------|-----------------|


D|-3---------------|---------------------------|--------------------|--------|--------|
A|-----------------|--------------12-----------|-10-----------8-----|--------|--------|
F|------3----------|---------------------------|--------------------|--------|--------|
C|-----------------|-2----0---0---9----0---0---|-7----0---0---5-----|--------|--------|
G|-----------------|-2----0---0--------0---0---|------0---0---------|--------|--------|
D|------------2----|-0----0---0--------0---0---|------0---0---------|--------|--------|


D|--------|--------|--------|--------|--------|--------|--------|--------|--------|
A|--------|--------|--------|--------|--------|--------|--------|--------|--------|
F|--------|--------|--------|--------|--------|--------|--------|--------|--------|
C|--------|--------|--------|--------|--------|--------|--------|--------|--------|
G|--------|--------|--------|--------|--------|--------|--------|--------|--------|
D|--------|--------|--------|--------|--------|--------|--------|--------|--------|


D|--------|--------|--------|--------|--------|--------|--------|--------|--------|
A|--------|--------|--------|--------|--------|--------|--------|--------|--------|
F|--------|--------|--------|--------|--------|--------|--------|--------|--------|
C|--------|--------|--------|--------|--------|--------|--------|--------|--------|
G|--------|--------|--------|--------|--------|--------|--------|--------|--------|
D|--------|--------|--------|--------|--------|--------|--------|--------|--------|


D|--------|--------|--------|--------|--------|--------|--------|--------|--------|
A|--------|--------|--------|--------|--------|--------|--------|--------|--------|
F|--------|--------|--------|--------|--------|--------|--------|--------|--------|
C|--------|--------|--------|--------|--------|--------|--------|--------|--------|
G|--------|--------|--------|--------|--------|--------|--------|--------|--------|
D|--------|--------|--------|--------|--------|--------|--------|--------|--------|


D|--------|--------|--------|--------|--------|--------|--------|--------|--------|
A|--------|--------|--------|--------|--------|--------|--------|--------|--------|
F|--------|--------|--------|--------|--------|--------|--------|--------|--------|
C|--------|--------|--------|--------|--------|--------|--------|--------|--------|
G|--------|--------|--------|--------|--------|--------|--------|--------|--------|
D|--------|--------|--------|--------|--------|--------|--------|--------|--------|


D|--------|--------|--------|--------|--------|--------|--------|--------|-----------------|
A|--------|--------|--------|--------|--------|--------|--------|--------|-----------------|
F|--------|--------|--------|--------|--------|--------|--------|--------|-----------3-----|
C|--------|--------|--------|--------|--------|--------|--------|--------|------2----------|
G|--------|--------|--------|--------|--------|--------|--------|--------|-3---------------|
D|--------|--------|--------|--------|--------|--------|--------|--------|-----------------|


D|-3---------------|---------------------------|--------------------|--------|--------|
A|-----------------|--------------12-----------|-10-----------8-----|--------|--------|
F|------3----------|---------------------------|--------------------|--------|--------|
C|-----------------|-2----0---0---9----0---0---|-7----0---0---5-----|--------|--------|
G|-----------------|-2----0---0--------0---0---|------0---0---------|--------|--------|
D|------------2----|-0----0---0--------0---0---|------0---0---------|--------|--------|


D|--------|--------|--------|--------|--------|--------|------------------------------|
A|--------|--------|--------|--------|--------|--------|------------------------------|
F|--------|--------|--------|--------|--------|--------|------------------------------|
C|--------|--------|--------|--------|--------|--------|-------------------------2----|
G|--------|--------|--------|--------|--------|--------|-3---3---3---3---3---3--------|
D|--------|--------|--------|--------|--------|--------|------------------------------|


D|-----------------------|-3---------3---------|-3---------3---------|--------|--------|
A|-5---5---5---5---5-----|-3----3---------3----|-3----3---------3----|--------|--------|
F|-----------------------|-0-------------------|-0-------------------|--------|--------|
C|-----------------------|-0-------------------|-0-------------------|--------|--------|
G|-----------------------|---------------------|---------------------|--------|--------|
D|-----------------------|-3-------------------|-3-------------------|--------|--------|


D|--------|--------|--------|--------|--------|--------|--------|--------|--------|
A|--------|--------|--------|--------|--------|--------|--------|--------|--------|
F|--------|--------|--------|--------|--------|--------|--------|--------|--------|
C|--------|--------|--------|--------|--------|--------|--------|--------|--------|
G|--------|--------|--------|--------|--------|--------|--------|--------|--------|
D|--------|--------|--------|--------|--------|--------|--------|--------|--------|


D|--------|--------|--------|--------|--------|--------|--------|--------|--------|
A|--------|--------|--------|--------|--------|--------|--------|--------|--------|
F|--------|--------|--------|--------|--------|--------|--------|--------|--------|
C|--------|--------|--------|--------|--------|--------|--------|--------|--------|
G|--------|--------|--------|--------|--------|--------|--------|--------|--------|
D|--------|--------|--------|--------|--------|--------|--------|--------|--------|


D|--------|--------|--------|--------|--------|--------|--------|--------|--------|
A|--------|--------|--------|--------|--------|--------|--------|--------|--------|
F|--------|--------|--------|--------|--------|--------|--------|--------|--------|
C|--------|--------|--------|--------|--------|--------|--------|--------|--------|
G|--------|--------|--------|--------|--------|--------|--------|--------|--------|
D|--------|--------|--------|--------|--------|--------|--------|--------|--------|


D|--------|--------|--------|--------|--------|--------|--------|--------|--------|
A|--------|--------|--------|--------|--------|--------|--------|--------|--------|
F|--------|--------|--------|--------|--------|--------|--------|--------|--------|
C|--------|--------|--------|--------|--------|--------|--------|--------|--------|
G|--------|--------|--------|--------|--------|--------|--------|--------|--------|
D|--------|--------|--------|--------|--------|--------|--------|--------|--------|


D|--------|--------|--------|--------|--------|--------|--------|--------|--------|
A|--------|--------|--------|--------|--------|--------|--------|--------|--------|
F|--------|--------|--------|--------|--------|--------|--------|--------|--------|
C|--------|--------|--------|--------|--------|--------|--------|--------|--------|
G|--------|--------|--------|--------|--------|--------|--------|--------|--------|
D|--------|--------|--------|--------|--------|--------|--------|--------|--------|


D|--------|--------|--------|--------|--------|--------|--------|--------|--------|
A|--------|--------|--------|--------|--------|--------|--------|--------|--------|
F|--------|--------|--------|--------|--------|--------|--------|--------|--------|
C|--------|--------|--------|--------|--------|--------|--------|--------|--------|
G|--------|--------|--------|--------|--------|--------|--------|--------|--------|
D|--------|--------|--------|--------|--------|--------|--------|--------|--------|


D|--------|--------|--------|--------|--------|--------|-----------------|-3---------------|
A|--------|--------|--------|--------|--------|--------|-----------------|-----------------|
F|--------|--------|--------|--------|--------|--------|-----------3-----|------3----------|
C|--------|--------|--------|--------|--------|--------|------2----------|-----------------|
G|--------|--------|--------|--------|--------|--------|-3---------------|-----------------|
D|--------|--------|--------|--------|--------|--------|-----------------|------------2----|


D|---------------------------|--------------------|--------|--------|--------|--------|
A|--------------12-----------|-10-----------8-----|--------|--------|--------|--------|
F|---------------------------|--------------------|--------|--------|--------|--------|
C|-2----0---0---9----0---0---|-7----0---0---5-----|--------|--------|--------|--------|
G|-2----0---0--------0---0---|------0---0---------|--------|--------|--------|--------|
D|-0----0---0--------0---0---|------0---0---------|--------|--------|--------|--------|


D|--------|--------|--------|--------|--------|--------|--------|--------|--------|
A|--------|--------|--------|--------|--------|--------|--------|--------|--------|
F|--------|--------|--------|--------|--------|--------|--------|--------|--------|
C|--------|--------|--------|--------|--------|--------|--------|--------|--------|
G|--------|--------|--------|--------|--------|--------|--------|--------|--------|
D|--------|--------|--------|--------|--------|--------|--------|--------|--------|


D|--------|--------|--------|--------|--------|--------|--------|--------|--------|
A|--------|--------|--------|--------|--------|--------|--------|--------|--------|
F|--------|--------|--------|--------|--------|--------|--------|--------|--------|
C|--------|--------|--------|--------|--------|--------|--------|--------|--------|
G|--------|--------|--------|--------|--------|--------|--------|--------|--------|
D|--------|--------|--------|--------|--------|--------|--------|--------|--------|


D|--------|--------|--------|--------|
A|--------|--------|--------|--------|
F|--------|--------|--------|--------|
C|--------|--------|--------|--------|
G|--------|--------|--------|--------|
D|--------|--------|--------|--------|





Track 5: Soft Synth

D|--------|--------|--------|--------|--------|--------|--------|--------|--------|
A|--------|--------|--------|--------|--------|--------|--------|--------|--------|
F|--------|--------|--------|--------|--------|--------|--------|--------|--------|
C|--------|--------|--------|--------|--------|--------|--------|--------|--------|
G|--------|--------|--------|--------|--------|--------|--------|--------|--------|
D|--------|--------|--------|--------|--------|--------|--------|--------|--------|


D|--------|--------|--------|--------|--------|--------|--------|--------|--------|
A|--------|--------|--------|--------|--------|--------|--------|--------|--------|
F|--------|--------|--------|--------|--------|--------|--------|--------|--------|
C|--------|--------|--------|--------|--------|--------|--------|--------|--------|
G|--------|--------|--------|--------|--------|--------|--------|--------|--------|
D|--------|--------|--------|--------|--------|--------|--------|--------|--------|


D|--------|--------|--------|--------|--------|--------|--------|--------|--------|
A|--------|--------|--------|--------|--------|--------|--------|--------|--------|
F|--------|--------|--------|--------|--------|--------|--------|--------|--------|
C|--------|--------|--------|--------|--------|--------|--------|--------|--------|
G|--------|--------|--------|--------|--------|--------|--------|--------|--------|
D|--------|--------|--------|--------|--------|--------|--------|--------|--------|


D|--------|--------|--------|--------|--------|--------|--------|--------|--------|
A|--------|--------|--------|--------|--------|--------|--------|--------|--------|
F|--------|--------|--------|--------|--------|--------|--------|--------|--------|
C|--------|--------|--------|--------|--------|--------|--------|--------|--------|
G|--------|--------|--------|--------|--------|--------|--------|--------|--------|
D|--------|--------|--------|--------|--------|--------|--------|--------|--------|


D|--------|--------|--------|--------|--------|--------|--------|--------|--------|
A|--------|--------|--------|--------|--------|--------|--------|--------|--------|
F|--------|--------|--------|--------|--------|--------|--------|--------|--------|
C|--------|--------|--------|--------|--------|--------|--------|--------|--------|
G|--------|--------|--------|--------|--------|--------|--------|--------|--------|
D|--------|--------|--------|--------|--------|--------|--------|--------|--------|


D|--------|--------|--------|--------|--------|--------|--------|--------|--------|
A|--------|--------|--------|--------|--------|--------|--------|--------|--------|
F|--------|--------|--------|--------|--------|--------|--------|--------|--------|
C|--------|--------|--------|--------|--------|--------|--------|--------|--------|
G|--------|--------|--------|--------|--------|--------|--------|--------|--------|
D|--------|--------|--------|--------|--------|--------|--------|--------|--------|


D|--------|--------|--------|--------|--------|--------|--------|--------|--------|
A|--------|--------|--------|--------|--------|--------|--------|--------|--------|
F|--------|--------|--------|--------|--------|--------|--------|--------|--------|
C|--------|--------|--------|--------|--------|--------|--------|--------|--------|
G|--------|--------|--------|--------|--------|--------|--------|--------|--------|
D|--------|--------|--------|--------|--------|--------|--------|--------|--------|


D|--------|--------|--------|--------|-0------|--------|-0------|--------|-5------|
A|--------|--------|--------|-0------|-0------|-1------|-1------|-5------|-5------|
F|--------|--------|--------|-0------|-0------|-2------|-2------|-5------|-5------|
C|--------|--------|--------|-2------|-2------|-2------|-2------|-7------|-7------|
G|--------|--------|--------|--------|--------|--------|--------|-0------|-0------|
D|--------|--------|--------|-0------|-0------|-0------|-0------|--------|--------|


D|--------|-5------|--------|-3------|--------|-8------|--------|-5------|--------|
A|-7------|-7------|-0------|-0------|--------|--------|-1------|-5------|-7------|
F|-8------|-8------|-0------|-0------|-9------|-9------|-2------|-2------|-8------|
C|-7------|-7------|-2------|-2------|-10-----|-10-----|-2------|-2------|-7------|
G|-6------|-6------|--------|--------|-10-----|-10-----|-0------|-0------|-6------|
D|--------|--------|-0------|-0------|-8------|-8------|--------|--------|--------|


D|-5------|--------|--------|--------|--------|--------|--------|--------|--------|
A|-7------|--------|--------|--------|--------|--------|--------|--------|--------|
F|-8------|--------|--------|--------|--------|--------|--------|--------|--------|
C|-7------|--------|--------|--------|--------|--------|--------|--------|--------|
G|-6------|--------|--------|--------|--------|--------|--------|--------|--------|
D|--------|--------|--------|--------|--------|--------|--------|--------|--------|


D|--------|--------|--------|--------|--------|--------|--------|--------|--------|
A|--------|--------|--------|--------|--------|--------|--------|--------|--------|
F|--------|--------|--------|--------|--------|--------|--------|--------|--------|
C|--------|--------|--------|--------|--------|--------|--------|--------|--------|
G|--------|--------|--------|--------|--------|--------|--------|--------|--------|
D|--------|--------|--------|--------|--------|--------|--------|--------|--------|


D|--------|--------|--------|--------|--------|--------|--------|--------|--------|
A|--------|--------|--------|--------|--------|--------|--------|--------|--------|
F|--------|--------|--------|--------|--------|--------|--------|--------|--------|
C|--------|--------|--------|--------|--------|--------|--------|--------|--------|
G|--------|--------|--------|--------|--------|--------|--------|--------|--------|
D|--------|--------|--------|--------|--------|--------|--------|--------|--------|


D|--------|--------|--------|--------|--------|--------|--------|--------|--------|
A|--------|--------|--------|--------|--------|--------|--------|--------|--------|
F|--------|--------|--------|--------|--------|--------|--------|--------|--------|
C|--------|--------|--------|--------|--------|--------|--------|--------|--------|
G|--------|--------|--------|--------|--------|--------|--------|--------|--------|
D|--------|--------|--------|--------|--------|--------|--------|--------|--------|


D|--------|--------|--------|--------|--------|--------|--------|--------|--------|
A|--------|--------|--------|--------|--------|--------|--------|--------|--------|
F|--------|--------|--------|--------|--------|--------|--------|--------|--------|
C|--------|--------|--------|--------|--------|--------|--------|--------|--------|
G|--------|--------|--------|--------|--------|--------|--------|--------|--------|
D|--------|--------|--------|--------|--------|--------|--------|--------|--------|


D|--------|--------|--------|--------|--------|--------|--------|--------|--------|
A|--------|--------|--------|--------|--------|--------|--------|--------|--------|
F|--------|--------|--------|--------|--------|--------|--------|--------|--------|
C|--------|--------|--------|--------|--------|--------|--------|--------|--------|
G|--------|--------|--------|--------|--------|--------|--------|--------|--------|
D|--------|--------|--------|--------|--------|--------|--------|--------|--------|


D|--------|--------|--------|--------|--------|--------|--------|--------|--------|
A|--------|--------|--------|--------|--------|--------|--------|--------|--------|
F|--------|--------|--------|--------|--------|--------|--------|--------|--------|
C|--------|--------|--------|--------|--------|--------|--------|--------|--------|
G|--------|--------|--------|--------|--------|--------|--------|--------|--------|
D|--------|--------|--------|--------|--------|--------|--------|--------|--------|


D|--------|--------|--------|--------|--------|--------|--------|--------|--------|
A|--------|--------|--------|--------|--------|--------|--------|--------|--------|
F|--------|--------|--------|--------|--------|--------|--------|--------|--------|
C|--------|--------|--------|--------|--------|--------|--------|--------|--------|
G|--------|--------|--------|--------|--------|--------|--------|--------|--------|
D|--------|--------|--------|--------|--------|--------|--------|--------|--------|


D|--------|--------|--------|--------|--------|--------|--------|--------|--------|
A|--------|--------|--------|--------|--------|--------|--------|--------|--------|
F|--------|--------|--------|--------|--------|--------|--------|--------|--------|
C|--------|--------|--------|--------|--------|--------|--------|--------|--------|
G|--------|--------|--------|--------|--------|--------|--------|--------|--------|
D|--------|--------|--------|--------|--------|--------|--------|--------|--------|


D|--------|--------|--------|--------|--------|--------|--------|--------|--------|
A|--------|--------|--------|--------|--------|--------|--------|--------|--------|
F|--------|--------|--------|--------|--------|--------|--------|--------|--------|
C|--------|--------|--------|--------|--------|--------|--------|--------|--------|
G|--------|--------|--------|--------|--------|--------|--------|--------|--------|
D|--------|--------|--------|--------|--------|--------|--------|--------|--------|


D|--------|--------|--------|--------|--------|--------|--------|--------|--------|
A|--------|--------|--------|--------|--------|--------|--------|--------|--------|
F|--------|--------|--------|--------|--------|--------|--------|--------|--------|
C|--------|--------|--------|--------|--------|--------|--------|--------|--------|
G|--------|--------|--------|--------|--------|--------|--------|--------|--------|
D|--------|--------|--------|--------|--------|--------|--------|--------|--------|


D|--------|--------|--------|--------|--------|--------|--------|--------|--------|
A|--------|--------|--------|--------|--------|--------|--------|--------|--------|
F|--------|--------|--------|--------|--------|--------|--------|--------|--------|
C|--------|--------|--------|--------|--------|--------|--------|--------|--------|
G|--------|--------|--------|--------|--------|--------|--------|--------|--------|
D|--------|--------|--------|--------|--------|--------|--------|--------|--------|


D|--------|--------|--------|--------|--------|--------|--------|--------|--------|
A|--------|--------|--------|--------|--------|--------|--------|--------|--------|
F|--------|--------|--------|--------|--------|--------|--------|--------|--------|
C|--------|--------|--------|--------|--------|--------|--------|--------|--------|
G|--------|--------|--------|--------|--------|--------|--------|--------|--------|
D|--------|--------|--------|--------|--------|--------|--------|--------|--------|


D|--------|--------|--------|--------|
A|--------|--------|--------|--------|
F|--------|--------|--------|--------|
C|--------|--------|--------|--------|
G|--------|--------|--------|--------|
D|--------|--------|--------|--------|





Track 6: Bass

A#|--------|--------|--------|--------|--------|--------|--------|--------|-------------------------------------------------|
 F|--------|--------|--------|--------|--------|--------|--------|--------|-------------------------------------------------|
 C|--------|--------|--------|--------|--------|--------|--------|--------|-------------------------------------------------|
 G|--------|--------|--------|--------|--------|--------|--------|--------|-------------------------------------------------|
 D|--------|--------|--------|--------|--------|--------|--------|--------|-0--12-10-0--10-12-0--8--0--12-7--0--5--7--0--5--|
 A|--------|--------|--------|--------|--------|--------|--------|--------|-------------------------------------------------|


A#|-------------------------------------------------|-------------------------------------------------|
 F|-------------------------------------------------|-------------------------------------------------|
 C|-------------------------------------------------|-------------------------------------------------|
 G|-------------------------------------------------|-------------------------------------------------|
 D|-0--7--3--0--2--3--0--2--0--3--0--5--0--7--2--3--|-0--12-10-0--10-12-0--8--0--12-7--0--5--7--0--5--|
 A|-------------------------------------------------|-------------------------------------------------|


A#|-------------------------------------------------|-------------------------------------------------|
 F|-------------------------------------------------|-------------------------------------------------|
 C|-------------------------------------------------|-------------------------------------------------|
 G|-------------------------------------------------|-------------------------------------------------|
 D|-0--7--3--0--2--3--0--2--0--3--0--5--0--7--2--3--|-0--12-10-0--10-12-0--8--0--12-7--0--5--7--0--5--|
 A|-------------------------------------------------|-------------------------------------------------|


A#|-------------------------------------------------|-------------------------------------------------|
 F|-------------------------------------------------|-------------------------------------------------|
 C|-------------------------------------------------|-------------------------------------------------|
 G|-------------------------------------------------|-------------------------------------------------|
 D|-0--7--3--0--2--3--0--2--0--3--0--5--0--7--2--3--|-0--12-10-0--10-12-0--8--0--12-7--0--5--7--0--5--|
 A|-------------------------------------------------|-------------------------------------------------|


A#|-------------------------------------------------|-------------------------------------|
 F|-------------------------------------------------|-------------------------------------|
 C|-------------------------------------------------|-------------------------------------|
 G|-------------------------------------------------|-7--7--7--7-----7--7--7-----7--7-----|
 D|-0--7--3--0--2--3--0--2--0--3--0--5--0--7--2--3--|-------------------------------------|
 A|-------------------------------------------------|-------------------------------------|


A#|---------------------------------------------|---------------------------------------------|
 F|---------------------------------------------|---------------------------------------------|
 C|---------------------------------------------|---------------------------------------------|
 G|-7--7--7--7-----7--7--7-----7--7-------7--7--|-7--7--7--7-----7--7--7-----7--7-------7--7--|
 D|---------------------------------------------|---------------------------------------------|
 A|---------------------------------------------|---------------------------------------------|


A#|---------------------------------------------|---------------------------------------------|
 F|---------------------------------------------|---------------------------------------------|
 C|---------------------------------------------|---------------------------------------------|
 G|-7--7--7--7-----7--7--7-----7--7-------7--7--|-0--0--0--0-----0--0--0-----0--0-------0--0--|
 D|---------------------------------------------|---------------------------------------------|
 A|---------------------------------------------|---------------------------------------------|


A#|---------------------------------------------|---------------------------------------------|
 F|---------------------------------------------|---------------------------------------------|
 C|---------------------------------------------|---------------------------------------------|
 G|-0--0--0--0-----0--0--0-----0--0-------0--0--|-6--6--6--6-----6--6--6-----6--6-------6--6--|
 D|---------------------------------------------|---------------------------------------------|
 A|---------------------------------------------|---------------------------------------------|


A#|---------------------------------------------|---------------------------------------------|
 F|---------------------------------------------|---------------------------------------------|
 C|---------------------------------------------|---------------------------------------------|
 G|-6--6--6--6-----6--6--6-----6--6-------6--6--|-7--7--7--7-----7--7--7-----7--7-------7--7--|
 D|---------------------------------------------|---------------------------------------------|
 A|---------------------------------------------|---------------------------------------------|


A#|---------------------------------------------|---------------------------------------------|
 F|---------------------------------------------|---------------------------------------------|
 C|---------------------------------------------|---------------------------------------------|
 G|-7--7--7--7-----7--7--7-----7--7-------7--7--|-3--3--3--3-----3--3--3-----3--3-------3--3--|
 D|---------------------------------------------|---------------------------------------------|
 A|---------------------------------------------|---------------------------------------------|


A#|---------------------------------------------|---------------------------------------------|
 F|---------------------------------------------|---------------------------------------------|
 C|---------------------------------------------|---------------------------------------------|
 G|-3--3--3--3-----3--3--3-----3--3-------3--3--|-0--0--0--0-----0--0--0-----0--0-------0--0--|
 D|---------------------------------------------|---------------------------------------------|
 A|---------------------------------------------|---------------------------------------------|


A#|---------------------------------------------|---------------------------------------------|
 F|---------------------------------------------|---------------------------------------------|
 C|---------------------------------------------|---------------------------------------------|
 G|-0--0--0--0-----0--0--0-----0--0-------0--0--|-6--6--6--6-----6--6--6-----6--6-------6--6--|
 D|---------------------------------------------|---------------------------------------------|
 A|---------------------------------------------|---------------------------------------------|


A#|---------------------------------------------|---------------------------------------------|
 F|---------------------------------------------|---------------------------------------------|
 C|---------------------------------------------|---------------------------------------------|
 G|-6--6--6--6-----6--6--6-----6--6-------6--6--|---------------------------------------------|
 D|---------------------------------------------|-0--0--0--0-----0--0--0-----0--0-------0--0--|
 A|---------------------------------------------|---------------------------------------------|


A#|---------------------------------------------|---------------------------------------------|
 F|---------------------------------------------|---------------------------------------------|
 C|---------------------------------------------|---------------------------------------------|
 G|---------------------------------------------|---------------------------------------------|
 D|-0--0--0--0-----0--0--0-----0--0-------0--0--|-2--2--2--2-----2--2--2-----2--2-------2--2--|
 A|---------------------------------------------|---------------------------------------------|


A#|---------------------------------------------|---------------------------------------------|
 F|---------------------------------------------|---------------------------------------------|
 C|---------------------------------------------|-7--7--7--7-----7--7--7-----7--7-------7--7--|
 G|---------------------------------------------|---------------------------------------------|
 D|-2--2--2--2-----2--2--2-----2--2-------2--2--|---------------------------------------------|
 A|---------------------------------------------|---------------------------------------------|


A#|---------------------------------------------|-------------------------------------------|
 F|---------------------------------------------|---------------------------------------11--|
 C|-7--7--7--7-----7--7--7-----7--7-------7--7--|-9--9--9--9-----9--9--9-----9--9-----------|
 G|---------------------------------------------|-------------------------------------------|
 D|---------------------------------------------|-------------------------------------------|
 A|---------------------------------------------|-------------------------------------------|


A#|-11---11-----------11---|---------------------------------|---------------------------------|
 F|----------11------------|---------------------------------|---------------------------------|
 C|---------------9--------|---------------------------------|---------------------------------|
 G|------------------------|-3---3---3---3---3---3---3---3---|-3---3---3---3---3---3---3---3---|
 D|------------------------|---------------------------------|---------------------------------|
 A|------------------------|---------------------------------|---------------------------------|


A#|---------------------------------|------------------------------|---------------------------------|
 F|---------------------------------|-----------------9---9---7----|---------------------------------|
 C|---------------------------------|-------------9----------------|---------------------------------|
 G|---------------------------------|-7---7---7--------------------|-3---3---3---3---3---3---3---3---|
 D|-0---0---0---0---0---0---0---7---|------------------------------|---------------------------------|
 A|---------------------------------|------------------------------|---------------------------------|


A#|---------------------------------|---------------------------------|------------------------------|
 F|---------------------------------|---------------------------------|------------------------------|
 C|---------------------------------|---------------------------------|------------------------------|
 G|-3---3---3---3---3---3---3---3---|---------------------------------|-7---7---7---5---5---7---7----|
 D|---------------------------------|-0---0---0---0---0---0---0---7---|------------------------------|
 A|---------------------------------|---------------------------------|------------------------------|


A#|---------------------------------|---------------------------------|---------------------------------|
 F|---------------------------------|---------------------------------|---------------------------------|
 C|---------------------------------|---------------------------------|---------------------------------|
 G|-3---3---3---3---3---3---3---3---|-3---3---3---3---3---3---3---3---|---------------------------------|
 D|---------------------------------|---------------------------------|-3---3---3---3---3---3---3---3---|
 A|---------------------------------|---------------------------------|---------------------------------|


A#|---------------------------------|---------------------------------|---------------------------------|
 F|---------------------------------|---------------------------------|---------------------------------|
 C|---------------------------------|---------------------------------|---------------------------------|
 G|---------------------------------|-2---2---2---2---2---2---2---2---|-2---2---2---2---2---2---2---2---|
 D|-3---3---3---3---3---3---3---3---|---------------------------------|---------------------------------|
 A|---------------------------------|---------------------------------|---------------------------------|


A#|---------------------------------|---------------------------------|---------------------------------|
 F|---------------------------------|---------------------------------|---------------------------------|
 C|-2---2---2---2---2---2---2---2---|---------------------------------|---------------------------------|
 G|---------------------------------|-5---5---5---5---5---5---5---5---|-3---3---3---3---3---3---3---3---|
 D|---------------------------------|---------------------------------|---------------------------------|
 A|---------------------------------|---------------------------------|---------------------------------|


A#|---------------------------------|---------------------------------|---------------------------------|
 F|---------------------------------|---------------------------------|---------------------------------|
 C|---------------------------------|---------------------------------|---------------------------------|
 G|-3---3---3---3---3---3---3---3---|---------------------------------|---------------------------------|
 D|---------------------------------|-3---3---3---3---3---3---3---3---|-3---3---3---3---3---3---3---3---|
 A|---------------------------------|---------------------------------|---------------------------------|


A#|---------------------------------|---------------------------------|-------------------------------------------------|
 F|---------------------------------|---------------------------------|-------------------------------------------------|
 C|---------------------------------|---------------------------------|-------------------------------------------------|
 G|-5---5---5---5---5---5---5---5---|-6---6---6---6---6---6---6---6---|-------------------------------------------------|
 D|---------------------------------|---------------------------------|-0--12-10-0--10-12-0--8--0--12-7--0--5--7--0--5--|
 A|---------------------------------|---------------------------------|-------------------------------------------------|


A#|-------------------------------------------------|-------------------------------------------------|
 F|-------------------------------------------------|-------------------------------------------------|
 C|-------------------------------------------------|-------------------------------------------------|
 G|-------------------------------------------------|-------------------------------------------------|
 D|-0--7--3--0--2--3--0--2--0--3--0--5--0--7--2--3--|-0--12-10-0--10-12-0--8--0--12-7--0--5--7--0--5--|
 A|-------------------------------------------------|-------------------------------------------------|


A#|-------------------------------------------------|-------------------------------------------------|
 F|-------------------------------------------------|-------------------------------------------------|
 C|-------------------------------------------------|-------------------------------------------------|
 G|-------------------------------------------------|-7--7--7--7--7--7--7--7--7--7--7--7--7--7--7--7--|
 D|-0--7--3--0--2--3--0--2--0--3--0--5--0--7--2--3--|-------------------------------------------------|
 A|-------------------------------------------------|-------------------------------------------------|


A#|-------------------------------------------------|-------------------------------------------------|
 F|-------------------------------------------------|-------------------------------------------------|
 C|-9--9--9--9--9--9--9--9--9--9--9--9--9--9--9--9--|-------------------------------------------------|
 G|-------------------------------------------------|-7--7--7--7--7--7--7--7--7--7--7--7--7--7--7--7--|
 D|-------------------------------------------------|-------------------------------------------------|
 A|-------------------------------------------------|-------------------------------------------------|


A#|-------------------------------------------------|-------------------------------------------------|
 F|-------------------------------------------------|-------------------------------------------------|
 C|-10-10-10-10-10-10-10-10-10-10-10-10-10-10-10-10-|-7--7--7--7--7--7--7--7--7--7--7--7--7--7--7--7--|
 G|-------------------------------------------------|-------------------------------------------------|
 D|-------------------------------------------------|-------------------------------------------------|
 A|-------------------------------------------------|-------------------------------------------------|


A#|-------------------------------------------------|-------------------------------------------------|
 F|-------------------------------------------------|-------------------------------------------------|
 C|-------------------------------------------------|-------------------------10-10-10-10-10-10-10-10-|
 G|-7--7--7--7--7--7--7--7--7--7--7--7--7--7--7--7--|-6--6--6--6--6--6--6--6--------------------------|
 D|-------------------------------------------------|-------------------------------------------------|
 A|-------------------------------------------------|-------------------------------------------------|


A#|-------------------------------------------------|-------------------------------------------------|
 F|-------------------------------------------------|-------------------------------------------------|
 C|-9--9--9--9--9--9--9--9--------------------------|-------------------------------------------------|
 G|-------------------------6--6--6--6--6--6--6--6--|-7--7--7--7--7--7--7--7--7--7--7--7--7--7--7--7--|
 D|-------------------------------------------------|-------------------------------------------------|
 A|-------------------------------------------------|-------------------------------------------------|


A#|-------------------------------------------------|-------------------------------------------------|
 F|-------------------------------------------------|-------------------------------------------------|
 C|-9--9--9--9--9--9--9--9--9--9--9--9--9--9--9--9--|-------------------------------------------------|
 G|-------------------------------------------------|-3--3--3--3--3--3--3--3--3--3--3--3--3--3--3--3--|
 D|-------------------------------------------------|-------------------------------------------------|
 A|-------------------------------------------------|-------------------------------------------------|


A#|-------------------------------------------------|-------------------------------------------------|
 F|-------------------------------------------------|-------------------------------------------------|
 C|-10-10-10-10-10-10-10-10-10-10-10-10-10-10-10-10-|-7--7--7--7--7--7--7--7--7--7--7--7--7--7--7--7--|
 G|-------------------------------------------------|-------------------------------------------------|
 D|-------------------------------------------------|-------------------------------------------------|
 A|-------------------------------------------------|-------------------------------------------------|


A#|-------------------------------------------------|-------------------------------------------------|
 F|-------------------------------------------------|-------------------------------------------------|
 C|-------------------------------------------------|-------------------------10-10-10-10-10-10-10-10-|
 G|-7--7--7--7--7--7--7--7--7--7--7--7--7--7--9--9--|-6--6--6--6--6--6--6--6--------------------------|
 D|-------------------------------------------------|-------------------------------------------------|
 A|-------------------------------------------------|-------------------------------------------------|


A#|-------------------------------------------------|-------------------------------------------------|
 F|-------------------------------------------------|-------------------------------------------------|
 C|-9--9--9--9--9--9--9--9--------------------------|-------------------------------------------------|
 G|-------------------------6--6--6--6--6--6--6--6--|-7--7--7--7--7--7--7--7--7--7--7--7--7--7--7--7--|
 D|-------------------------------------------------|-------------------------------------------------|
 A|-------------------------------------------------|-------------------------------------------------|


A#|-------------------------------------------------|-------------------------------------------------|
 F|-------------------------------------------------|-------------------------------------------------|
 C|-9--9--9--9--9--9--9--9--9--9--9--9--9--9--9--9--|-4--4--4--4--4--4--4--4--4--4--4--4--4--4--4--4--|
 G|-------------------------------------------------|-------------------------------------------------|
 D|-------------------------------------------------|-------------------------------------------------|
 A|-------------------------------------------------|-------------------------------------------------|


A#|-------------------------------------------------|-------------------------------------------------|
 F|-------------------------------------------------|-------------------------------------------------|
 C|-8--8--8--8--8--8--8--8--8--8--8--8--8--8--8--8--|-7--7--7--7--7--7--7--7--7--7--7--7--7--7--7--7--|
 G|-------------------------------------------------|-------------------------------------------------|
 D|-------------------------------------------------|-------------------------------------------------|
 A|-------------------------------------------------|-------------------------------------------------|


A#|-------------------------------------------------|-------------------------------------------------|
 F|-------------------------------------------------|-------------------------------------------11-11-|
 C|-10-10-10-10-10-10-10-10-10-10-10-10-10-10-10-10-|-9--9--9--9--9--9--9--9--9--9--9--9--9--9--------|
 G|-------------------------------------------------|-------------------------------------------------|
 D|-------------------------------------------------|-------------------------------------------------|
 A|-------------------------------------------------|-------------------------------------------------|


A#|-11-11-11-11-11-11-11-11-11-11-11-11-11-11-11--|---------------------------------|
 F|-----------------------------------------------|---------------------------------|
 C|-----------------------------------------------|---------------------------------|
 G|-----------------------------------------------|-3---3---3---3---3---3---3---3---|
 D|-----------------------------------------------|---------------------------------|
 A|-----------------------------------------------|---------------------------------|


A#|---------------------------------|---------------------------------|------------------------------|
 F|---------------------------------|---------------------------------|------------------------------|
 C|---------------------------------|---------------------------------|------------------------------|
 G|-3---3---3---3---3---3---3---3---|---------------------------------|-7---7---7---5---5---7---7----|
 D|---------------------------------|-0---0---0---0---0---0---0---7---|------------------------------|
 A|---------------------------------|---------------------------------|------------------------------|


A#|---------------------------------|---------------------------------|---------------------------------|
 F|---------------------------------|---------------------------------|---------------------------------|
 C|---------------------------------|---------------------------------|---------------------------------|
 G|-3---3---3---3---3---3---3---3---|-3---3---3---3---3---3---3---3---|---------------------------------|
 D|---------------------------------|---------------------------------|-0---0---0---0---0---0---0---0---|
 A|---------------------------------|---------------------------------|---------------------------------|


A#|---------------------------|---------------------------------|---------------------------------|
 F|----------------------9----|---------------------------------|---------------------------------|
 C|------------------9--------|---------------------------------|---------------------------------|
 G|-7---5---7----7------------|-3---3---3---3---3---3---3---3---|-3---3---3---3---3---3---3---3---|
 D|---------------------------|---------------------------------|---------------------------------|
 A|---------------------------|---------------------------------|---------------------------------|


A#|---------------------------------|---------------------------------|---------------------------------|
 F|---------------------------------|---------------------------------|---------------------------------|
 C|---------------------------------|---------------------------------|---------------------------------|
 G|---------------------------------|---------------------------------|-2---2---2---2---2---2---2---2---|
 D|-3---3---3---3---3---3---3---3---|-3---3---3---3---3---3---3---3---|---------------------------------|
 A|---------------------------------|---------------------------------|---------------------------------|


A#|---------------------------------|------------------------------|---------------------------------|
 F|---------------------------------|-------------------------9----|---------------------7-----------|
 C|---------------------------------|---------------------9--------|-------------------------7-------|
 G|-2---2---2---2---2---2---2---2---|-7---7---7---7---7------------|-5---5---5---5---5-----------5---|
 D|---------------------------------|------------------------------|---------------------------------|
 A|---------------------------------|------------------------------|---------------------------------|


A#|---------------------------------|---------------------------------|---------------------------------|
 F|---------------------------------|---------------------------------|---------------------------------|
 C|---------------------------------|---------------------------------|---------------------------------|
 G|-3---3---3---3---3---3---3---3---|-3---3---3---3---3---3---3---3---|---------------------------------|
 D|---------------------------------|---------------------------------|-3---3---3---3---3---3---3---3---|
 A|---------------------------------|---------------------------------|---------------------------------|


A#|---------------------------------|---------------------------------|------------------------------|
 F|---------------------------------|---------------------------------|------------------------------|
 C|---------------------------------|---------------------------------|-----------------13--13--13---|
 G|---------------------------------|-5---5---5---5---5---5---5---5---|-6---6---6---6----------------|
 D|-3---3---3---3---3---3---3---3---|---------------------------------|------------------------------|
 A|---------------------------------|---------------------------------|------------------------------|


A#|-------------|--------|--------|----------------|-------------|--------------|-------------|
 F|-------------|--------|--------|----------------|-------------|--------------|-------------|
 C|-------------|--------|--------|----------------|-------------|--------------|-------------|
 G|-------------|--------|--------|----------------|-------------|--------------|-------------|
 D|-12----------|--------|--------|------------7---|-12----12----|-----------10-|-12----------|
 A|-------------|--------|--------|----------------|-------------|--------------|-------------|


A#|--------|-------------|-------------|-------------|-------------|-------------|
 F|--------|-------------|-------------|-------------|-------------|-------------|
 C|--------|-------------|-------------|-------------|-------------|-------------|
 G|--------|-------------|-10-----10---|-------------|-10-----10---|-3------3----|
 D|--------|-3------3----|-------------|-3------3----|-------------|-------------|
 A|--------|-------------|-------------|-------------|-------------|-------------|


A#|-------------|-------------|-------------|-------------|-------------|-------------|
 F|-------------|-------------|-11-----11---|-------------|-------------|-------------|
 C|-10-----10---|-4------4----|-------------|-------------|-------------|-------------|
 G|-------------|-------------|-------------|-------------|-10-----10---|-------------|
 D|-------------|-------------|-------------|-3------3----|-------------|-5------5----|
 A|-------------|-------------|-------------|-------------|-------------|-------------|


A#|-------------|-------------|-------------|-------------|-------------|--------|
 F|-------------|-------------|-------------|-------------|-------------|--------|
 C|-------------|-------------|-10-----10---|-------------|-12-----12---|--------|
 G|-12-----12---|-3------3----|-------------|-5------5----|-------------|--------|
 D|-------------|-------------|-------------|-------------|-------------|-3------|
 A|-------------|-------------|-------------|-------------|-------------|--------|


A#|-------------|--------|-------------|--------|-------------|-------------|-------------|
 F|-------------|--------|-------------|--------|-------------|-------------|-11-----11---|
 C|-------------|--------|-------------|--------|-10-----10---|-4------4----|-------------|
 G|-10-----10---|--------|-10-----10---|-3------|-------------|-------------|-------------|
 D|-------------|-3------|-------------|--------|-------------|-------------|-------------|
 A|-------------|--------|-------------|--------|-------------|-------------|-------------|


A#|--------|-------------|--------|-------------|--------|-------------|--------|-------------|
 F|--------|-------------|--------|-------------|--------|-------------|--------|-------------|
 C|--------|-------------|--------|-------------|--------|-10-----10---|-12-----|-12-----12---|
 G|--------|-10-----10---|--------|-12-----12---|-3------|-------------|--------|-------------|
 D|-3------|-------------|-5------|-------------|--------|-------------|--------|-------------|
 A|--------|-------------|--------|-------------|--------|-------------|--------|-------------|


A#|---------------------------------|---------------------------------|---------------------------------|
 F|---------------------------------|---------------------------------|---------------------------------|
 C|---------------------------------|---------------------------------|---------------------------------|
 G|-7---7---7---7---7---7---7---7---|-7---7---7---7---7---7---7---7---|-----------------------------4---|
 D|---------------------------------|---------------------------------|-2---2---2---2---2---2---2-------|
 A|---------------------------------|---------------------------------|---------------------------------|


A#|---------------------------------|---------------------------------|---------------------------------|
 F|---------------------------------|---------------------------------|---------------------------------|
 C|-4---4---4---4---4---4---4---4---|-7---7---7---7---7---7---7---7---|---------------------------------|
 G|---------------------------------|---------------------------------|-0---0---0---0---0---0---0---0---|
 D|---------------------------------|---------------------------------|---------------------------------|
 A|---------------------------------|---------------------------------|---------------------------------|


A#|---------------------------------|---------------------------------|---------------------------------|
 F|---------------------------------|---------------------------------|---------------------------------|
 C|---------------------------------|-9---9---9---9---9---9---9---9---|---------------------------------|
 G|-2---2---2---2---2---2---2---2---|---------------------------------|-7---7---7---7---7---7---7---7---|
 D|---------------------------------|---------------------------------|---------------------------------|
 A|---------------------------------|---------------------------------|---------------------------------|


A#|---------------------------------|---------------------------------|---------------------------------|
 F|---------------------------------|---------------------------------|---------------------------------|
 C|---------------------------------|---------------------------------|-4---4---4---4---4---4---4---4---|
 G|-7---7---7---7---7---7---7---7---|-----------------------------4---|---------------------------------|
 D|---------------------------------|-2---2---2---2---2---2---2-------|---------------------------------|
 A|---------------------------------|---------------------------------|---------------------------------|


A#|---------------------------------|---------------------------------|---------------------------------|
 F|---------------------------------|---------------------------------|---------------------------------|
 C|-7---7---7---7---7---7---7---7---|---------------------------------|---------------------------------|
 G|---------------------------------|-0---0---0---0---0---0---0---0---|-2---2---2---2---2---2---2---2---|
 D|---------------------------------|---------------------------------|---------------------------------|
 A|---------------------------------|---------------------------------|---------------------------------|


A#|-----------------11--11--11---|---------------------------------|---------------------------------|
 F|-------------11---------------|---------------------------------|---------------------------------|
 C|-9---9---9--------------------|---------------------------------|---------------------------------|
 G|------------------------------|-3---3---3---3---3---3---3---3---|-3---3---3---3---3---3---3---3---|
 D|------------------------------|---------------------------------|---------------------------------|
 A|------------------------------|---------------------------------|---------------------------------|


A#|---------------------------------|---------------------------------|---------------------------------|
 F|---------------------------------|---------------------------------|---------------------------------|
 C|---------------------------------|---------------------------------|---------------------------------|
 G|---------------------------------|---------7---7---7---5---5---7---|-3---3---3---3---3---3---3---3---|
 D|-0---0---0---0---0---0---0---0---|-0---7---------------------------|---------------------------------|
 A|---------------------------------|---------------------------------|---------------------------------|


A#|---------------------------------|---------------------------------|---------------------------------|
 F|---------------------------------|---------------------------------|---------------------9---7---9---|
 C|---------------------------------|---------------------------------|-------------7---9---------------|
 G|-3---3---3---3---3---3---3---3---|---------------------------------|-7---7---7-----------------------|
 D|---------------------------------|-0---0---0---0---0---0---0---0---|---------------------------------|
 A|---------------------------------|---------------------------------|---------------------------------|


A#|---------------------------------|---------------------------------|---------------------------------|
 F|---------------------------------|---------------------------------|---------------------------------|
 C|---------------------------------|---------------------------------|---------------------------------|
 G|-3---3---3---3---3---3---3---3---|-3---3---3---3---3---3---3---3---|---------------------------------|
 D|---------------------------------|---------------------------------|-3---3---3---3---3---3---3---3---|
 A|---------------------------------|---------------------------------|---------------------------------|


A#|---------------------------------|---------------------------------|---------------------------------|
 F|---------------------------------|---------------------------------|---------------------------------|
 C|---------------------------------|---------------------------------|---------------------------------|
 G|---------------------------------|-2---2---2---2---2---2---2---2---|-2---2---2---2---2---2---2---2---|
 D|-3---3---3---3---3---3---3---3---|---------------------------------|---------------------------------|
 A|---------------------------------|---------------------------------|---------------------------------|


A#|---------------------------------|---------------------------------|---------------------------------|
 F|-------------------------9-------|---------------------7-----------|---------------------------------|
 C|---------------------9-------9---|-------------------------7-------|---------------------------------|
 G|-7---7---7---7---7---------------|-5---5---5---5---5-----------5---|-3---3---3---3---3---3---3---3---|
 D|---------------------------------|---------------------------------|---------------------------------|
 A|---------------------------------|---------------------------------|---------------------------------|


A#|---------------------------------|---------------------------------|---------------------------------|
 F|---------------------------------|---------------------------------|---------------------------------|
 C|---------------------------------|---------------------------------|---------------------------------|
 G|-3---3---3---3---3---3---3---3---|---------------------------------|---------------------------------|
 D|---------------------------------|-3---3---3---3---3---3---3---3---|-3---3---3---3---3---3---3---3---|
 A|---------------------------------|---------------------------------|---------------------------------|


A#|---------------------------------|---------------------------------|-------------------------------------------------|
 F|---------------------------------|---------------------------------|-------------------------------------------------|
 C|---------------------------------|---------------------------------|-------------------------------------------------|
 G|-5---5---5---5---5---5---5---5---|-6---6---6---6---6---6---6---6---|-------------------------------------------------|
 D|---------------------------------|---------------------------------|-0--12-10-0--10-12-0--8--0--12-7--0--5--7--0--5--|
 A|---------------------------------|---------------------------------|-------------------------------------------------|


A#|-------------------------------------------------|-------------------------------------------------|
 F|-------------------------------------------------|-------------------------------------------------|
 C|-------------------------------------------------|-------------------------------------------------|
 G|-------------------------------------------------|-------------------------------------------------|
 D|-0--7--3--0--2--3--0--2--0--3--0--5--0--7--2--3--|-0--12-10-0--10-12-0--8--0--12-7--0--5--7--0--5--|
 A|-------------------------------------------------|-------------------------------------------------|


A#|-------------------------------------------------|-------------------------------------------------|
 F|-------------------------------------------------|-------------------------------------------------|
 C|-------------------------------------------------|-------------------------------------------------|
 G|-------------------------------------------------|-------------------------------------------------|
 D|-0--7--3--0--2--3--0--2--0--3--0--5--0--7--2--3--|-0--12-10-0--10-12-0--8--0--12-7--0--5--7--0--5--|
 A|-------------------------------------------------|-------------------------------------------------|


A#|-------------------------------------------------|-------------------------------------------------|
 F|-------------------------------------------------|-------------------------------------------------|
 C|-------------------------------------------------|-------------------------------------------------|
 G|-------------------------------------------------|-------------------------------------------------|
 D|-0--7--3--0--2--3--0--2--0--3--0--5--0--7--2--3--|-0--12-10-0--10-12-0--8--0--12-7--0--5--7--0--5--|
 A|-------------------------------------------------|-------------------------------------------------|


A#|-------------------------------------------------|--------|--------|--------|--------|
 F|-------------------------------------------------|--------|--------|--------|--------|
 C|-------------------------------------------------|--------|--------|--------|--------|
 G|-------------------------------------------------|--------|--------|--------|--------|
 D|-0--7--3--0--2--3--0--2--0--3--0--5--0--7--2--3--|-0------|-0------|-0------|-0------|
 A|-------------------------------------------------|--------|--------|--------|--------|