Menu:

 

Search:

 

dream theater - misunderstood:

 



Title: Misunderstood
Artist: 
Album: Six Degrees of Inner Turbulence
Author: Dream Theater


Track 1: 7 stringer w/ piezo

E|-2-------------------2--3--2-----|-0-----------------------0--0---|-0--2--2------------------2--3--2-----|
B|-3--------3----3--------------3--|-3--------3---3-------3---------|-3-------------3----3--------------3--|
G|-2----2-----------2--------------|-3----3------------3------------|-2---------2-----------2--------------|
D|-0-------------------------------|-0------------------------------|-0------------------------------------|
A|---------------------------------|--------------------------------|--------------------------------------|
E|---------------------------------|--------------------------------|--------------------------------------|
B|---------------------------------|--------------------------------|--------------------------------------|


E|-1------------------------1---|-2-------------------2--3--2-----|-0-------------------------|
B|-1--------------------1-------|-3--------3----3--------------3--|-3--------3---3--------3---|
G|-3--------3---3---3-----------|-2----2-----------2--------------|-3----3------------3-------|
D|-3----3-----------------------|-0-------------------------------|-0-------------------------|
A|-1----------------------------|---------------------------------|---------------------------|
E|------------------------------|---------------------------------|---------------------------|
B|------------------------------|---------------------------------|---------------------------|


E|-----------------------0----|---------------------------|---------------------------|
B|-2----------------3---------|---------------------------|---------------------------|
G|-2--------2---2-------------|-4--------2---2------------|-4--------2---2------------|
D|-2----2---------------------|-2--------------------2----|-4--------------------2----|
A|-0--------------------------|---------------------------|-4-------------------------|
E|----------------------------|-3----3-----------3--------|-2----2-----------2--------|
B|----------------------------|---------------------------|---------------------------|


E|-------------------|--------|-2-------------------2--3--2-----|-0-----------------------0--0---|
B|-0-----1--0--------|--------|-3--------3----3--------------3--|-3--------3---3-------3---------|
G|-2-----------2-----|--------|-2----2-----------2--------------|-3----3------------3------------|
D|-3-----------------|--------|-0-------------------------------|-0------------------------------|
A|-3-----------------|--------|---------------------------------|--------------------------------|
E|-1-----------------|--------|---------------------------------|--------------------------------|
B|-------------------|--------|---------------------------------|--------------------------------|


E|-0--2--2------------------2--3--2-----|-1------------------------1---|-2-------------------2--3--2-----|
B|-3-------------3----3--------------3--|-1--------------------1-------|-3--------3----3--------------3--|
G|-2---------2-----------2--------------|-3--------3---3---3-----------|-2----2-----------2--------------|
D|-0------------------------------------|-3----3-----------------------|-0-------------------------------|
A|--------------------------------------|-1----------------------------|---------------------------------|
E|--------------------------------------|------------------------------|---------------------------------|
B|--------------------------------------|------------------------------|---------------------------------|


E|-0-------------------------|---------------------------------|---------------------------------|
B|-3--------3---3--------3---|---------3---------------2-------|---------3---------------2-------|
G|-3----3------------3-------|-----0-------0-------0-------0---|-----0-------0-------0-------0---|
D|-0-------------------------|---------------------------------|---------------------------------|
A|---------------------------|-----------------0---------------|-1---------------0---------------|
E|---------------------------|-3-------------------------------|---------------------------------|
B|---------------------------|---------------------------------|---------------------------------|


E|-2-------------------2--3--2-----|-0-----------------------0--0---|-0--2--2------------------2--3--2-----|
B|-3--------3----3--------------3--|-3--------3---3-------3---------|-3-------------3----3--------------3--|
G|-2----2-----------2--------------|-3----3------------3------------|-2---------2-----------2--------------|
D|-0-------------------------------|-0------------------------------|-0------------------------------------|
A|---------------------------------|--------------------------------|--------------------------------------|
E|---------------------------------|--------------------------------|--------------------------------------|
B|---------------------------------|--------------------------------|--------------------------------------|


E|-1------------------------1---|-2-------------------2--3--2-----|-0-------------------------|
B|-1--------------------1-------|-3--------3----3--------------3--|-3--------3---3--------3---|
G|-3--------3---3---3-----------|-2----2-----------2--------------|-3----3------------3-------|
D|-3----3-----------------------|-0-------------------------------|-0-------------------------|
A|-1----------------------------|---------------------------------|---------------------------|
E|------------------------------|---------------------------------|---------------------------|
B|------------------------------|---------------------------------|---------------------------|


E|---------------------------------|---------------------------------|---------------------------------|
B|---------3---------------2-------|---------3---------------2-------|---------3---------------2-------|
G|-----0-------0-------0-------0---|-----0-------0-------0-------0---|-----0-------0-------0-------0---|
D|---------------------------------|---------------------------------|---------------------------------|
A|-----------------0---------------|-1---------------0---------------|-----------------0---------------|
E|-3-------------------------------|---------------------------------|-3-------------------------------|
B|---------------------------------|---------------------------------|---------------------------------|


E|---------------------------------|---------------------------------|--------|--------|
B|---------------------------------|---------------------------------|--------|--------|
G|---------3---2-----------3---2---|---------3---2-----------3---2---|--------|--------|
D|-----0---------------0-----------|-----0---------------0-----------|--------|--------|
A|---------------------------------|---------------------------------|--------|--------|
E|-----------------0---------------|-1---------------3---------------|--------|--------|
B|-3-------------------------------|---------------------------------|--------|--------|


E|-------------|-------------|-----------------|--------|--------|--------|--------|
B|-------------|-------------|-----------------|--------|--------|--------|--------|
G|-------------|-------------|-----------------|--------|--------|--------|--------|
D|-------------|-------------|-----------------|--------|--------|--------|--------|
A|-------------|-------------|-----------------|--------|--------|--------|--------|
E|-------------|-------------|-----------------|--------|--------|--------|--------|
B|-------------|-------------|-----------------|--------|--------|--------|--------|


E|--------|-------------------------|-------------------------|--------------------------------|
B|--------|-------------------------|-------------------------|--------------------------------|
G|--------|-------9--11-11--11--11--|-11--12---14---9-----7---|------7--9----9--11-11--11--11--|
D|--------|-------0-------------0---|---------------0-----0---|------0--0----0-------------0---|
A|--------|-------------------------|-------------------------|--------------------------------|
E|--------|-------------------------|-------------------------|--------------------------------|
B|--------|-------------------------|-------------------------|--------------------------------|


E|-------------------------|-----------------------------|-------------------------|
B|-------------------------|-----------------------------|-------------------------|
G|-11--12---14---5-----3---|------2----9--11-11--11--11--|-11--12---14---9-----7---|
D|---------------0-----0---|------0----0-------------0---|---------------0-----0---|
A|-------------------------|-----------------------------|-------------------------|
E|-------------------------|-----------------------------|-------------------------|
B|-------------------------|-----------------------------|-------------------------|


E|--------------------------------|-------------------------|-----------------------------|
B|--------------------------------|-------------------------|-----------------------------|
G|------7--9----9--11-11--11--11--|-11--12---14---17----15--|------14---------------------|
D|------0--0----0-------------0---|---------------0-----0---|------0----9--11-11--11--11--|
A|--------------------------------|-------------------------|-----------0-------------0---|
E|--------------------------------|-------------------------|-----------------------------|
B|--------------------------------|-------------------------|-----------------------------|


E|-------------------------|---------------------|-----------------------|-------------|
B|-------------------------|---------------------|-----------------------|-------------|
G|-------------------------|---------------------|-----------------------|-------------|
D|-11--12---14---9-----7---|-----------9-----7---|-----------9-----10-9--|-7-----------|
A|---------------0-----0---|------7----0-----0---|------7----0-----------|-------------|
E|-------------------------|---------------------|-----------------------|-------------|
B|-------------------------|---------------------|-----------------------|-------------|


E|--------|--------|--------|--------|--------|--------|--------|--------|--------|
B|--------|--------|--------|--------|--------|--------|--------|--------|--------|
G|--------|--------|--------|--------|--------|--------|--------|--------|--------|
D|--------|--------|--------|--------|--------|--------|--------|--------|--------|
A|--------|--------|--------|--------|--------|--------|--------|--------|--------|
E|--------|--------|--------|--------|--------|--------|--------|--------|--------|
B|--------|--------|--------|--------|--------|--------|--------|--------|--------|


E|--------|--------|--------|--------|--------|--------|--------|--------|--------|
B|--------|--------|--------|--------|--------|--------|--------|--------|--------|
G|--------|--------|--------|--------|--------|--------|--------|--------|--------|
D|--------|--------|--------|--------|--------|--------|--------|--------|--------|
A|--------|--------|--------|--------|--------|--------|--------|--------|--------|
E|--------|--------|--------|--------|--------|--------|--------|--------|--------|
B|--------|--------|--------|--------|--------|--------|--------|--------|--------|


E|--------|--------|--------|--------|--------|--------|--------|--------|--------|
B|--------|--------|--------|--------|--------|--------|--------|--------|--------|
G|--------|--------|--------|--------|--------|--------|--------|--------|--------|
D|--------|--------|--------|--------|--------|--------|--------|--------|--------|
A|--------|--------|--------|--------|--------|--------|--------|--------|--------|
E|--------|--------|--------|--------|--------|--------|--------|--------|--------|
B|--------|--------|--------|--------|--------|--------|--------|--------|--------|


E|--------|--------|--------|--------|--------|--------|--------|--------|--------|
B|--------|--------|--------|--------|--------|--------|--------|--------|--------|
G|--------|--------|--------|--------|--------|--------|--------|--------|--------|
D|--------|--------|--------|--------|--------|--------|--------|--------|--------|
A|--------|--------|--------|--------|--------|--------|--------|--------|--------|
E|--------|--------|--------|--------|--------|--------|--------|--------|--------|
B|--------|--------|--------|--------|--------|--------|--------|--------|--------|


E|--------|--------|--------|--------|--------|--------|--------|--------|--------|
B|--------|--------|--------|--------|--------|--------|--------|--------|--------|
G|--------|--------|--------|--------|--------|--------|--------|--------|--------|
D|--------|--------|--------|--------|--------|--------|--------|--------|--------|
A|--------|--------|--------|--------|--------|--------|--------|--------|--------|
E|--------|--------|--------|--------|--------|--------|--------|--------|--------|
B|--------|--------|--------|--------|--------|--------|--------|--------|--------|


E|--------|--------|--------|--------|--------|--------|--------|--------|--------|
B|--------|--------|--------|--------|--------|--------|--------|--------|--------|
G|--------|--------|--------|--------|--------|--------|--------|--------|--------|
D|--------|--------|--------|--------|--------|--------|--------|--------|--------|
A|--------|--------|--------|--------|--------|--------|--------|--------|--------|
E|--------|--------|--------|--------|--------|--------|--------|--------|--------|
B|--------|--------|--------|--------|--------|--------|--------|--------|--------|


E|--------|--------|--------|--------|--------|--------|--------|--------|--------|
B|--------|--------|--------|--------|--------|--------|--------|--------|--------|
G|--------|--------|--------|--------|--------|--------|--------|--------|--------|
D|--------|--------|--------|--------|--------|--------|--------|--------|--------|
A|--------|--------|--------|--------|--------|--------|--------|--------|--------|
E|--------|--------|--------|--------|--------|--------|--------|--------|--------|
B|--------|--------|--------|--------|--------|--------|--------|--------|--------|


E|--------|--------|--------|--------|--------|--------|--------|--------|--------|
B|--------|--------|--------|--------|--------|--------|--------|--------|--------|
G|--------|--------|--------|--------|--------|--------|--------|--------|--------|
D|--------|--------|--------|--------|--------|--------|--------|--------|--------|
A|--------|--------|--------|--------|--------|--------|--------|--------|--------|
E|--------|--------|--------|--------|--------|--------|--------|--------|--------|
B|--------|--------|--------|--------|--------|--------|--------|--------|--------|


E|--------|--------|--------|--------|--------|--------|--------|--------|--------|
B|--------|--------|--------|--------|--------|--------|--------|--------|--------|
G|--------|--------|--------|--------|--------|--------|--------|--------|--------|
D|--------|--------|--------|--------|--------|--------|--------|--------|--------|
A|--------|--------|--------|--------|--------|--------|--------|--------|--------|
E|--------|--------|--------|--------|--------|--------|--------|--------|--------|
B|--------|--------|--------|--------|--------|--------|--------|--------|--------|


E|--------|--------|--------|--------|--------|--------|--------|--------|--------|
B|--------|--------|--------|--------|--------|--------|--------|--------|--------|
G|--------|--------|--------|--------|--------|--------|--------|--------|--------|
D|--------|--------|--------|--------|--------|--------|--------|--------|--------|
A|--------|--------|--------|--------|--------|--------|--------|--------|--------|
E|--------|--------|--------|--------|--------|--------|--------|--------|--------|
B|--------|--------|--------|--------|--------|--------|--------|--------|--------|


E|--------|--------|--------|
B|--------|--------|--------|
G|--------|--------|--------|
D|--------|--------|--------|
A|--------|--------|--------|
E|--------|--------|--------|
B|--------|--------|--------|





Track 2: Rhythm Guitar

E|--------|--------|--------|--------|--------|--------|--------|--------|--------|
B|--------|--------|--------|--------|--------|--------|--------|--------|--------|
G|--------|--------|--------|--------|--------|--------|--------|--------|--------|
D|--------|--------|--------|--------|--------|--------|--------|--------|--------|
A|--------|--------|--------|--------|--------|--------|--------|--------|--------|
E|--------|--------|--------|--------|--------|--------|--------|--------|--------|
B|--------|--------|--------|--------|--------|--------|--------|--------|--------|


E|--------|--------|--------|--------|--------|--------|--------|--------|--------|
B|--------|--------|--------|--------|--------|--------|--------|--------|--------|
G|--------|--------|--------|--------|--------|--------|--------|--------|--------|
D|--------|--------|--------|--------|--------|--------|--------|--------|--------|
A|--------|--------|--------|--------|--------|--------|--------|--------|--------|
E|--------|--------|--------|--------|--------|--------|--------|--------|--------|
B|--------|--------|--------|--------|--------|--------|--------|--------|--------|


E|--------|--------|--------|--------|--------|--------|--------|--------|--------|
B|--------|--------|--------|--------|--------|--------|--------|--------|--------|
G|--------|--------|--------|--------|--------|--------|--------|--------|--------|
D|--------|--------|--------|--------|--------|--------|--------|--------|--------|
A|--------|--------|--------|--------|--------|--------|--------|--------|--------|
E|--------|--------|--------|--------|--------|--------|--------|--------|--------|
B|--------|--------|--------|--------|--------|--------|--------|--------|--------|


E|--------|--------|--------|--------|--------|--------|--------|--------|--------|
B|--------|--------|--------|--------|--------|--------|--------|--------|--------|
G|--------|--------|--------|--------|--------|--------|--------|--------|--------|
D|--------|--------|--------|--------|--------|--------|--------|--------|--------|
A|--------|--------|--------|--------|--------|--------|--------|--------|--------|
E|--------|--------|--------|--------|--------|--------|--------|--------|--------|
B|--------|--------|--------|--------|--------|--------|--------|--------|--------|


E|--------|--------|--------|--------|--------|--------|--------|--------|--------|
B|--------|--------|--------|--------|--------|--------|--------|--------|--------|
G|--------|--------|--------|--------|--------|--------|--------|--------|--------|
D|--------|--------|--------|--------|--------|--------|--------|--------|--------|
A|--------|--------|--------|--------|--------|--------|--------|--------|--------|
E|--------|--------|--------|--------|--------|--------|--------|--------|--------|
B|--------|--------|--------|--------|--------|--------|--------|--------|--------|


E|--------|--------|--------|--------|--------|--------|--------|--------|--------|
B|--------|--------|--------|--------|--------|--------|--------|--------|--------|
G|--------|--------|--------|--------|--------|--------|--------|--------|--------|
D|--------|--------|--------|--------|--------|--------|--------|--------|--------|
A|--------|--------|--------|--------|--------|--------|--------|--------|--------|
E|--------|--------|--------|--------|--------|--------|--------|--------|--------|
B|--------|--------|--------|--------|--------|--------|--------|--------|--------|


E|--------|--------|--------|--------|--------|--------|--------|--------|--------|
B|--------|--------|--------|--------|--------|--------|--------|--------|--------|
G|--------|--------|--------|--------|--------|--------|--------|--------|--------|
D|--------|--------|--------|--------|--------|--------|--------|--------|--------|
A|--------|--------|--------|--------|--------|--------|--------|--------|--------|
E|--------|--------|--------|--------|--------|--------|--------|--------|--------|
B|--------|--------|--------|--------|--------|--------|--------|--------|--------|


E|--------------------------|---------------------------------|-------------------------|
B|--------------------------|---------------------------------|-------------------------|
G|--------------------------|---------------------------------|-------------------------|
D|--------------------------|-----------------------8-----5---|-------------------------|
A|-------5----5-5-5--5--5---|-5--5--5--5--5---5--5--8-----5---|------7----8----5----5-5-|
E|-------5----5-5-5--5--5---|-5--5--5--5--5---5--5--6-----3---|------7----8----5----5-5-|
B|-------3----3-3-3--3--3---|-3--3--3--3--3---3--3------------|------5----6----3----3-3-|


E|--------------------------------------|---------------------------|------------------------------------------|
B|--------------------------------------|---------------------------|------------------------------------------|
G|--------------------------------------|---------------------------|------------------------------------------|
D|---------------------------------8----|-----10--------------------|------------------------------------------|
A|-5--5--5---5--5--5--5--5---5--5--8----|-----10--------------------|-5----5-5-5--5--5---5--5--5--5--5---5--5--|
E|-5--5--5---5--5--5--5--5---5--5--6----|-----8-----8--10---7--8----|-5----5-5-5--5--5---5--5--5--5--5---5--5--|
B|-3--3--3---3--3--3--3--3---3--3-------|-----------6--8----5--6----|-3----3-3-3--3--3---3--3--3--3--3---3--3--|


E|---------------------|--------|--------|--------|--------|--------|--------|--------|
B|---------------------|--------|--------|--------|--------|--------|--------|--------|
G|---------------------|--------|--------|--------|--------|--------|--------|--------|
D|-8-----5-------------|--------|--------|--------|--------|--------|--------|--------|
A|-8-----5-----7---8---|--------|--------|--------|--------|--------|--------|--------|
E|-6-----3-----7---8---|--------|--------|--------|--------|--------|--------|--------|
B|-------------5---6---|--------|--------|--------|--------|--------|--------|--------|


E|--------|--------|----------------------------------------|--------------------------------------------|
B|--------|--------|----------------------------------------|--------------------------------------------|
G|--------|--------|-7----7-7-7--7--7---7--7--7--7--7---2---|-3----3-3-3--3--3---3--3--3--3--------------|
D|--------|--------|-7----7-7-7--7--7---7--7--7--7--7---2---|-3----3-3-3--3--3---3--3--3--3--------------|
A|--------|--------|-5----5-5-5--5--5---5--5--5--5--5---0---|-1----1-1-1--1--1---1--1--1--1--2--4-----5--|
E|--------|--------|----------------------------------------|--------------------------------0--2-----3--|
B|--------|--------|----------------------------------------|--------------------------------------------|


E|---------------------------|-------------------------------|---------------------------|
B|---------------------------|-------------------------------|---------------------------|
G|---------------------------|-------------------------------|---------------------------|
D|---------------------------|-------------------------------|-------------------3---4---|
A|-4----4---5---5----7---8---|-------------------2--4-----5--|-4----4---5---5----1---2---|
E|-2----2---3---3----5---6---|-4----4---3---3----0--2-----3--|-2----2---3---3------------|
B|---------------------------|-2----2---1---1----------------|---------------------------|


E|-----------------------------|---------------------------|-------------------------------|
B|-----------------------------|---------------------------|-------------------------------|
G|-----------------------------|---------------------------|-------------------------------|
D|-6-----7---7-----------------|---------------------------|-------------------------------|
A|-4-----5---5---5---5---2--5--|-4----4---5---5----7---8---|-------------------2--4-----5--|
E|---------------3---3---0--3--|-2----2---3---3----5---6---|-4----4---3---3----0--2-----3--|
B|-----------------------------|---------------------------|-2----2---1---1----------------|


E|---------------------------|-----------------------------|---------------------------|
B|---------------------------|-----------------------------|---------------------------|
G|---------------------------|-----------------------------|---------------------------|
D|-------------------3---4---|-6-----7---7-----------------|---------------------------|
A|-4----4---5---5----1---2---|-4-----5---5---5---5---2--5--|-4----4---5---5----7---8---|
E|-2----2---3---3------------|---------------3---3---0--3--|-2----2---3---3----5---6---|
B|---------------------------|-----------------------------|---------------------------|


E|-----------------------------|-----------------------------|---------------------------|
B|-----------------------------|-----------------------------|---------------------------|
G|-----------------------------|-----------------------------|---------------------------|
D|-----------------------------|-----------------------------|-3--4--6---6-----6---------|
A|----------------------2--2---|----3--3---4----4---5---5----|-1--2--4---4-----4---4--3--|
E|-4----4---5---5-------0--0---|----1--1---2----2---3---3----|---------------------------|
B|-2----2---3---3--------------|-----------------------------|---------------------------|


E|------------------------|-----------------|-----------------|-----------------|-----------------|
B|------------------------|-----------------|-----------------|-----------------|-----------------|
G|------------------------|-----------------|-----------------|-----------------|-----------------|
D|------------------------|-----------------|-----------------|-----------------|------3-----2----|
A|-2--1--0-----5-----7----|------8-----7----|------5-----7----|------------2----|------1-----0----|
E|----------4--3-----5----|------6-----5----|------3-----5----|------5-----0----|-----------------|
B|------------------------|-----------------|-----------------|------3----------|-----------------|


E|-----------------|-----------------|-----------------|-------------------------------------|
B|-----------------|-----------------|-----------------|-------------------------------------|
G|-----------------|-----------------|-----------------|-------------------------------------|
D|-----------------|-----------------|-----------------|-------------------------------------|
A|------------2----|------3-----5----|------7-----8----|------5----5-5-5--5--5---5--5--5--5--|
E|------5-----0----|------1-----3----|------5-----6----|------5----5-5-5--5--5---5--5--5--5--|
B|------3----------|-----------------|-----------------|------3----3-3-3--3--3---3--3--3--3--|


E|-----------------------|------------------------------|---------------------------------|
B|-----------------------|------------------------------|---------------------------------|
G|-----------------------|------------------------------|---------------------------------|
D|-----------8-----5-----|------------------------------|-----------------------8-----10--|
A|-5---5--5--8-----5-----|-7----8----5----5-5-5--5--5---|-5--5--5--5--5---5--5--8-----10--|
E|-5---5--5--6-----3-----|-7----8----5----5-5-5--5--5---|-5--5--5--5--5---5--5--6-----8---|
B|-3---3--3--------------|-5----6----3----3-3-3--3--3---|-3--3--3--3--3---3--3------------|


E|-------------------------------|--------------------------------------|------------------------|
B|-------------------------------|--------------------------------------|------------------------|
G|-------------------------------|--------------------------------------|------------------------|
D|-------------------------------|---------------------------------8----|-----5------------------|
A|----------------------5----5-5-|-5--5--5---5--5--5--5--5---5--5--8----|-----5-----7---8--------|
E|------8--10---7--8----5----5-5-|-5--5--5---5--5--5--5--5---5--5--6----|-----3-----7---8--------|
B|------6--8----5--6----3----3-3-|-3--3--3---3--3--3--3--3---3--3-------|-----------5---6--------|


E|--------|--------|--------|--------|--------|--------|--------|--------|-----------------|
B|--------|--------|--------|--------|--------|--------|--------|--------|-----------------|
G|--------|--------|--------|--------|--------|--------|--------|--------|--------7----7-7-|
D|--------|--------|--------|--------|--------|--------|--------|--------|--------7----7-7-|
A|--------|--------|--------|--------|--------|--------|--------|--------|--------5----5-5-|
E|--------|--------|--------|--------|--------|--------|--------|--------|-----------------|
B|--------|--------|--------|--------|--------|--------|--------|--------|-----------------|


E|----------------------------------------|----------------------------------------|
B|----------------------------------------|----------------------------------------|
G|-7--7--7---7--7--7--7--7---2---3----3-3-|-3--3--3---3--3--3--3-------------------|
D|-7--7--7---7--7--7--7--7---2---3----3-3-|-3--3--3---3--3--3--3-------------------|
A|-5--5--5---5--5--5--5--5---0---1----1-1-|-1--1--1---1--1--1--1--2--4-----5--4----|
E|----------------------------------------|-----------------------0--2-----3--2----|
B|----------------------------------------|----------------------------------------|


E|---------------------------|-------------------------------|---------------------------|
B|---------------------------|-------------------------------|---------------------------|
G|---------------------------|-------------------------------|---------------------------|
D|---------------------------|-------------------------------|--------------3---4---6----|
A|-4---5---5----7---8--------|--------------2--4-----5--4----|-4---5---5----1---2---4----|
E|-2---3---3----5---6---4----|-4---3---3----0--2-----3--2----|-2---3---3-----------------|
B|----------------------2----|-2---1---1---------------------|---------------------------|


E|--------------------------------|---------------------------|-------------------------------|
B|--------------------------------|---------------------------|-------------------------------|
G|--------------------------------|---------------------------|-------------------------------|
D|-----7---7----------------------|---------------------------|-------------------------------|
A|-----5---5---5---5---2--5--4----|-4---5---5----7---8--------|--------------2--4-----5--4----|
E|-------------3---3---0--3--2----|-2---3---3----5---6---4----|-4---3---3----0--2-----3--2----|
B|--------------------------------|----------------------2----|-2---1---1---------------------|


E|---------------------------|--------------------------------|---------------------------|
B|---------------------------|--------------------------------|---------------------------|
G|---------------------------|--------------------------------|---------------------------|
D|--------------3---4---6----|-----7---7----------------------|---------------------------|
A|-4---5---5----1---2---4----|-----5---5---5---5---2--5--4----|-4---5---5----7---8--------|
E|-2---3---3-----------------|-------------3---3---0--3--2----|-2---3---3----5---6---4----|
B|---------------------------|--------------------------------|----------------------2----|


E|-------------------------------|---------------------------|--------------------------------|
B|-------------------------------|---------------------------|--------------------------------|
G|-------------------------------|---------------------------|--------------------------------|
D|-------------------------------|--------------3---4---6----|-----7---7----------------------|
A|--------------2--4-----5--4----|-4---5---5----1---2---4----|-----5---5---5---5---2--5--4----|
E|-4---3---3----0--2-----3--2----|-2---3---3-----------------|-------------3---3---0--3--2----|
B|-2---1---1---------------------|---------------------------|--------------------------------|


E|---------------------------|-------------------------------|---------------------------|
B|---------------------------|-------------------------------|---------------------------|
G|---------------------------|-------------------------------|---------------------------|
D|---------------------------|-------------------------------|--------------3---4---6----|
A|-4---5---5----7---8--------|--------------2--4-----5--4----|-4---5---5----1---2---4----|
E|-2---3---3----5---6---4----|-4---3---3----0--2-----3--2----|-2---3---3-----------------|
B|----------------------2----|-2---1---1---------------------|---------------------------|


E|--------------------------------|---------------------------|-------------------------------|
B|--------------------------------|---------------------------|-------------------------------|
G|--------------------------------|---------------------------|-------------------------------|
D|-----7---7----------------------|---------------------------|-------------------------------|
A|-----5---5---5---5---2--5--4----|-4---5---5----7---8--------|--------------2--4-----5--4----|
E|-------------3---3---0--3--2----|-2---3---3----5---6---4----|-4---3---3----0--2-----3--2----|
B|--------------------------------|----------------------2----|-2---1---1---------------------|


E|---------------------------|--------------------------------|---------------------------|
B|---------------------------|--------------------------------|---------------------------|
G|---------------------------|--------------------------------|---------------------------|
D|--------------3---4---6----|-----7---7----------------------|---------------------------|
A|-4---5---5----1---2---4----|-----5---5---5---5---2--5--4----|-4---5---5----7---8--------|
E|-2---3---3-----------------|-------------3---3---0--3--2----|-2---3---3----5---6---4----|
B|---------------------------|--------------------------------|----------------------2----|


E|-------------------------------|---------------------------|--------------------------------|
B|-------------------------------|---------------------------|--------------------------------|
G|-------------------------------|---------------------------|--------------------------------|
D|-------------------------------|--------------3---4---6----|-----7---7----------------------|
A|--------------2--4-----5--4----|-4---5---5----1---2---4----|-----5---5---5---5---2--5--4----|
E|-4---3---3----0--2-----3--2----|-2---3---3-----------------|-------------3---3---0--3--2----|
B|-2---1---1---------------------|---------------------------|--------------------------------|


E|---------------------------|-------------------------------|---------------------------|
B|---------------------------|-------------------------------|---------------------------|
G|---------------------------|-------------------------------|---------------------------|
D|---------------------------|-------------------------------|---------------------------|
A|-4---5---5----7---8--------|--------------2--4-----5--4----|-4---5---5----7---8--------|
E|-2---3---3----5---6---4----|-4---3---3----0--2-----3--2----|-2---3---3----5---6--------|
B|----------------------2----|-2---1---1---------------------|--------------5---6--------|





Track 3: Lead

E|--------|--------|--------|--------|--------|--------|--------|--------|--------|
B|--------|--------|--------|--------|--------|--------|--------|--------|--------|
G|--------|--------|--------|--------|--------|--------|--------|--------|--------|
D|--------|--------|--------|--------|--------|--------|--------|--------|--------|
A|--------|--------|--------|--------|--------|--------|--------|--------|--------|
E|--------|--------|--------|--------|--------|--------|--------|--------|--------|
B|--------|--------|--------|--------|--------|--------|--------|--------|--------|


E|--------|--------|--------|--------|--------|--------|--------|--------|--------|
B|--------|--------|--------|--------|--------|--------|--------|--------|--------|
G|--------|--------|--------|--------|--------|--------|--------|--------|--------|
D|--------|--------|--------|--------|--------|--------|--------|--------|--------|
A|--------|--------|--------|--------|--------|--------|--------|--------|--------|
E|--------|--------|--------|--------|--------|--------|--------|--------|--------|
B|--------|--------|--------|--------|--------|--------|--------|--------|--------|


E|--------|--------|--------|--------|--------|--------|--------|--------|--------|
B|--------|--------|--------|--------|--------|--------|--------|--------|--------|
G|--------|--------|--------|--------|--------|--------|--------|--------|--------|
D|--------|--------|--------|--------|--------|--------|--------|--------|--------|
A|--------|--------|--------|--------|--------|--------|--------|--------|--------|
E|--------|--------|--------|--------|--------|--------|--------|--------|--------|
B|--------|--------|--------|--------|--------|--------|--------|--------|--------|


E|--------|--------|--------|--------|--------|--------|--------|--------|--------|
B|--------|--------|--------|--------|--------|--------|--------|--------|--------|
G|--------|--------|--------|--------|--------|--------|--------|--------|--------|
D|--------|--------|--------|--------|--------|--------|--------|--------|--------|
A|--------|--------|--------|--------|--------|--------|--------|--------|--------|
E|--------|--------|--------|--------|--------|--------|--------|--------|--------|
B|--------|--------|--------|--------|--------|--------|--------|--------|--------|


E|--------|--------|--------|--------|--------|--------|--------|--------|--------|
B|--------|--------|--------|--------|--------|--------|--------|--------|--------|
G|--------|--------|--------|--------|--------|--------|--------|--------|--------|
D|--------|--------|--------|--------|--------|--------|--------|--------|--------|
A|--------|--------|--------|--------|--------|--------|--------|--------|--------|
E|--------|--------|--------|--------|--------|--------|--------|--------|--------|
B|--------|--------|--------|--------|--------|--------|--------|--------|--------|


E|--------|--------|--------|--------|--------|--------|--------|--------|--------|
B|--------|--------|--------|--------|--------|--------|--------|--------|--------|
G|--------|--------|--------|--------|--------|--------|--------|--------|--------|
D|--------|--------|--------|--------|--------|--------|--------|--------|--------|
A|--------|--------|--------|--------|--------|--------|--------|--------|--------|
E|--------|--------|--------|--------|--------|--------|--------|--------|--------|
B|--------|--------|--------|--------|--------|--------|--------|--------|--------|


E|--------|--------|--------|--------|--------|--------|--------|--------|--------|
B|--------|--------|--------|--------|--------|--------|--------|--------|--------|
G|--------|--------|--------|--------|--------|--------|--------|--------|--------|
D|--------|--------|--------|--------|--------|--------|--------|--------|--------|
A|--------|--------|--------|--------|--------|--------|--------|--------|--------|
E|--------|--------|--------|--------|--------|--------|--------|--------|--------|
B|--------|--------|--------|--------|--------|--------|--------|--------|--------|


E|--------|--------|--------|--------|--------|--------|--------|---------------------------------|
B|--------|--------|--------|--------|--------|--------|--------|---------------------------------|
G|--------|--------|--------|--------|--------|--------|--------|---------------------------------|
D|--------|--------|--------|--------|--------|--------|--------|---------8---7---7-------8---7---|
A|--------|--------|--------|--------|--------|--------|--------|-----8---------------8-----------|
E|--------|--------|--------|--------|--------|--------|--------|---------------------------------|
B|--------|--------|--------|--------|--------|--------|--------|---------------------------------|


E|---------------------------------|------------------------------|-------------------------------------|
B|---------------------------------|------------------------------|-----7--8--7-------7--8--7-----------|
G|---------------------------------|------------------------------|-------------------------------------|
D|-7-------8---7---7-------8---7---|-7---8---7--------------------|-0---4--5--4-------4--5--4-----------|
A|-----5---------------5-----------|-------------10--10--8---7----|----------------5------------5-------|
E|---------------------------------|------------------------------|---------------------------------5---|
B|---------------------------------|------------------------------|-------------------------------------|


E|---------------------------------------|-------------------------------------|---------------------------------------|
B|---------------------------------------|-----7--8--7-------7--8--7-----------|---------------------------------------|
G|-----7--9--7-------7--9--7---9--10-9---|-------------------------------------|-----7--9--7-------7--9--7---9--10-9---|
D|---------------------------------------|-0---4--5--4-------4--5--7-----------|---------------------------------------|
A|-----5--7--5-------5--7--5---7--8--7---|----------------5------------5-------|-----5--7--5-------5--7--5---7--8--7---|
E|-6--------------6----------------------|---------------------------------5---|-6--------------6----------------------|
B|---------------------------------------|-------------------------------------|---------------------------------------|


E|-------------------------------------|---------------------------------------|-------------------------------------|
B|-----7--8--7-------7--8--7-----------|---------------------------------------|-----7--8--7-------7--8--10----------|
G|-------------------------------------|-----7--9--7-------7--9--7---9--10-9---|-------------------------------------|
D|-0---4--5--4-------4--5--4-----------|---------------------------------------|-0---4--5--4----0--4--5--7-----------|
A|----------------5------------5-------|-----5--7--5-------5--7--5---7--8--7---|-----------------------------5-------|
E|---------------------------------5---|-6--------------6----------------------|---------------------------------5---|
B|-------------------------------------|---------------------------------------|-------------------------------------|


E|----------------------------------|--------|--------|--------|--------|--------|
B|----------------------------------|--------|--------|--------|--------|--------|
G|-----7--9--7-------9--10-9--------|--------|--------|--------|--------|--------|
D|----------------------------------|--------|--------|--------|--------|--------|
A|-----5--7--5-------7--8--7--------|--------|--------|--------|--------|--------|
E|-6--------------6-----------------|--------|--------|--------|--------|--------|
B|----------------------------------|--------|--------|--------|--------|--------|


E|--------|--------|--------|--------|--------|--------|--------|--------|--------|
B|--------|--------|--------|--------|--------|--------|--------|--------|--------|
G|--------|--------|--------|--------|--------|--------|--------|--------|--------|
D|--------|--------|--------|--------|--------|--------|--------|--------|--------|
A|--------|--------|--------|--------|--------|--------|--------|--------|--------|
E|--------|--------|--------|--------|--------|--------|--------|--------|--------|
B|--------|--------|--------|--------|--------|--------|--------|--------|--------|


E|--------|--------|--------|--------|--------|--------|--------|--------|--------|
B|--------|--------|--------|--------|--------|--------|--------|--------|--------|
G|--------|--------|--------|--------|--------|--------|--------|--------|--------|
D|--------|--------|--------|--------|--------|--------|--------|--------|--------|
A|--------|--------|--------|--------|--------|--------|--------|--------|--------|
E|--------|--------|--------|--------|--------|--------|--------|--------|--------|
B|--------|--------|--------|--------|--------|--------|--------|--------|--------|


E|--------|--------|--------|----------------|---------------------------------|---------------------------------|
B|--------|--------|--------|----------------|---------------------------------|---------------------------------|
G|--------|--------|--------|----------------|---------------------------------|---------------------------------|
D|--------|--------|--------|----------------|-8---7---7-------8---7---7-------|-8---7---7-------8---7---7---8---|
A|--------|--------|--------|------------8---|-------------8---------------5---|-------------5-------------------|
E|--------|--------|--------|----------------|---------------------------------|---------------------------------|
B|--------|--------|--------|----------------|---------------------------------|---------------------------------|


E|--------------------------------|-------------------------------------|---------------------------------------|
B|--------------------------7--8--|-7-------7--8--7---------------------|---------------------------------7--8--|
G|--------------------------------|-------------------------------7--9--|-7-------7--9--7---9--10-9-------------|
D|-7--------------------0---4--5--|-4-------4--5--4---------------------|-----------------------------0---4--5--|
A|-----10--10--8---7--------------|------5------------5-----------5--7--|-5-------5--7--5---7--8--7-------------|
E|--------------------------------|-----------------------5---6---------|------6--------------------------------|
B|--------------------------------|-------------------------------------|---------------------------------------|


E|-------------------------------------|---------------------------------------|-------------------------------------|
B|-7-------7--8--7---------------------|---------------------------------7--8--|-7-------7--8--7---------------------|
G|-------------------------------7--9--|-7-------7--9--7---9--10-9-------------|-------------------------------7--9--|
D|-4-------4--5--7---------------------|-----------------------------0---4--5--|-4-------4--5--4---------------------|
A|------5------------5-----------5--7--|-5-------5--7--5---7--8--7-------------|------5------------5-----------5--7--|
E|-----------------------5---6---------|------6--------------------------------|-----------------------5---6---------|
B|-------------------------------------|---------------------------------------|-------------------------------------|


E|---------------------------------------|-------------------------------------|-----------------------------|
B|---------------------------------7--8--|-7-------7--8--10--------------------|-----------------------------|
G|-7-------7--9--7---9--10-9-------------|-------------------------------7--9--|-7-------9--10-9-------------|
D|-----------------------------0---4--5--|-4----0--4--5--7---------------------|-----------------------------|
A|-5-------5--7--5---7--8--7-------------|-------------------5-----------5--7--|-5-------7--8--7-------------|
E|------6--------------------------------|-----------------------5---6---------|------6----------------------|
B|---------------------------------------|-------------------------------------|-----------------------------|


E|--------|--------|--------|--------|--------|--------|--------|--------|--------|
B|--------|--------|--------|--------|--------|--------|--------|--------|--------|
G|--------|--------|--------|--------|--------|--------|--------|--------|--------|
D|--------|--------|--------|--------|--------|--------|--------|--------|--------|
A|--------|--------|--------|--------|--------|--------|--------|--------|--------|
E|--------|--------|--------|--------|--------|--------|--------|--------|--------|
B|--------|--------|--------|--------|--------|--------|--------|--------|--------|


E|--------|--------|--------|--------|--------|--------|--------|--------|--------|
B|--------|--------|--------|--------|--------|--------|--------|--------|--------|
G|--------|--------|--------|--------|--------|--------|--------|--------|--------|
D|--------|--------|--------|--------|--------|--------|--------|--------|--------|
A|--------|--------|--------|--------|--------|--------|--------|--------|--------|
E|--------|--------|--------|--------|--------|--------|--------|--------|--------|
B|--------|--------|--------|--------|--------|--------|--------|--------|--------|


E|--------|--------|--------|--------|--------|--------|--------|--------|--------|
B|--------|--------|--------|--------|--------|--------|--------|--------|--------|
G|--------|--------|--------|--------|--------|--------|--------|--------|--------|
D|--------|--------|--------|--------|--------|--------|--------|--------|--------|
A|--------|--------|--------|--------|--------|--------|--------|--------|--------|
E|--------|--------|--------|--------|--------|--------|--------|--------|--------|
B|--------|--------|--------|--------|--------|--------|--------|--------|--------|





Track 4: Untitled

C|--------|--------|--------|--------|--------|--------|--------|--------|--------|
G|--------|--------|--------|--------|--------|--------|--------|--------|--------|
D|--------|--------|--------|--------|--------|--------|--------|--------|--------|
A|--------|--------|--------|--------|--------|--------|--------|--------|--------|
E|--------|--------|--------|--------|--------|--------|--------|--------|--------|
B|--------|--------|--------|--------|--------|--------|--------|--------|--------|


C|--------|--------|--------|--------|--------|--------|--------|--------|--------|
G|--------|--------|--------|--------|--------|--------|--------|--------|--------|
D|--------|--------|--------|--------|--------|--------|--------|--------|--------|
A|--------|--------|--------|--------|--------|--------|--------|--------|--------|
E|--------|--------|--------|--------|--------|--------|--------|--------|--------|
B|--------|--------|--------|--------|--------|--------|--------|--------|--------|


C|--------|--------|--------|--------|--------|--------|--------|--------|--------|
G|--------|--------|--------|--------|--------|--------|--------|--------|--------|
D|--------|--------|--------|--------|--------|--------|--------|--------|--------|
A|--------|--------|--------|--------|--------|--------|--------|--------|--------|
E|--------|--------|--------|--------|--------|--------|--------|--------|--------|
B|--------|--------|--------|--------|--------|--------|--------|--------|--------|


C|--------|--------|--------|-----------------------------------------------|------------------|
G|--------|--------|--------|-----------------------------------------------|------------------|
D|--------|--------|--------|-----------------------------------------------|------------------|
A|--------|--------|--------|-----------------------------------------------|------------------|
E|--------|--------|--------|-----------------10-10-10-10-10-10-8--10-10-10-|-6-----3----------|
B|--------|--------|--------|-3---3--3--3--3--------------------------------|-------------5----|


C|----------------------------------------|-------------------------|-------------------------------------------|
G|----------------------------------------|-------------------------|-------------------------------------------|
D|----------------------------------------|-------------------------|-------------------------------------------|
A|----------------------------------------|-------------------------|-------------------------------------------|
E|----------------------10-10-10-10-10-10-|-8--10-10-10-6-----8-----|-1--3--3-----------------------------10-10-|
B|-6----3---3--3--3--3--------------------|-------------------------|-----------5--6--6---3---3--3--3--3--------|


C|-----------------------------------|---------------------------------|-----------------------------|
G|-----------------------------------|---------------------------------|-----------------------------|
D|-----------------------------------|---------------------------------|-----------------------------|
A|-----------------------------------|---------------------------------|-----------------------------|
E|-10-10-10-10-8--10-10-10-6-----3---|---------------------------------|-----------------------------|
B|-----------------------------------|------5----6---6--6--6--6--6--6--|-6---6--6--6--6--6--6--8-----|


C|-------------|-------------|--------|--------|--------|--------|--------|--------|
G|-------------|-------------|--------|--------|--------|--------|--------|--------|
D|-------------|-------------|--------|--------|--------|--------|--------|--------|
A|-------------|-------------|--------|--------|--------|--------|--------|--------|
E|-------------|-13----------|--------|--------|--------|--------|--------|--------|
B|-10----11----|-------3-----|--------|--------|--------|--------|--------|--------|


C|--------|--------|--------|--------|--------|--------|---------------------------|
G|--------|--------|--------|--------|--------|--------|---------------------------|
D|--------|--------|--------|--------|--------|--------|---------------------------|
A|--------|--------|--------|--------|--------|--------|---------------------------|
E|--------|--------|--------|--------|--------|--------|---------------------------|
B|--------|--------|--------|--------|--------|--------|-------3--3-----3--1---3---|


C|---------------------------|------------------------------------|---------------------------|
G|---------------------------|------------------------------------|---------------------------|
D|---------------------------|------------------------------------|---------------------------|
A|---------------------------|------------------------------------|---------------------------|
E|---------------------------|-------8---8------------------------|---------------------------|
B|-----3------------------10-|-8--10----------3--3-----3--1---3---|-----3------------------10-|


C|------------------------------------|---------------------------|----------------------|
G|------------------------------------|---------------------------|----------------------|
D|------------------------------------|---------------------------|----------------------|
A|------------------------------------|---------------------------|----------------------|
E|-------10--10-----------------------|---------------------------|-------8---8----3-----|
B|-8--10----------3--3-----3--1---3---|-----3------------------10-|-8--10----------------|


C|-------------|-------------|-------------|-------------|-------------------------|
G|-------------|-------------|-------------|-------------|-------------------------|
D|-------------|-------------|-------------|-------------|-------------------------|
A|-------------|-------------|-------------|-------------|-------------------------|
E|-5-----6-----|-5-----3-----|-5-----------|-------------|-------------------------|
B|-------------|-------------|-------3-----|-5-----6-----|-8-----3----3--3--3--3---|


C|-------------------------------------------------|---------------------------------------------|
G|-------------------------------------------------|---------------------------------------------|
D|-------------------------------------------------|---------------------------------------------|
A|-------------------------------------------------|---------------------------------------------|
E|-------------------------6--6--6--6--6--6--3--3--|-3--3--3--3----------------------------------|
B|-3--3--3--3--3--3--3--3--------------------------|-------------5--5--5--5--6--6--6--6--3----3--|


C|-----------------------------------------------|-----------------------------------------|
G|-----------------------------------------------|-----------------------------------------|
D|-----------------------------------------------|-----------------------------------------|
A|-----------------------------------------------|-----------------------------------------|
E|-----------------------------------6--6--6--6--|-6--6--8--8--8--8--8--8------------------|
B|-3--3--3---3--3--3--3--3--3--3--3--------------|-------------------------6--8----5--6----|


C|-------------------------------------------|-------------------------------------------------|
G|-------------------------------------------|-------------------------------------------------|
D|-------------------------------------------|-------------------------------------------------|
A|-------------------------------------------|-------------------------------------------------|
E|-------------------------------------------|-6--6--6--6--6--6--3--3--3--3--3--3--------------|
B|-3----3--3--3--3---3--3--3--3--3--3--3--3--|-------------------------------------5--5--5--5--|


C|-------------------------------------------------|-------------------------------------------------|
G|-------------------------------------------------|-------------------------------------------------|
D|-------------------------------------------------|-------------------------------------------------|
A|-------------------------------------------------|-------------------------------------------------|
E|-------------------------------------------------|-------------------------------------------------|
B|-6--6--6--6--6--6--6--6--6--6--6--6--6--6--6--6--|-8--8--8--8--8--8--8--8--10-10-10-10-10-10-10-10-|


C|-------------------------------------------------|----------------------------------------|
G|-------------------------------------------------|----------------------------------------|
D|-------------------------------------------------|----------------------------------------|
A|-------------------------------------------------|----------------------------------------|
E|-------------------------------------------------|------------------------------------5---|
B|-11-11-11-11-11-11-11-11-13-13-13-13-13-13-13-13-|-3----3-3-3--3--3---3--3--3--3--3-------|


C|------------------------------------------|----------------------------------------|
G|------------------------------------------|----------------------------------------|
D|------------------------------------------|----------------------------------------|
A|-1----1-1-1--1--1---1--1--1--1--3---3--3--|----------------------------------------|
E|------------------------------------------|------------------------------------5---|
B|------------------------------------------|-3----3-3-3--3--3---3--3--3--3--3-------|


C|------------------------------------------|----------------------------------------|
G|------------------------------------------|----------------------------------------|
D|------------------------------------------|----------------------------------------|
A|-1----1-1-1--1--1---1--1--1--1--3---3--3--|-1----1-1-1--1--1---1--1--1-------------|
E|------------------------------------------|------------------------------0--2---3--|
B|------------------------------------------|----------------------------------------|


C|------------------------|-------------------------|------------------------|-----------------------|
G|------------------------|-------------------------|------------------------|-----------------------|
D|------------------------|-------------------------|------------------------|-----------------------|
A|------------------------|-------------------------|--------------------2---|-4-----5---------------|
E|-2-----3---3----5---6---|-------------0--2-----3--|-2-----3---3----6-------|------------3----0--3--|
B|------------------------|-2-----1-----------------|------------------------|-----------------------|


C|------------------------|-------------------------|------------------------|-----------------------|
G|------------------------|-------------------------|------------------------|-----------------------|
D|------------------------|-------------------------|------------------------|-----------------------|
A|------------------------|-------------------------|--------------------2---|-4-----5---------------|
E|-2-----3---3----5---6---|-------------0--2-----3--|-2-----3---3----6-------|------------3----0--3--|
B|------------------------|-2-----1-----------------|------------------------|-----------------------|


C|------------------------|--------------------------|--------------------------|---------------------------|
G|------------------------|--------------------------|--------------------------|---------------------------|
D|------------------------|--------------------------|--------------------------|---------------------------|
A|------------------------|--------------------------|--------------------------|-1--2--4---4-----4---4--3--|
E|-2-----3---3----5---6---|-------------------0--0---|----1--1---2-----3---3----|---------------------------|
B|------------------------|-2-----3---3--------------|--------------------------|---------------------------|


C|------------------------|-----------------|-----------------|-----------------|-----------------|
G|------------------------|-----------------|-----------------|-----------------|-----------------|
D|------------------------|-----------------|-----------------|-----------------|-----------------|
A|-2--1--0----------------|-----------------|-----------------|-----------------|------1-----0----|
E|----------4--3-----5----|------6-----5----|------3-----5----|------------0----|-----------------|
B|------------------------|-----------------|-----------------|------3----------|-----------------|


C|-----------------|-----------------|-----------------|------------------------------------|
G|-----------------|-----------------|-----------------|------------------------------------|
D|-----------------|-----------------|-----------------|------------------------------------|
A|-----------------|-----------------|-----------------|------------------------------------|
E|-----------------|------------3----|------5-----6----|------------------------------------|
B|------3-----5----|------6----------|-----------------|------3----3--3--3--3---3--3--3--3--|


C|-------------------------------------------------|-------------------------------------------|
G|-------------------------------------------------|-------------------------------------------|
D|-------------------------------------------------|-------------------------------------------|
A|-------------------------------------------------|-------------------------------------------|
E|-------------6--6--6--6--6--6--3--3--3--3--3--3--|-------------------------------------------|
B|-3--3--3--3--------------------------------------|-5--5--5--5--6--6--6--6--3----3--3--3--3---|


C|-------------------------------------------------|-------------------------------------|
G|-------------------------------------------------|-------------------------------------|
D|-------------------------------------------------|-------------------------------------|
A|-------------------------------------------------|-------------------------------------|
E|-------------------------6--6--6--6--6--6--8--8--|-8--8--8--8--------------------------|
B|-3--3--3--3--3--3--3--3--------------------------|-------------6--8----5--6----3----3--|


C|-----------------------------------------------|-------------------------------------------------|
G|-----------------------------------------------|-------------------------------------------------|
D|-----------------------------------------------|-------------------------------------------------|
A|-----------------------------------------------|-------------------------------------------------|
E|-----------------------------------6--6--6--6--|-6--6--3--3--3--3--3--3--------------------------|
B|-3--3--3---3--3--3--3--3--3--3--3--------------|-------------------------5--5--5--5--6--6--6--6--|


C|-------------------------------------------------|-------------------------------------------------|
G|-------------------------------------------------|-------------------------------------------------|
D|-------------------------------------------------|-------------------------------------------------|
A|-------------------------------------------------|-------------------------------------------------|
E|-------------------------------------------------|-------------------------------------------------|
B|-6--6--6--6--6--6--6--6--6--6--6--6--8--8--8--8--|-8--8--8--8--10-10-10-10-10-10-10-10-11-11-11-11-|


C|----------------------------------------------|----------------------------------------|
G|----------------------------------------------|----------------------------------------|
D|----------------------------------------------|----------------------------------------|
A|----------------------------------------------|-------------------------------1----1-1-|
E|----------------------------------------------|---------------------------5------------|
B|-11-11-11-11-13-13-13-13-13-13-13-13-3----3-3-|-3--3--3---3--3--3--3--3----------------|


C|------------------------------------------|----------------------------------------|
G|------------------------------------------|----------------------------------------|
D|------------------------------------------|----------------------------------------|
A|-1--1--1---1--1--1--1--3---3--3-----------|-------------------------------1----1-1-|
E|------------------------------------------|---------------------------5------------|
B|---------------------------------3----3-3-|-3--3--3---3--3--3--3--3----------------|


C|------------------------------------------|------------------------------------|
G|------------------------------------------|------------------------------------|
D|------------------------------------------|------------------------------------|
A|-1--1--1---1--1--1--1--3---3--3--1----1-1-|-1--1--1---1--1--1------------------|
E|------------------------------------------|---------------------0--2---3--2----|
B|------------------------------------------|------------------------------------|


C|---------------------------|----------------------------|---------------------------|
G|---------------------------|----------------------------|---------------------------|
D|---------------------------|----------------------------|---------------------------|
A|---------------------------|----------------------------|------------------2---4----|
E|-----3---3----5---6--------|-----------0--2-----3--2----|-----3---3----6------------|
B|----------------------2----|-----1----------------------|---------------------------|


C|--------------------------|---------------------------|----------------------------|
G|--------------------------|---------------------------|----------------------------|
D|--------------------------|---------------------------|----------------------------|
A|-----5--------------------|---------------------------|----------------------------|
E|----------3----0--3--2----|-----3---3----5---6--------|-----------0--2-----3--2----|
B|--------------------------|----------------------2----|-----1----------------------|


C|---------------------------|--------------------------|---------------------------|
G|---------------------------|--------------------------|---------------------------|
D|---------------------------|--------------------------|---------------------------|
A|------------------2---4----|-----5--------------------|---------------------------|
E|-----3---3----6------------|----------3----0--3--2----|-----3---3----5---6--------|
B|---------------------------|--------------------------|----------------------2----|


C|----------------------------|---------------------------|--------------------------|
G|----------------------------|---------------------------|--------------------------|
D|----------------------------|---------------------------|--------------------------|
A|----------------------------|------------------2---4----|-----5--------------------|
E|-----------0--2-----3--2----|-----3---3----6------------|----------3----0--3--2----|
B|-----1----------------------|---------------------------|--------------------------|


C|---------------------------|----------------------------|---------------------------|
G|---------------------------|----------------------------|---------------------------|
D|---------------------------|----------------------------|---------------------------|
A|---------------------------|----------------------------|------------------2---4----|
E|-----3---3----5---6--------|-----------0--2-----3--2----|-----3---3----6------------|
B|----------------------2----|-----1----------------------|---------------------------|


C|--------------------------|---------------------------|----------------------------|
G|--------------------------|---------------------------|----------------------------|
D|--------------------------|---------------------------|----------------------------|
A|-----5--------------------|---------------------------|----------------------------|
E|----------3----0--3--2----|-----3---3----5---6--------|-----------0--2-----3--2----|
B|--------------------------|----------------------2----|-----1----------------------|


C|---------------------------|--------------------------|---------------------------|
G|---------------------------|--------------------------|---------------------------|
D|---------------------------|--------------------------|---------------------------|
A|------------------2---4----|-----5--------------------|---------------------------|
E|-----3---3----6------------|----------3----0--3--2----|-----3---3----5---6--------|
B|---------------------------|--------------------------|----------------------2----|


C|----------------------------|---------------------------|--------------------------|
G|----------------------------|---------------------------|--------------------------|
D|----------------------------|---------------------------|--------------------------|
A|----------------------------|------------------2---4----|-----5--------------------|
E|-----------0--2-----3--2----|-----3---3----6------------|----------3----0--3--2----|
B|-----1----------------------|---------------------------|--------------------------|


C|---------------------------|----------------------------|---------------------------|
G|---------------------------|----------------------------|---------------------------|
D|---------------------------|----------------------------|---------------------------|
A|---------------------------|----------------------------|---------------------------|
E|-----3---3----5---6--------|-----------0--2-----3--2----|-----3---3----5---6--------|
B|----------------------2----|-----1----------------------|---------------------------|


C|--------|--------|--------|--------|--------|--------|
G|--------|--------|--------|--------|--------|--------|
D|--------|--------|--------|--------|--------|--------|
A|--------|--------|--------|--------|--------|--------|
E|--------|--------|--------|--------|--------|--------|
B|--------|--------|--------|--------|--------|--------|