Menu:

 

Search:

 

dream theater - misunderstood:

 



Title: Misunderstood
Artist: 
Album: Six Degrees Of Inner Turbulence
Author: John Myung, John Petrucci, Mike Portnoy, Jordan Rudess


Track 1: Contrabass

B|--------|--------|--------|--------|--------|--------|--------|--------|--------|
G|--------|--------|--------|--------|--------|--------|--------|--------|--------|
D|--------|--------|--------|--------|--------|--------|--------|--------|--------|
A|--------|--------|--------|--------|--------|--------|--------|--------|--------|
E|--------|--------|--------|--------|--------|--------|--------|--------|--------|
B|--------|--------|--------|--------|--------|--------|--------|--------|--------|


B|--------|--------|--------|--------|--------|--------|--------|--------|--------|
G|--------|--------|--------|--------|--------|--------|--------|--------|--------|
D|--------|--------|--------|--------|--------|--------|--------|--------|--------|
A|--------|--------|--------|--------|--------|--------|--------|--------|--------|
E|--------|--------|--------|--------|--------|--------|--------|--------|--------|
B|--------|--------|--------|--------|--------|--------|--------|--------|--------|


B|--------|--------|-------------|--------|-------------|--------|-----------------|
G|--------|--------|-3-----------|--------|-------------|--------|-3---------------|
D|--------|--------|-------2-----|--------|-------------|--------|-------2----3----|
A|--------|-5------|-------------|-5------|-1-----------|-5------|-----------------|
E|--------|--------|-------------|--------|--------0----|--------|-----------------|
B|--------|--------|-------------|--------|-------------|--------|-----------------|


B|-------------|-------------|-----------------|-------------|-------------|--------|
G|-------------|-------------|-----------------|-------------|-------------|--------|
D|-------------|-------------|-----------------|-------------|-------------|--------|
A|-------------|-------------|-----------------|-------------|-------------|-5------|
E|-3-----5-----|-6-----5-----|-3-----5---------|-------------|-------------|--------|
B|-------------|-------------|------------2----|-3-----5-----|-6-----8-----|--------|


B|------------------|-------------|------------------|-----------------|-----------------|
G|------------------|-------------|------------------|-----------------|-----------------|
D|-8-----5-----2----|-3-----------|------8-----5-----|-2----3----------|-------8-----5---|
A|------------------|------5------|------------------|-----------5-----|-----------------|
E|------------------|-------------|------------------|-----------------|-----------------|
B|------------------|-------------|------------------|-----------------|-----------------|


B|-----------------|-------------|-------------|-------------|-------------|-------7-----|
G|-----------------|-------------|-------------|-------------|-------------|-------------|
D|------2----3-----|-------5-----|-7-----8-----|-------------|-------------|-------------|
A|-----------------|-------------|-------------|-7-----5-----|-------5-----|-------------|
E|-----------------|-------------|-------------|-------------|-------------|-------------|
B|-----------------|-------------|-------------|-------------|-------------|-------------|


B|-7---8----10---5-----3---|------3--5----5--7----7----|-7---8----10-------------|
G|-------------------------|---------------------------|---------------5-----3---|
D|-------------------------|---------------------------|-------------------------|
A|-------------------------|---------------------------|-------------------------|
E|-------------------------|---------------------------|-------------------------|
B|-------------------------|---------------------------|-------------------------|


B|-----------7-----|-7---8----10---5-----3---|------3--5----5--7----7----|-7---8----10---13----11--|
G|------2----------|-------------------------|---------------------------|-------------------------|
D|-----------------|-------------------------|---------------------------|-------------------------|
A|-----------------|-------------------------|---------------------------|-------------------------|
E|-----------------|-------------------------|---------------------------|-------------------------|
B|-----------------|-------------------------|---------------------------|-------------------------|


B|------10---------|--------|--------|--------|--------|--------|--------|--------|
G|-----------------|--------|--------|--------|--------|--------|--------|--------|
D|-----------------|--------|--------|--------|--------|--------|--------|--------|
A|-----------------|--------|--------|--------|--------|--------|--------|--------|
E|-----------------|--------|--------|--------|--------|--------|--------|--------|
B|-----------------|--------|--------|--------|--------|--------|--------|--------|


B|--------|--------|--------|--------|--------|--------|--------|--------|--------|
G|--------|--------|--------|--------|--------|--------|--------|--------|--------|
D|--------|--------|--------|--------|--------|--------|--------|--------|--------|
A|--------|--------|--------|--------|--------|--------|--------|--------|--------|
E|--------|--------|--------|--------|--------|--------|--------|--------|--------|
B|--------|--------|--------|--------|--------|--------|--------|--------|--------|


B|--------|--------|--------|--------|--------|--------|--------|--------|--------|
G|--------|--------|--------|--------|--------|--------|--------|--------|--------|
D|--------|--------|--------|--------|--------|--------|--------|--------|--------|
A|--------|--------|--------|--------|--------|--------|--------|--------|--------|
E|--------|--------|--------|--------|--------|--------|--------|--------|--------|
B|--------|--------|--------|--------|--------|--------|--------|--------|--------|


B|--------|--------|--------|--------|--------|--------|--------|--------|--------|
G|--------|--------|--------|--------|--------|--------|--------|--------|--------|
D|--------|--------|--------|--------|--------|--------|--------|--------|--------|
A|--------|--------|--------|--------|--------|--------|--------|--------|--------|
E|--------|--------|--------|--------|--------|--------|--------|--------|--------|
B|--------|--------|--------|--------|--------|--------|--------|--------|--------|


B|--------|--------|--------|--------|--------|--------|--------|--------|--------|
G|--------|--------|--------|--------|--------|--------|--------|--------|--------|
D|--------|--------|--------|--------|--------|--------|--------|--------|--------|
A|--------|--------|--------|--------|--------|--------|--------|--------|--------|
E|--------|--------|--------|--------|--------|--------|--------|--------|--------|
B|--------|--------|--------|--------|--------|--------|--------|--------|--------|


B|--------|--------|--------|--------|--------|--------|--------|--------|--------|
G|--------|--------|--------|--------|--------|--------|--------|--------|--------|
D|--------|--------|--------|--------|--------|--------|--------|--------|--------|
A|--------|--------|--------|--------|--------|--------|--------|--------|--------|
E|--------|--------|--------|--------|--------|--------|--------|--------|--------|
B|--------|--------|--------|--------|--------|--------|--------|--------|--------|


B|--------|--------|--------|--------|--------|--------|--------|--------|--------|
G|--------|--------|--------|--------|--------|--------|--------|--------|--------|
D|--------|--------|--------|--------|--------|--------|--------|--------|--------|
A|--------|--------|--------|--------|--------|--------|--------|--------|--------|
E|--------|--------|--------|--------|--------|--------|--------|--------|--------|
B|--------|--------|--------|--------|--------|--------|--------|--------|--------|


B|--------|--------|--------|--------|--------|--------|--------|--------|--------|
G|--------|--------|--------|--------|--------|--------|--------|--------|--------|
D|--------|--------|--------|--------|--------|--------|--------|--------|--------|
A|--------|--------|--------|--------|--------|--------|--------|--------|--------|
E|--------|--------|--------|--------|--------|--------|--------|--------|--------|
B|--------|--------|--------|--------|--------|--------|--------|--------|--------|


B|--------|--------|--------|--------|--------|--------|--------|--------|--------|
G|--------|--------|--------|--------|--------|--------|--------|--------|--------|
D|--------|--------|--------|--------|--------|--------|--------|--------|--------|
A|--------|--------|--------|--------|--------|--------|--------|--------|--------|
E|--------|--------|--------|--------|--------|--------|--------|--------|--------|
B|--------|--------|--------|--------|--------|--------|--------|--------|--------|


B|--------|--------|--------|--------|--------|--------|--------|--------|--------|
G|--------|--------|--------|--------|--------|--------|--------|--------|--------|
D|--------|--------|--------|--------|--------|--------|--------|--------|--------|
A|--------|--------|--------|--------|--------|--------|--------|--------|--------|
E|--------|--------|--------|--------|--------|--------|--------|--------|--------|
B|--------|--------|--------|--------|--------|--------|--------|--------|--------|


B|--------|--------|--------|--------|--------|--------|--------|--------|--------|
G|--------|--------|--------|--------|--------|--------|--------|--------|--------|
D|--------|--------|--------|--------|--------|--------|--------|--------|--------|
A|--------|--------|--------|--------|--------|--------|--------|--------|--------|
E|--------|--------|--------|--------|--------|--------|--------|--------|--------|
B|--------|--------|--------|--------|--------|--------|--------|--------|--------|


B|--------|--------|--------|--------|--------|--------|--------|--------|--------|
G|--------|--------|--------|--------|--------|--------|--------|--------|--------|
D|--------|--------|--------|--------|--------|--------|--------|--------|--------|
A|--------|--------|--------|--------|--------|--------|--------|--------|--------|
E|--------|--------|--------|--------|--------|--------|--------|--------|--------|
B|--------|--------|--------|--------|--------|--------|--------|--------|--------|


B|--------|--------|--------|--------|--------|--------|--------|--------|--------|
G|--------|--------|--------|--------|--------|--------|--------|--------|--------|
D|--------|--------|--------|--------|--------|--------|--------|--------|--------|
A|--------|--------|--------|--------|--------|--------|--------|--------|--------|
E|--------|--------|--------|--------|--------|--------|--------|--------|--------|
B|--------|--------|--------|--------|--------|--------|--------|--------|--------|


B|--------|--------|--------|--------|
G|--------|--------|--------|--------|
D|--------|--------|--------|--------|
A|--------|--------|--------|--------|
E|--------|--------|--------|--------|
B|--------|--------|--------|--------|





Track 2: Electric Bass(finger)

B|--------|--------|--------|--------|--------|--------|--------|--------|--------|
G|--------|--------|--------|--------|--------|--------|--------|--------|--------|
D|--------|--------|--------|--------|--------|--------|--------|--------|--------|
A|--------|--------|--------|--------|--------|--------|--------|--------|--------|
E|--------|--------|--------|--------|--------|--------|--------|--------|--------|
B|--------|--------|--------|--------|--------|--------|--------|--------|--------|


B|--------|--------|--------|--------|--------|--------|--------|--------|--------|
G|--------|--------|--------|--------|--------|--------|--------|--------|--------|
D|--------|--------|--------|--------|--------|--------|--------|--------|--------|
A|--------|--------|--------|--------|--------|--------|--------|--------|--------|
E|--------|--------|--------|--------|--------|--------|--------|--------|--------|
B|--------|--------|--------|--------|--------|--------|--------|--------|--------|


B|--------|--------|--------|--------|--------|--------|--------|--------|--------|
G|--------|--------|--------|--------|--------|--------|--------|--------|--------|
D|--------|--------|--------|--------|--------|--------|--------|--------|--------|
A|--------|--------|--------|--------|--------|--------|--------|--------|--------|
E|--------|--------|--------|--------|--------|--------|--------|--------|--------|
B|--------|--------|--------|--------|--------|--------|--------|--------|--------|


B|--------|--------|--------|-------------------------------------------------|-------------------------------------------------|
G|--------|--------|--------|-------------------------------------------------|-------------------------------------------------|
D|--------|--------|--------|-------------------------------------------------|-------------------------------------------------|
A|--------|--------|--------|-------------------------------------------------|-------------------------------------------------|
E|--------|--------|--------|-------------------------------------------------|-------------------------------------------------|
B|--------|--------|--------|-3--3--3--3--3--3--15-15-15-15-15-15-15-15-15-15-|-11-11-11-11-11-11-8--8--8--8--8--8--5--5--5--5--|


B|-------------------------------------------------|-------------------------------------------------|
G|-------------------------------------------------|-------------------------------------------------|
D|-------------------------------------------------|-------------------------------------------------|
A|-------------------------------------------------|-------------------------------------------------|
E|-------------------------------------------------|-------------------------------------------------|
B|-6--6--6--6--3--3--3--3--3--3--15-15-15-15-15-15-|-15-15-15-15-11-11-11-11-11-11-8--8--8--8--8--8--|


B|-------------------------------------------------|-------------------------------------------------|
G|-------------------------------------------------|-------------------------------------------------|
D|-------------------------------------------------|-------------------------------------------------|
A|-------------------------------------------------|-------------------------------------------------|
E|-------------------------------------------------|-------------------------------------------------|
B|-5--5--5--5--6--6--6--6--3--3--3--3--3--3--15-15-|-15-15-15-15-15-15-15-15-11-11-11-11-11-11-8--8--|


B|-------------------------------------------------|-------------------------------------------------|
G|-------------------------------------------------|-------------------------------------------------|
D|-------------------------------------------------|-------------------------------------------------|
A|-------------------------------------------------|-------------------------------------------------|
E|-------------------------1--1--1--1--1--1--1--1--|-1--1--1--1--1--1--1--1--3--3--3--3--3--3--3--3--|
B|-8--8--8--8--5--5--5--5--------------------------|-------------------------------------------------|


B|-------------------------------------------------|-------------------------------|
G|-------------------------------------------------|-------------------------------|
D|-------------------------------------------------|-------------------------------|
A|-------------------------------------------------|-------------------------------|
E|-5--5--5--5--5--5--5--5--6--6--6--6--6--6--6--6--|-0--0--0--0--0--0--0--0--------|
B|-------------------------------------------------|-------------------------3-----|


B|-------------|--------|--------|--------|--------|--------|--------|--------|--------|
G|-------------|--------|--------|--------|--------|--------|--------|--------|--------|
D|-------------|--------|--------|--------|--------|--------|--------|--------|--------|
A|-------------|--------|--------|--------|--------|--------|--------|--------|--------|
E|-------------|--------|--------|--------|--------|--------|--------|--------|--------|
B|-------3-----|--------|--------|--------|--------|--------|--------|--------|--------|


B|-------------|-----------------|-----------------|-----------------|-----------------------------------|
G|-------------|-----------------|-----------------|-----------------|-----------------------------------|
D|-------------|-----------------|-----------------|-----------------|-----------------------------------|
A|-------------|-----------------|-----------------|-----------------|-----------------------------------|
E|-------5-----|-------3-----15--|------3----2-----|-------1-----13--|------1----------------------------|
B|-------------|-----------------|-----------------|-----------------|-----------3--3-----3--1-----3-----|


B|-----------------------|---------------------------------------------|-----------------------|
G|-----------------------|---------------------------------------------|-----------------------|
D|-----------------------|---------------------------------------------|-----------------------|
A|-----------------------|-----------------8---------------------------|-----------------------|
E|-----------------------|--------10-8--10-----------------------------|-----------------------|
B|----3------------------|---------------------3--3-----3--1-----3-----|----3------------------|


B|---------------------------------------------|-----------------------|---------------------------|
G|---------------------------------------------|-----------------------|---------------------------|
D|---------------------------------------------|-----------------------|---------------------------|
A|-----------------10--------------------------|-----------------------|-----------------8---------|
E|--------10-8--10-----------------------------|-----------------------|--------10-8--10-----3-----|
B|---------------------3--3-----3--1-----3-----|----3------------------|---------------------------|


B|-------------|-------------|-------------|-------------|-------------------------------|
G|-------------|-------------|-------------|-------------|-------------------------------|
D|-------------|-------------|-------------|-------------|-------------------------------|
A|-------------|-------------|-------------|-------------|-------------------------------|
E|-5-----6-----|-5-----3-----|-5-----------|-------------|-------------------------------|
B|-------------|-------------|-------3-----|-5-----6-----|-8-----3--3--3--3--3--3--3--3--|


B|-------------------------------------------------|-------------------------------------------------|
G|-------------------------------------------------|-------------------------------------------------|
D|-------------------------------------------------|-------------------------------------------------|
A|-------------------------------------------------|-------------------------------------------------|
E|-------------------------------------------------|-------------------------------------------------|
B|-3--3--3--3--3--3--3--3--11-11-11-11-11-11-8--8--|-8--8--8--8--5--5--5--5--6--6--6--6--3--3--3--3--|


B|-------------------------------------------------|---------------------------------------------|
G|-------------------------------------------------|---------------------------------------------|
D|-------------------------------------------------|---------------------------------------------|
A|-------------------------------------------------|---------------------------------------------|
E|-------------------------------------------------|---------------------------------------------|
B|-3--3--3--3--3--3--3--3--3--3--3--3--11-11-11-11-|-11-11-11-11-13-13-13-13-6--8---5--5--6---5--|


B|-------------------------------------------------|-------------------------------------------------|
G|-------------------------------------------------|-------------------------------------------------|
D|-------------------------------------------------|-------------------------------------------------|
A|-------------------------------------------------|-------------------------------------------------|
E|-------------------------------------------------|-------------------------------------------------|
B|-3--3--3--3--3--3--3--3--3--3--3--3--3--3--3--3--|-11-11-11-11-11-11-8--8--8--8--8--8--5--5--5--5--|


B|-------------------------------------------------|-------------------------------------------------|
G|-------------------------------------------------|-------------------------------------------------|
D|-------------------------------------------------|-------------------------------------------------|
A|-------------------------------------------------|-------------------------------------------------|
E|-1--1--1--1--1--1--1--1--1--1--1--1--1--1--1--1--|-3--3--3--3--3--3--3--3--5--5--5--5--5--5--5--5--|
B|-------------------------------------------------|-------------------------------------------------|


B|-------------------------------------------------|-------------------------------------------------|
G|-------------------------------------------------|-------------------------------------------------|
D|-------------------------------------------------|-------------------------------------------------|
A|-------------------------------------------------|-------------------------------------------------|
E|-6--6--6--6--6--6--6--6--0--0--0--0--0--0--0--0--|-------------------------------------------------|
B|-------------------------------------------------|-3--3--3--3--3--3--3--3--3--3--3--3--3--3--3--3--|


B|-------------------------------------------------|-------------------------------------------------|
G|-------------------------------------------------|-------------------------------------------------|
D|-------------------------------------------------|-------------------------------------------------|
A|-------------------------------------------------|-------------------------------------------------|
E|-------------------------------------------------|-------------------------------------------------|
B|-11-11-11-11-11-11-11-11-11-11-11-11-11-11-11-11-|-3--3--3--3--3--3--3--3--3--3--3--3--3--3--3--3--|


B|-------------------------------------------------|-------------------------------------------------|
G|-------------------------------------------------|-------------------------------------------------|
D|-------------------------------------------------|-------------------------------------------------|
A|-------------------------------------------------|-------------------------------------------------|
E|-------------------------------------------------|-------------------------------------------------|
B|-11-11-11-11-11-11-8--8--8--8--8--8--5--5--6--6--|-3--3--3--3--3--3--3--3--3--3--3--3--3--3--3--3--|


B|-------------------------------------------------|-------------------------------------------------|
G|-------------------------------------------------|-------------------------------------------------|
D|-------------------------------------------------|-------------------------------------------------|
A|-------------------------------------------------|-------------------------------------------------|
E|-------------------------------------------------|-------------------------------------------------|
B|-11-11-11-11-11-11-11-11-11-11-11-11-11-11-11-11-|-3--3--3--3--3--3--3--3--3--3--3--3--3--3--3--3--|


B|-----------------------------------------------|---------------------|-----------------------|
G|-----------------------------------------------|---------------------|-----------------------|
D|-----------------------------------------------|---------------------|-----------------------|
A|-----------------------------------------------|---------------------|-----------------------|
E|-----------------------------------------------|-------------5---6---|-----------------------|
B|-11-11-11-11-11-11-8--8--8--8--8--8--5--6---8--|-7-----8-------------|-2-----1-----5--6---8--|


B|---------------------|--------------------------|---------------------|-----------------------|
G|---------------------|--------------------------|---------------------|-----------------------|
D|---------------------|--------------------------|---------------------|-----------------------|
A|---------------------|--------------------------|---------------------|-----------------------|
E|-------------6---7---|-9-----10--------------5--|-------------5---6---|-----------------------|
B|-7-----8-------------|------------8----8--5-----|-7-----8-------------|-2-----1-----5--6---8--|


B|---------------------|--------------------------|---------------------|---------------------|
G|---------------------|--------------------------|---------------------|---------------------|
D|---------------------|--------------------------|---------------------|---------------------|
A|---------------------|--------------------------|---------------------|---------------------|
E|-------------6---7---|-9-----10--------------5--|-------------5---6---|---------------------|
B|-7-----8-------------|------------8----8--5-----|-7-----8-------------|-2-----3-----3--5----|


B|---------------------|------------------|------------------------|-----------------|
G|---------------------|------------------|------------------------|-----------------|
D|---------------------|------------------|-------------5-----7----|------8-----7----|
A|---------------------|------------------|------------------------|-----------------|
E|---------------------|-5--6--8---8------|-7--6--5--4--3-----5----|------6-----5----|
B|-5--6----7-----8-----|------------------|------------------------|-----------------|


B|-----------------|-----------------|-----------------|-----------------|-----------------|
G|-----------------|-----------------|------3-----2----|-----------------|-----------------|
D|------5-----7----|-----------------|-----------------|-----------------|------5-----7----|
A|-----------------|------5-----7----|------1-----0----|------5-----7----|-----------------|
E|------3-----5----|-----------------|-----------------|-----------------|------3-----5----|
B|-----------------|------3-----5----|-----------------|------3-----5----|-----------------|


B|-----------------|------------------------------------------|-------------------------------------------------|
G|-----------------|------------------------------------------|-------------------------------------------------|
D|------8----------|------------------------------------------|-------------------------------------------------|
A|------------7----|------------------------------------------|-------------------------------------------------|
E|------6----------|------------------------------------------|-------------------------------------------------|
B|------------5----|------3--3--3--3--3--3--3--3--3--3--3--3--|-3--3--3--3--11-11-11-11-11-11-8--8--8--8--8--8--|


B|-------------------------------------------------|-------------------------------------------------|
G|-------------------------------------------------|-------------------------------------------------|
D|-------------------------------------------------|-------------------------------------------------|
A|-------------------------------------------------|-------------------------------------------------|
E|-------------------------------------------------|-------------------------------------------------|
B|-5--5--5--5--6--6--6--6--3--3--3--3--3--3--3--3--|-3--3--3--3--3--3--3--3--11-11-11-11-11-11-11-11-|


B|---------------------------------------------|-------------------------------------------------|
G|---------------------------------------------|-------------------------------------------------|
D|---------------------------------------------|-------------------------------------------------|
A|---------------------------------------------|-------------------------------------------------|
E|---------------------------------------------|-------------------------------------------------|
B|-13-13-13-13-6--8---5--5--6---5--3--3--3--3--|-3--3--3--3--3--3--3--3--3--3--3--3--11-11-11-11-|


B|-------------------------------------------------|-------------------------------------------------|
G|-------------------------------------------------|-------------------------------------------------|
D|-------------------------------------------------|-------------------------------------------------|
A|-------------------------------------------------|-------------------------------------------------|
E|-------------------------------------1--1--1--1--|-1--1--1--1--1--1--1--1--1--1--1--1--3--3--3--3--|
B|-11-11-8--8--8--8--8--8--5--5--5--5--------------|-------------------------------------------------|


B|-------------------------------------------------|-------------------------------------------------|
G|-------------------------------------------------|-------------------------------------------------|
D|-------------------------------------------------|-------------------------------------------------|
A|-------------------------------------------------|-------------------------------------------------|
E|-3--3--3--3--5--5--5--5--5--5--5--5--6--6--6--6--|-6--6--6--6--0--0--0--0--0--0--0--0--------------|
B|-------------------------------------------------|-------------------------------------3--3--3--3--|


B|-------------------------------------------------|-------------------------------------------------|
G|-------------------------------------------------|-------------------------------------------------|
D|-------------------------------------------------|-------------------------------------------------|
A|-------------------------------------------------|-------------------------------------------------|
E|-------------------------------------------------|-------------------------------------------------|
B|-3--3--3--3--3--3--3--3--3--3--3--3--11-11-11-11-|-11-11-11-11-11-11-11-11-11-11-11-11-3--3--3--3--|


B|-------------------------------------------------|-------------------------------------------------|
G|-------------------------------------------------|-------------------------------------------------|
D|-------------------------------------------------|-------------------------------------------------|
A|-------------------------------------------------|-------------------------------------------------|
E|-------------------------------------------------|-------------------------------------------------|
B|-3--3--3--3--3--3--3--3--3--3--3--3--11-11-11-11-|-11-11-8--8--8--8--8--8--5--5--6--6--3--3--3--3--|


B|-------------------------------------------------|-------------------------------------------------|
G|-------------------------------------------------|-------------------------------------------------|
D|-------------------------------------------------|-------------------------------------------------|
A|-------------------------------------------------|-------------------------------------------------|
E|-------------------------------------------------|-------------------------------------------------|
B|-3--3--3--3--3--3--3--3--3--3--3--3--11-11-11-11-|-11-11-11-11-11-11-11-11-11-11-11-11-3--3--3--3--|


B|-------------------------------------------------|----------------------------------------|
G|-------------------------------------------------|----------------------------------------|
D|-------------------------------------------------|----------------------------------------|
A|-------------------------------------------------|----------------------------------------|
E|-------------------------------------------------|----------------------------------------|
B|-3--3--3--3--3--3--3--3--3--3--3--3--11-11-11-11-|-11-11-8--8--8--8--8--8--5--6---8--7----|


B|------------------------|--------------------------|------------------------|-----------------------------|
G|------------------------|--------------------------|------------------------|-----------------------------|
D|------------------------|--------------------------|------------------------|-----------------------------|
A|------------------------|--------------------------|------------------------|-----------------------------|
E|-----------5---6--------|--------------------------|-----------6---7---9----|-----10--------------5-------|
B|-----8-------------2----|-----1-----5--6---8--7----|-----8------------------|----------8----8--5-----7----|


B|------------------------|---------------------------|-----------------------|----------------------|
G|------------------------|---------------------------|-----------------------|----------------------|
D|------------------------|---------------------------|-----------------------|----------------------|
A|------------------------|---------------------------|-----------------------|----------------------|
E|-----------5---6--------|---------------------------|-------------5--6--8---|-------8----9---------|
B|-----8-------------2----|-----3-----3--5----5--6----|-7-----8---------------|-----------------7----|


B|------------------------|--------------------------|------------------------|-----------------------------|
G|------------------------|--------------------------|------------------------|-----------------------------|
D|------------------------|--------------------------|------------------------|-----------------------------|
A|------------------------|--------------------------|------------------------|-----------------------------|
E|-----------5---6--------|--------------------------|-----------6---7---9----|-----10--------------5-------|
B|-----8-------------2----|-----1-----5--6---8--7----|-----8------------------|----------8----8--5-----7----|


B|------------------------|---------------------------|-----------------------|----------------------|
G|------------------------|---------------------------|-----------------------|----------------------|
D|------------------------|---------------------------|-----------------------|----------------------|
A|------------------------|---------------------------|-----------------------|----------------------|
E|-----------5---6--------|---------------------------|-------------5--6--8---|-------8----9---------|
B|-----8-------------2----|-----3-----3--5----5--6----|-7-----8---------------|-----------------7----|


B|------------------------|--------------------------|------------------------|-----------------------------|
G|------------------------|--------------------------|------------------------|-----------------------------|
D|------------------------|--------------------------|------------------------|-----------------------------|
A|------------------------|--------------------------|------------------------|-----------------------------|
E|-----------5---6--------|--------------------------|-----------6---7---9----|-----10--------------5-------|
B|-----8-------------2----|-----1-----5--6---8--7----|-----8------------------|----------8----8--5-----7----|


B|------------------------|---------------------------|-----------------------|----------------------|
G|------------------------|---------------------------|-----------------------|----------------------|
D|------------------------|---------------------------|-----------------------|----------------------|
A|------------------------|---------------------------|-----------------------|----------------------|
E|-----------5---6--------|---------------------------|-------------5--6--8---|-------8----9---------|
B|-----8-------------2----|-----3-----3--5----5--6----|-7-----8---------------|-----------------7----|


B|------------------------|--------------------------|------------------------|-----------------------------|
G|------------------------|--------------------------|------------------------|-----------------------------|
D|------------------------|--------------------------|------------------------|-----------------------------|
A|------------------------|--------------------------|------------------------|-----------------------------|
E|-----------5---6--------|--------------------------|-----------6---7---9----|-----10--------------5-------|
B|-----8-------------2----|-----1-----5--6---8--7----|-----8------------------|----------8----8--5-----7----|


B|------------------------|---------------------------|-----------------------|----------------------|
G|------------------------|---------------------------|-----------------------|----------------------|
D|------------------------|---------------------------|-----------------------|----------------------|
A|------------------------|---------------------------|-----------------------|----------------------|
E|-----------5---6--------|---------------------------|-------------5--6--8---|-------8----9---------|
B|-----8-------------2----|-----3-----3--5----5--6----|-7-----8---------------|-----------------7----|


B|------------------------|--------------------------|------------------------|-----------------------------|
G|------------------------|--------------------------|------------------------|-----------------------------|
D|------------------------|--------------------------|------------------------|-----------------------------|
A|------------------------|--------------------------|------------------------|-----------------------------|
E|-----------5---6--------|--------------------------|-----------6---7---9----|-----10--------------5-------|
B|-----8-------------2----|-----1-----5--6---8--7----|-----8------------------|----------8----8--5-----7----|


B|------------------------|---------------------------|-----------------------|----------------------|
G|------------------------|---------------------------|-----------------------|----------------------|
D|------------------------|---------------------------|-----------------------|----------------------|
A|------------------------|---------------------------|-----------------------|----------------------|
E|-----------5---6--------|---------------------------|-------------5--6--8---|-------8----9---------|
B|-----8-------------2----|-----3-----3--5----5--6----|-7-----8---------------|-----------------7----|


B|------------------------|--------------------------|------------------------|-----------------------------|
G|------------------------|--------------------------|------------------------|-----------------------------|
D|------------------------|--------------------------|------------------------|-----------------------------|
A|------------------------|--------------------------|------------------------|-----------------------------|
E|-----------5---6--------|--------------------------|-----------6---7---9----|-----10--------------5-------|
B|-----8-------------2----|-----1-----5--6---8--7----|-----8------------------|----------8----8--5-----7----|


B|------------------------|---------------------------|-----------------------|----------------------|
G|------------------------|---------------------------|-----------------------|----------------------|
D|------------------------|---------------------------|-----------------------|----------------------|
A|------------------------|---------------------------|-----------------------|----------------------|
E|-----------5---6--------|---------------------------|-------------5--6--8---|-------8----9---------|
B|-----8-------------2----|-----3-----3--5----5--6----|-7-----8---------------|-----------------7----|


B|------------------------|
G|------------------------|
D|------------------------|
A|------------------------|
E|-----------5---6--------|
B|-----8------------------|