Menu:

 

Search:

 

dream theater - metropolis pt 1 the miracle and the sleeper:

 



Title: Metropolis Part 1: The Miracle And The Sleeper
Artist: 
Album: 
Author: Dream Theater


Track 1: Distorted Guitar I

E|--------|--------|--------|--------|--------|--------|--------|---------------------------|
B|--------|--------|--------|--------|--------|--------|--------|---------------------------|
G|--------|--------|--------|--------|--------|--------|--------|---------------------------|
D|--------|--------|--------|--------|--------|--------|--------|---------------------------|
A|--------|--------|--------|--------|--------|--------|--------|---------------------------|
E|--------|--------|--------|--------|--------|--------|--------|-0--0--0--0--0-------------|


E|--------|----------------------------------|--------|------------------------------------|
B|--------|----------------------------------|--------|------------------------------------|
G|--------|----------------------------------|--------|------------------------------------|
D|--------|----------------------------------|--------|------------------------------------|
A|--------|----------------------------------|--------|------------------------------------|
E|--------|-0--0--0--0--0------------0-------|--------|-0--0--0--0--0------------0--0------|


E|--------|----------------------------------|--------|-------------------------------|
B|--------|----------------------------------|--------|-------------------------------|
G|--------|----------------------------------|--------|-------------------------------|
D|--------|----------------------------------|--------|-------------------------------|
A|--------|----------------------------------|--------|-------------------------------|
E|--------|-0--0--0--0--0------------0-------|--------|-0--0--0--0--0-----------------|


E|---------------------------|--------|---------------------------|-------3-------------|
B|---------------------------|--------|---------------------------|------------3--------|
G|---------------------------|--------|-----------------------5---|-5---------------5---|
D|-------------4----5----2---|-2------|-2-----------4----5----5---|-5-------------------|
A|-------------4----5----2---|-2------|-2-----------4----5----3---|-3-------------------|
E|-------0--0--2----3----0---|-0------|-0-----0--0--2----3--------|---------------------|


E|---------------------------|-----------------|-------------------------|---------------------|
B|---------------------------|-----------------|-------------------------|---------------------|
G|-5-------------------------|-----------4-----|-4---0---------------5---|-5-----5----7----9---|
D|-------------4----5----2---|-2-----2---------|-----------4----5----5---|-5-------------------|
A|-------------4----5----2---|-2-----2---------|-----------4----5----3---|-3-----3----5----7---|
E|-------0--0--2----3----0---|-0-----0---------|-----------2----3--------|---------------------|


E|-------------------------------------|-------------------------------------------|
B|-------------------------------------|-------------------------------------------|
G|-11----------------------------------|-------------------------------------------|
D|-----------------------4----5----2---|-2-----------------------------------------|
A|-9---10-9--10-9--10-9--4----5----2---|-2---------7------------7--------7---------|
E|-----------------------2----3----0---|-0---0--0------0--0--------0--0------0--0--|


E|-------------------------------------|---------------------|-------------------------|
B|-------------------------------------|---------------------|-------------------------|
G|---------------------------------5---|-5----12---11---9----|-7----5----4----2--------|
D|-----------------------4----5----5---|-5-------------------|----------------2----2---|
A|----7--------7---------4----5----3---|-3----10---9----7----|-5----3----2----0----2---|
E|-------0--0------0--0--2----3--------|---------------------|---------------------0---|


E|-----0---0--0--0--0--0--0--0--0--0--0--0--0--|-0--0--0--0--0--0--0--0----------------|
B|-----0---3--5--5--5--5--7--7--7--7--8--8--8--|-8--10-10-10-10-12-12-12---------------|
G|---------------------------------------------|-----------------------------------5---|
D|-2-------------------------------------------|-------------------------4----5----5---|
A|-2-------------------------------------------|-------------------------4----5----3---|
E|-0-------------------------------------------|-------------------------2----3--------|


E|---------------------|----------------------------|---------------------------|----------------|
B|---------------------|----------------------------|---------------------------|----------------|
G|-5-----5----7----9---|-11---12-12-----------------|-----------------------5---|-5------5-------|
D|-5-------------------|--------------4----5----2---|-2-----2-----------5-------|----------------|
A|-3-----3----5----7---|-9----10-10---4----5----2---|-2-----2-------5-----------|----------------|
E|---------------------|--------------2----3----0---|-0-----0---4---------------|------------17--|


E|------------------------------------|-----------------------------------------|------------------------------------|
B|------------------------------------|-----------------------------------------|------------------------------------|
G|--------------------------5----5----|-----------------------------7------7----|--------------------------4----4----|
D|-2--2--2--2--2---2--2--2--2----2----|-----------------------------7------5----|-2--2--2--2--2---2--2--2--2----2----|
A|------------------------------------|-7--7--7--7--7--0--5--5--5---5---5-------|------------------------------------|
E|------------------------------------|-----------------------------------------|------------------------------------|


E|-----------------------------------------|------------------------------------|---------------------------------------------------------|
B|-----------------------------------------|------------------------------------|---------------------------------------------------------|
G|-----------------------------7------7----|--------------------------5----5----|---------------------5--4--2-----------------------------|
D|-----------------------------7------5----|-2--2--2--2--2---2--2--2--2----2----|-2--2--2--2--2---2------------5--4--2--------------------|
A|-7--7--7--7--7--0--5--5--5---5---5-------|------------------------------------|---------------------------------------5--3--2-----------|
E|-----------------------------------------|------------------------------------|------------------------------------------------5--3--2--|


E|------------------------------------|---------------------------------------------------------|
B|------------------------------------|---------------------------------------------------------|
G|--------------------------4----4----|---------------------5--4--2-----------------------------|
D|-2--2--2--2--2---2--2--2--2----2----|-2--2--2--2--2---2------------5--4--2--------------------|
A|------------------------------------|---------------------------------------5--3--2-----------|
E|------------------------------------|------------------------------------------------5--3--2--|


E|-----------------------------------------------------|-----------------------------------------------------|
B|-----------------------------------------------------|-----------------------------------------------------|
G|-----------------------------------------------------|-----------------------------------------------------|
D|-----------------------------------------------------|-----------------------------------------------------|
A|-----------------------------------------------------|-----------------------------------------------------|
E|-0--0--0--0-------0--0--0--0--0--0--0---0--0--0--0---|-0--0--0--0-------0--0--0--0--0--0--0---0--0--0--0---|


E|-----------------------------------------------------|-----------------------------------------------------|
B|-----------------------------------------------------|-----------------------------------------------------|
G|-----------------------------------------------------|-----------------------------------------------------|
D|-----------------------------------------------------|-----------------------------------------------------|
A|-----------------------------------------------------|-----------------------------------------------------|
E|-0--0--0--0-------0--0--0--0--0--0--0---0--0--0--0---|-0--0--0--0-------0--0--0--0--0--0--0---0--0--0--0---|


E|-----------------------------------------------------|-----------------------------------------------------|
B|-----------------------------------------------------|-----------------------------------------------------|
G|-----------------------------------------------------|-----------------------------------------------------|
D|-----------------------------------------------------|-----------------------------------------------------|
A|-----------------------------------------------------|-----------------------------------------------------|
E|-0--0--0--0-------0--0--0--0--0--0--0---0--0--0--0---|-0--0--0--0-------0--0--0--0--0--0--0---0--0--0--0---|


E|-----------------------------------------------------|-----------------------------------------------------|
B|-----------------------------------------------------|-----------------------------------------------------|
G|-----------------------------------------------------|-----------------------------------------------------|
D|-----------------------------------------------------|-----------------------------------------------------|
A|-----------------------------------------------------|-----------------------------------------------------|
E|-0--0--0--0-------0--0--0--0--0--0--0---0--0--0--0---|-0--0--0--0-------0--0--0--0--0--0--0---0--0--0--0---|


E|-----------------------------------------------------|-----------------------------------------------------|
B|-----------------------------------------------------|-----------------------------------------------------|
G|-----------------------------------------------------|-----------------------------------------------------|
D|-----------------------------------------------------|-----------------------------------------------------|
A|-----------------------------------------------------|-----------------------------------------------------|
E|-0--0--0--0-------0--0--0--0--0--0--0---0--0--0--0---|-0--0--0--0-------0--0--0--0--0--0--0---0--0--0--0---|


E|-----------------------------------------------------|-----------------------------------------------------|
B|-----------------------------------------------------|-----------------------------------------------------|
G|-----------------------------------------------------|-----------------------------------------------------|
D|-----------------------------------------------------|-----------------------------------------------------|
A|-----------------------------------------------------|-----------------------------------------------------|
E|-0--0--0--0-------0--0--0--0--0--0--0---0--0--0--0---|-0--0--0--0-------0--0--0--0--0--0--0---0--0--0--0---|


E|-----------------------------------------------------|-------------------------------------|
B|-----------------------------------------------------|-------------------------------------|
G|-----------------------------------------------------|---------------------------------4---|
D|-----------------------------------------------------|------------------------4---5----4---|
A|-----------------------------------------------------|------------------------4---5----2---|
E|-0--0--0--0-------0--0--0--0--0--0--0---0--0--0--0---|-0--0--0--0-------0--0--2---3--------|


E|------2--------------|-----------3---------|--------------------|-----------------|
B|-----------2---------|-----------3-----3---|--------------------|-----------------|
G|-4--------------4----|-----------0-----2---|-----4-----4----6---|-7---11----------|
D|-4-------------------|-4---------0-----0---|-----4--------------|-----------2-----|
A|-2-------------------|------2--------------|-----2-----2----4---|-5---9-----2-----|
E|---------------------|-----------3-----2---|--------------------|-----------0-----|


E|--------------------|--------------------------------------|--------------------------|
B|-----------------7--|-8---------7--------------------------|--------------------------|
G|-2----5-----5----5--|-5---------5---5----------------------|--------------------------|
D|-2----5-----5-------|-----------5---5----------------------|-------------------2------|
A|-0----3-----3-------|-----3--3-----------3--3--------------|-------------------2------|
E|--------------------|--------------------------3--3--3--3--|-3--3--2--2--2--2--0------|


E|--------------|--------------|--------------|--------|--------|--------|--------|
B|--------------|--------------|--------------|--------|--------|--------|--------|
G|--------------|--------------|--------------|--------|--------|--------|--------|
D|-------2------|-------2------|-------2------|--------|--------|--------|--------|
A|-------2------|-------2------|-------2------|--------|--------|--------|--------|
E|-------0------|-------0------|-------0------|--------|--------|--------|--------|


E|--------|--------|--------|--------|--------|--------|--------|--------|--------|
B|--------|--------|--------|--------|--------|--------|--------|--------|--------|
G|--------|--------|--------|--------|--------|--------|--------|--------|--------|
D|--------|--------|--------|--------|--------|--------|--------|--------|--------|
A|--------|--------|--------|--------|--------|--------|--------|--------|--------|
E|--------|--------|--------|--------|--------|--------|--------|--------|--------|


E|-----------------|------------2-----------|-3----------3-----------|-2----------2-----------|
B|-----------------|------------3-----------|-3----------3-----------|-5----------5-----------|
G|-----------------|-4----------4-----------|-4----------4-----------|-4----------4-----------|
D|------------17---|-4----------4-----------|-5----------5-----------|-2----------2-----------|
A|------------17---|-2----2--2--2-----2--2--|-5----------5-----------|-2----------2-----------|
E|-----------------|------------------------|-3----3--3--3-----3--3--|-0----0--0--0-----0--0--|


E|-------------|------------2-----------|-3----------3-----------|------------------------|
B|-------------|------------3-----------|-3----------3-----------|-5----------5-----------|
G|-------------|-4----------4-----------|-4----------4-----------|-4----------4-----------|
D|-4-----7-----|-4----------4-----------|-5----------5-----------|-2----------2-----------|
A|-4-----7-----|-2----2--2--2-----2--2--|-5----------5-----------|-2----------2-----------|
E|-2-----5-----|------------------------|-3----3--3--3-----3--3--|-0----0--0--0-----0--0--|


E|-------------|------------------------------------|-----------------------------------------|
B|-3-----------|------------------------------------|-----------------------------------------|
G|-2-----2-----|--------------------------5----5----|-----------------------------7------7----|
D|-0-----2-----|-2--2--2--2--2---2--2--2--2----2----|-----------------------------7------5----|
A|-------0-----|------------------------------------|-7--7--7--7--7--0--5--5--5---5---5-------|
E|-------------|------------------------------------|-----------------------------------------|


E|------------------------------------|-3--2--3--2-----2--3--2--3--2-----2--5--2--5--2-----2--3--2--------------|
B|------------------------------------|-------------5-----------------5-----------------5-----------5--3--------|
G|--------------------------4----4----|-------------------------------------------------------------------4--2--|
D|-2--2--2--2--2---2--2--2--2----2----|-------------------------------------------------------------------------|
A|------------------------------------|-------------------------------------------------------------------------|
E|------------------------------------|-------------------------------------------------------------------------|


E|------------------------------------|-----------------------------------------|------------------------------------|
B|------------------------------------|-----------------------------------------|------------------------------------|
G|--------------------------5----5----|-----------------------------7------7----|--------------------------4----4----|
D|-2--2--2--2--2---2--2--2--2----2----|-----------------------------7------5----|-2--2--2--2--2---2--2--2--2----2----|
A|------------------------------------|-7--7--7--7--7--0--5--5--5---5---5-------|------------------------------------|
E|------------------------------------|-----------------------------------------|------------------------------------|


E|-----------------------------------------|------------------------------------|-----------------------------------------|
B|-----------------------------------------|------------------------------------|-----------------------------------------|
G|-----------------------------7------7----|--------------------------5----5----|-----------------------------7------7----|
D|-----------------------------7------5----|-2--2--2--2--2---2--2--2--2----2----|-----------------------------7------5----|
A|-7--7--7--7--7--0--5--5--5---5---5-------|------------------------------------|-7--7--7--7--7--0--5--5--5---5---5-------|
E|-----------------------------------------|------------------------------------|-----------------------------------------|


E|------------------------------------|-----------------------------------------|------------------------------------|
B|------------------------------------|-----------------------------------------|------------------------------------|
G|--------------------------4----4----|-----------------------------7------7----|--------------------------5----5----|
D|-2--2--2--2--2---2--2--2--2----2----|-----------------------------7------5----|-2--2--2--2--2---2--2--2--2----2----|
A|------------------------------------|-7--7--7--7--7--0--5--5--5---5---5-------|------------------------------------|
E|------------------------------------|-----------------------------------------|------------------------------------|


E|---------------------------------------|------------------------------------------------------------|
B|---------------------------------------|------5--0--5--0--5--0--5--0--5--0--5--0--5--0--5--0--5--0--|
G|-----------------------------------4---|-4----------------------------------------------------------|
D|-------------------------4----5----4---|-4----------------------------------------------------------|
A|-7--7--7--7--7--0--5--5--4----5----2---|-2----------------------------------------------------------|
E|-------------------------2----3--------|------------------------------------------------------------|


E|-----------------------------------------------|-------------------------------|
B|-5--0--5--0--5--0--5--0--5--0--5--0--3-----3---|-------------------------------|
G|-------------------------------------0-----2---|-----4----4--------------------|
D|-------------------------------------0-----0---|-----4----4--------------------|
A|-----------------------------------------------|-----2----2-------2----4----5--|
E|-------------------------------------3-----2---|-----2----2----2---------------|


E|-----------------|------------------------|------------------------------------------|
B|-----------------|------------5--------7--|-------8--------7-------------------------|
G|-----------9-----|-7----5--------5--------|-5--------5--------5-----5----------------|
D|-----------9-----|-7----5-----------5-----|----5--------5--------5-------5--7--5--4--|
A|-----5-----7-----|-5----------------------|------------------------------------------|
E|-----------0-----|------------------------|------------------------------------------|


E|--------------------------|-----------------|--------------|------------------------|
B|--------------------------|-----------------|--------------|------------------------|
G|--------------------------|-----------------|--------------|-------7----------------|
D|-------------------2------|-------2-----2---|-------2------|-------5-------9--------|
A|-7--5--3-----------2------|-------2-----2---|-------2------|---------------7--------|
E|----------7--5--3--0------|-------0-----0---|-------0------|------------------------|


E|------------------------------|-------------------------------------|-------------------------------------|
B|------------------------------|-------------------------------------|-------------------------------------|
G|------------------------------|-------------------------------------|-------------------------------------|
D|-7-------7----------------11--|-----9--9--------------9---------9---|-------------------11------9--9------|
A|-5-------4------------9-------|-9-----------------7-------7--7------|-7-------------9-------9-------------|
E|------------------7-----------|-----------7---5---------------------|-----5--5--7---------------------7---|


E|-------------------------------------|-----------------------------------|-------------------------------------|
B|-------------------------------------|-----------------------------------|-------------------------------------|
G|-------------------------------------|-----------------------------------|-------------------------------------|
D|---------7---------9-----------------|-----11------9--9--------------9---|-------9---------------------11------|
A|-----5-------5--7------7-------------|-9-------9-----------------7-------|-7--7------7-------------9-------9---|
E|-3-------------------------5--5--7---|-------------------7---5-----------|---------------5--5--7---------------|


E|-------------------------------------|-----------------------------------|---------------------------------|
B|-------------------------------------|-----------------------------------|---------------------------------|
G|-------------------------------------|-------------18------16-16---------|-----16------16------------------|
D|-9--9--------------7---------9-------|---------16------16--------16------|-14------14------14----------16--|
A|---------------5-------5--7------7---|-----14------------------------12--|---------------------12--14------|
E|-------7---3-------------------------|-5---------------------------------|---------------------------------|


E|-------------------------------------|-----------------------------------|---------------------------------|
B|-------------------------------------|-----------------------------------|---------------------------------|
G|-18------16-16-----------------------|-19------------------18------16-16-|-------------16------16----------|
D|-----16--------16----------19--16-17-|-----17----------16------16--------|-16------14------14------14------|
A|-----------------------17------------|-------------14--------------------|-----12----------------------12--|
E|-------------------15----------------|---------17------------------------|---------------------------------|


E|-----------------------------------|----------------------------------------------------|
B|-----------------------------------|----------------------------------------------------|
G|---------18------16-16-------------|-----------19---------------------------------------|
D|-----16------16--------16----------|-19--16-17-----17-----------------------------------|
A|-14----------------------------17--|-------------------16-14----------7--9--10----------|
E|---------------------------15------|-------------------------7--9--10----------9--10-12-|


E|-------------------------------------------------------------------------|-------------------12-14-15----------14-15-17-17-15-14-------------------|
B|-------------------------------------------------------------------------|-12-14-15-12-14-15----------14-15-17-------------------17-15-14----------|
G|-------------------------------------9--11-12----------11-12-14-11-12-14-|----------------------------------------------------------------16-14-12-|
D|-------------------9--11-12-9--11-12----------11-12-14-------------------|-------------------------------------------------------------------------|
A|-9--10-12-9--10-12-------------------------------------------------------|-------------------------------------------------------------------------|
E|-------------------------------------------------------------------------|-------------------------------------------------------------------------|


E|-------------------------------------------------------------------------|-------------------------------------------------------------------------|
B|-------------------------------------------------------------------------|-------------------------------------------------------------------------|
G|-------------------------------------------------------------------------|-------------------------------------14-16-18----------16-18-19----------|
D|-16-14-12----------------------------------------------------------------|-14-16-17----------16-17-19-14-16-17----------16-17-19----------17-19-21-|
A|----------16-14-12-------------------14-16-17----------16-17-19-14-16-17-|----------16-17-19-------------------------------------------------------|
E|-------------------15-14-12-14-15-17----------15-17-19-------------------|-------------------------------------------------------------------------|


E|-------------------------------------------------------------------------|----------19-22-21-21--21-21-----22--22---|
B|-------------------------------------------------------------------------|-19-20-22--------------------19-----------|
G|-18-19-21----------------------------18-19-21----------18-19-21-18-19-21-|------------------------------------------|
D|-------------------17-19-21-------------------17-19-21-------------------|------------------------------------------|
A|----------------------------17-19-21-------------------------------------|------------------------------------------|
E|----------17-19-21-------------------------------------------------------|------------------------------------------|


E|-----------------------------------|---------2-----------------------|---------------------------------|
B|-----------------------------------|-------------2-------------------|---------------------------------|
G|-------------6-------4--4----------|-----4-----------4-----------2---|-------------------------0-------|
D|---------4-------4---------2-------|-2-----------------------0-------|---------7-----------4-------4---|
A|-0---2-------------------------0---|---------------------2-----------|-----5-----------2---------------|
E|-----------------------------------|---------------------------------|-3-----------0-------------------|


E|-----------------------------0---|-0-----0-----0---|----------------|-----------------|
B|-----------------------------0---|-0-----0-----0---|----------------|-----------------|
G|-----------------2-----------5---|-4-----4-----4---|------------4---|-9-----9-----9---|
D|-------------6---------------3---|-2-----2-----2---|------------2---|-7-----7-----7---|
A|-2-------4-----------4---0---0---|-0-----0-----0---|------------0---|-0-----0-----0---|
E|-----2---------------------------|-----------------|----------------|-----------------|


E|----------------|-----------------|----------------|---------------------|-----1------------------|
B|----------------|-----------------|----------------|-----------------1---|----------1-------------|
G|------------9---|-7-----7-----7---|----------------|------------4--------|---------------4--------|
D|------------9---|-5-----5-----5---|----------------|---------------------|------------------------|
A|------------7---|-5-----5-----5---|----------------|-3-----3-------------|------------------------|
E|----------------|-----------------|------------0---|-1-----1-------------|--------------------0---|


E|--------|----------------|--------------12-----------|--------|-----0--0--0--0--0---------|
B|-0------|-0------0-------|-------------------12------|--------|-----0--0--0--0--0---------|
G|--------|----------------|-3----3-----------------15-|-15-----|-----3--3--3--3--3---------|
D|-4------|-4------4-------|-4----4--------------------|--------|-----4--4--4--4--4---------|
A|-4------|-4------4-------|-4----4--------------------|--------|-----4--4--4--4--4---------|
E|-2------|-2------2---0---|-2----2--------------------|--------|-----2--2--2--2--2---------|


E|-----------------|----------------|----------------|-9------|-9---9---0--9---0--0--0--9---9---7---|
B|-----------------|-----0------0---|-0------0-------|-9------|-9---9---0--9---0--0--0--9---9---7---|
G|-----------------|-----3------3---|-3------3-------|-11-----|-11--11--0--11--0--0--0--11--11--9---|
D|-----------17----|-----4------4---|-4------4-------|-11-----|-11--11--0--11--0--0--0--11--11--9---|
A|-----------17----|-----4------4---|-4------4-------|-9------|-9---9---0--9---0--0--0--9---9---7---|
E|-----------------|-0---2------2---|-2------2---0---|--------|-------------------------------------|


E|-9------------------|-------------------------|-----------------------------|--------------------|
B|-9------------------|-------------------------|-----------------------------|--------------------|
G|-11-----------------|-------------------------|-----------------------------|--------------------|
D|-11--------4--------|-----4--4--4---------4---|-5------------5--5--5--------|-----------5--------|
A|-9---------4--------|-----4--4--4---------4---|-5------------5--5--5--------|-----------5--------|
E|-----------2--------|-----2--2--2---------2---|-3------------3--3--3--------|-----------3--------|


E|--------------------|---------------------------|-------0------------|--------|-12----------------------14131211----------------|
B|--------------------|---------------------------|------------0-------|--------|--------12-----11----------------15141312--------|
G|--------------------|---------------------------|-----------------3--|-3------|---------------------11------------------15141312|
D|-7--------7---------|------9--------------------|-4------------------|--------|-------------------------------------------------|
A|-7--------7---------|------7----------------2---|-4------------------|--------|-------------------------------------------------|
E|-5--------5---------|------7----------------0---|-2------------------|--------|-------------------------------------------------|


E|----------------------------------------------------|---------------------------------|
B|----------------------------------------------------|---------------------------------|
G|----------------------------------------------------|---------------------------------|
D|-16-----14-----13--------14-16-14-13----------------|---------------------------------|
A|---------------------16--------------16-15-14-13----|---------------18--16---14-16-14-|
E|-------------------------------------------------16-|-14---12---11--------------------|


E|--------------------------|------21-------18-19-----------|--------------------------|
B|--------------------------|-19--------19---------17---19--|-16---16------------------|
G|-----------------------21-|-------------------------------|---------16--8--8---------|
D|------16-16----16---16----|-------------------------------|----------------------9---|
A|-13-----------------------|-------------------------------|--------------------------|
E|--------------------------|-------------------------------|--------------------------|


E|-------------------9--14-------9--12-------|----------9--------------------|-------------------------------------------------|
B|----------------------------------------10-|-11-12-13----10-11-------------|-12-9--10-11-10-9--------------------------------|
G|------11-----9--11-------9--11-------------|-------------------11----------|-------------------11-10-9--8-----8--9--10-9--8--|
D|-8-----------------------------------------|----------------------11-11----|-------------------------------11----------------|
A|-------------------------------------------|-------------------------------|-------------------------------------------------|
E|-------------------------------------------|-------------------------------|-------------------------------------------------|


E|----------------------------------------------------|-------------------------------------------------------------------------|
B|----------------------------------------------------|-7--7--------------5--5--------------------------------------------------|
G|----------------------------------------------------|-------------------------------------6--6--------------4--4--------------|
D|-11-10-9--8-----8--9--11-9--8--------------6--7--8--|-------6--4--5--6--------------------------------------------------------|
A|-------------11----------------11-10-9--8-----------|-------------------------8--6--7--8--------6--4--5--6--------4--2--3--4--|
E|----------------------------------------------------|-------------------------------------------------------------------------|


E|-----------------------|----7--8--9--9----9--8--7-----7--8--7--------|-8-7-5--------5--6---------------------------------|
B|--------------------9--|-9-------------------------10----------10-7--|--------7--5--------7------------------------------|
G|-3---------------------|---------------------------------------------|-----------------------6--5-4-2--------2--3--------|
D|-----------------------|---------------------------------------------|---------------------------------4--2--------4--2--|
A|----4----4-----4-------|---------------------------------------------|---------------------------------------------------|
E|-----------------------|---------------------------------------------|---------------------------------------------------|


E|--------------------------------------|-------------|----------------|----------------|
B|--------------------------------------|-------------|----------------|----------------|
G|--------------------------------------|-------------|-----3---3------|-3------3-------|
D|-4--2--------------------4----4--4----|-4----4------|-2---4---4------|-4------4---2---|
A|-------4--3--2--0---------------------|-------------|-2---4---4------|-4------4---2---|
E|-------------------3--2---------------|-------------|-0---2---2------|-2------2---0---|


E|--------|--------|-----------------------------------------|---------------------------------------|
B|--------|--------|-----------------------------------------|---------------------------------------|
G|-3------|-3------|----------4---------------------------4--|----------------------------4----------|
D|-4------|-4------|-------2-------------3---5---------2-----|-----------3---5---------2-------------|
A|-4------|-4------|-----------------3-----------------------|-------3---------------------------3---|
E|-2------|-2------|-0--0---------0--------------0--0--------|----0--------------0--0---------0------|


E|-------------------------------------|-------------|-------------|-------------|
B|-------------------------------------|-------------|-------------|-------------|
G|------------------4------------------|-------------|-------------|-------------|
D|-3---5---------2-------------3---5---|-------------|-------------|-------------|
A|-------------------------3-----------|-------------|-------------|-------------|
E|---------0--0---------0--------------|-------------|-------------|-------------|


E|-------12---------|-----10--------------|------------------|------------------------|
B|-------------10---|-----------12--------|------10----------|-------------15---------|
G|-9----------------|-----------------12--|------------------|-------------------15---|
D|------------------|---------------------|------------12----|-12-14---14-------------|
A|------------------|---------------------|------------------|------------------------|
E|------------------|---------------------|------------------|------------------------|


E|---------------------|------------------|------------------------17--15-16----------|
B|---------------------|------------------|----17-------17-------------------17-------|
G|-----16----13----9---|------11----------|-----------------16-14---------------------|
D|---------------------|------------8-----|-14----14-14-------------------------14-14-|
A|---------------------|------------------|-------------------------------------------|
E|---------------------|------------------|-------------------------------------------|


E|------------------------17--19--16-----|-17---16-16-22-------------------------|
B|-17--------17----------------------17--|--------------------------17-22--------|
G|---------------16-14-14----------------|---------------------------------------|
D|--------14-----------------------------|------------------13--14--------7--8---|
A|---------------------------------------|---------------------------------------|
E|---------------------------------------|---------------------------------------|


E|------------------9----10--16----|-----------------------|----------------------------------|
B|---------------------------------|-------------17--17----|----------------------------------|
G|---------------------------------|---------16------------|---------------4------------------|
D|-9------7----6----------------14-|----18-----------------|------------2-------------3---5---|
A|-----7---------------------------|-----------------------|----------------------3-----------|
E|---------------------------------|-----------------------|------0--0---------0--------------|


E|-----------------------------------------|-------------------------------------------|
B|-----------------------------------------|-------------------------------------------|
G|----------4------------------------------|-------------------------------------------|
D|-------2-------------3---5------------2--|-2--2-----------2--2---------2---3---------|
A|-----------------3-----------------------|-------------------------2-----------------|
E|-0--0---------0--------------0--0--0-----|-------0--0--0--------0--------------0--0--|


E|-------------------------------------------|---------------------------------------------|
B|-------------------------------------------|---------------------------------------------|
G|-------------------------------------------|---------------------------------------------|
D|----2--2--2-----------2--2---------2---3---|----------2--2--2-----------2--2---------2---|
A|-------------------------------2-----------|-------------------------------------2-------|
E|-0-----------0--0--0--------0--------------|-0--0--0-----------0--0--0--------0----------|


E|---------------------------------------------|---------------------------------------------|
B|---------------------------------------------|---------------------------------------------|
G|---------------------------------------------|------------------6--3--------------------7--|
D|-3------------2--2--2-----------2--2---------|-2---3---------5--------4--------------6-----|
A|-----------------------------------------2---|------------4--------------5--------5--------|
E|-----0--0--0-----------0--0--0--------0------|---------3--------------------6--4-----------|


E|---------------------------------------------|---------------------------------------------|
B|---------------------------------------------|---------------------------------------------|
G|--------------10-7--------------------11-----|-13---------------14-11-------------------15-|
D|-----------9--------8--------------10--------|-12------------13-------12-------------14----|
A|--------8--------------9--------9------------|-11---------12-------------13-------13-------|
E|-----7--------------------10-8---------------|-10------11-------------------14-12----------|


E|---------------------------11------------|-----------------------------------------------|
B|-----11-10-------------------------------|-----------------------------------------------|
G|-----------13-12-11-10-------------------|----13-12--------------------------------------|
D|----------------------------------12-12--|-----------------------------------------------|
A|-----------------------------------------|--------------------------------5--4--3--2--1--|
E|-----------------------------------------|--------------5--4--3--2--1--0-----------------|


E|-----------------------------------------------|-------------------------------------------------|
B|-----------------------------------------------|-------------------------------------------------|
G|-----------------------------------------------|-------------------------------------------------|
D|-----------------------------------------------|-------------------------------------------------|
A|-0-----------------------5--4--3--2--1--0------|-------------------5--4--3--2--1--0--------------|
E|-------5--4--3--2--1--0------------------------|-5--4--3--2--1--0-----------------------5--4--3--|


E|-------------------------------------------|-----------------------------------|
B|-------------------------------------------|-----------------------------------|
G|-------------------------------------------|-----------------------------------|
D|-------------------------------------------|----4-----------5-------4-------4--|
A|----------5--4--3--2--1--0-----------------|--------2---3-------3-------2------|
E|-2--1--0------------------------3---2---3--|-----------------------------------|


E|-----------------------------------|-----------------------------------|-----------------------------------|
B|-----------------------------------|-----------------------------------|-----------------------------------|
G|-----------------------------------|-----------------------------------|-----------------------------------|
D|--------------------4-----------5--|--------4-------4------------------|----4-----------5-------4-------4--|
A|----2-------------------2---3------|----3-------2-------2--------------|--------2---3-------3-------2------|
E|--------3---2---3------------------|------------------------3---2---3--|-----------------------------------|


E|-----------------------------------|-----------------------------------|-----------------------------------|
B|-----------------------------------|-----------------------------------|-----------------------------------|
G|-----------------------------------|-----------------------------------|-----------------------------------|
D|--------------------4-----------5--|--------4-------4------------------|----4-----------5-----------5------|
A|----2-------------------2---3------|----3-------2-------2--------------|--------2---3-------3---2-------3--|
E|--------3---2---3------------------|------------------------3---2---3--|-----------------------------------|


E|-----------------------------------|-----------------------------------|-----------------------------------|
B|-----------------------------------|-----------------------------------|-----------------------------------|
G|-----------------------------------|-----------------------------------|----------------------------2------|
D|----4-----------4-------2----------|------------5-------4-----------4--|--------2--------------------------|
A|--------2-------------------3---5--|----2---2-------3-------2----------|------------3---5---2---3-------3--|
E|------------5-------5--------------|----------------------------5------|----5------------------------------|


E|-----------------------------------|-----------------------------------|-----------------------------------|
B|-----------------------------------|-----------------------------------|-----------------------------------|
G|-----------------------------------|------------2----------------------|-----------------------------------|
D|----5---2-------4---------------2--|--------------------5---2-------4--|----------------2-----------4------|
A|------------5-------5---2---3------|----5---3-------3-----------5------|----5---2---3-------5--------------|
E|-----------------------------------|-----------------------------------|------------------------2-------2--|


E|-----------------------------------|-----------------------------------|-----------------------------------|
B|-----------------------------------|-----------------------------------|-----------------------------------|
G|-----------------------------------|-----------------------------------|-----------------------------------|
D|----5-----------5-------7----------|----4-------5-------7-----------4--|--------5-----------4-------5------|
A|-----------------------------------|-----------------------------------|----------------3-------3-------3--|
E|--------2---3-------3-------3---5--|--------5-------5-------5---7------|----7-------7----------------------|


E|-----------------------------------|-----------------------------------|-----------------------------------|
B|-----------------------------------|-----------------------------------|-----------------------------------|
G|-----------------------------------|-----------------------------------|--------------------9-----------12-|
D|----7-----------5-------7----------|----7-------9-----------9-------10-|--------12------------------9------|
A|--------3---5-------5-------5---7--|--------7-------7---8-------8------|----8-------8---9-------9----------|
E|-----------------------------------|-----------------------------------|-----------------------------------|


E|-----------------------------------|-----------------------------------|-----------------------------------|
B|-----------------------------------|-----------------------------------|--------------------------------10-|
G|--------11----------11------9------|----------------12------11---------|----11------9----------------------|
D|----9-------10------------------10-|----12--9---9-------9-------10-----|----------------10--12--9---10-----|
A|----------------12------12---------|--------------------------------12-|--------12-------------------------|
E|-----------------------------------|-----------------------------------|-----------------------------------|


E|-----------------------------------|-----------------------------------|--------------------------------15-|
B|-----------------------------------|----------------10-----------------|-----------------------------------|
G|--------12--9-------11-------------|----9-------------------12--9------|----11--------------9-------16-----|
D|----10----------12------12--9---10-|--------12--10------10----------12-|--------12--9---10------12---------|
A|-----------------------------------|-----------------------------------|-----------------------------------|
E|-----------------------------------|-----------------------------------|-----------------------------------|


E|--------14----------14------12-----|--------14------12-----------------|----15------14----------17------15-|
B|------------15------------------13-|--------------------13--15--12--12-|----------------15-----------------|
G|----16----------14------14---------|----14------14---------------------|--------16----------17------17-----|
D|-----------------------------------|-----------------------------------|-----------------------------------|
A|-----------------------------------|-----------------------------------|-----------------------------------|
E|-----------------------------------|-----------------------------------|-----------------------------------|


E|--------14----------19------17--14-|--------17------15----------17-----|----19--15--17----------22------22-|
B|----17------15----------15---------|----17--------------17--17------17-|----------------19--19-------------|
G|----------------16-----------------|------------17---------------------|----------------------------19-----|
D|-----------------------------------|-----------------------------------|-----------------------------------|
A|-----------------------------------|-----------------------------------|-----------------------------------|
E|-----------------------------------|-----------------------------------|-----------------------------------|


E|----------22--22----|----22--22----22--22---|---------22-------------------|-----------------------------|
B|--------------------|-----------------------|------------------------------|-----------------------------|
G|--------------------|-----------------------|-------------7----------------|-----------------------------|
D|--------------------|-----------------------|-------------5-------9--------|----7-------7----------------|
A|--------------------|-----------------------|---------------------7--------|----5-------4----------------|
E|--------------------|-----------------------|------------------------------|-----------------------------|


E|--------|--------|--------|--------|--------|--------|--------|--------|--------|
B|--------|--------|--------|--------|--------|--------|--------|--------|--------|
G|--------|--------|--------|--------|--------|--------|--------|--------|--------|
D|--------|--------|--------|--------|--------|--------|--------|--------|--------|
A|--------|--------|--------|--------|--------|--------|--------|--------|--------|
E|--------|--------|--------|--------|--------|--------|--------|--------|--------|


E|--------|--------|------------------|----------------3-------|----3-----------2-------|
B|--------|--------|----------3-------|----3-----------3-------|----3-----------5-------|
G|--------|--------|----------4-------|----4-----------4-------|----4-----------4-------|
D|--------|--------|----------4-------|----4-----------5-------|----5-----------2-------|
A|--------|--------|----------2----2--|-2--2-----2--2--5-------|----5-----------2-------|
E|--------|--------|------------------|----------------3----3--|-3--3-----3--3--0----0--|


E|----2-----------------|--------------------|----------------3-------|----3-----------2-------|
B|----5-----------------|------------3-------|----3-----------3-------|----3-----------5-------|
G|----4-----------7-----|------------4-------|----4-----------4-------|----4-----------4-------|
D|----2-----------7-----|------7-----4-------|----4-----------5-------|----5-----------2-------|
A|----2-----------5-----|------7-----2----2--|-2--2-----2--2--5-------|----5-----------2-------|
E|-0--0-----0--0--------|------5-------------|----------------3----3--|-3--3-----3--3--0----0--|


E|----2-----------------|------------------|----------------|----------3----6--|------5----3----5----5--|
B|----5-----------------|------------3-----|----------5-----|----------3-------|----------------6-------|
G|----4-----------7-----|------------3-----|----------5-----|----------3-------|----------------7-------|
D|----2-----------7-----|------7-----3-----|----------5-----|----------5-------|----------------7-------|
A|----2-----------5-----|------7-----1-----|----------3-----|------------------|----------------5-------|
E|-0--0-----0--0--------|------5-----------|----------------|----------3-------|------------------------|


E|----------------------|------------------------|----------------------------|--------6---------6-----|
B|------6---------6-----|----6-------------5-----|----5-----------------------|---6---------6----6-----|
G|-----------7----5-----|---------5---5----5-----|---------5---5--------------|------------------7-----|
D|----------------5-----|------------------5-----|-----------------------8----|------------------8-----|
A|----------------3-----|------------------3-----|------------------6---------|------------------------|
E|----------------------|------------------------|----------------------------|------------------6-----|


E|--------------------|--------8-----8-----|-----------------------------|--------3---------3-----|
B|--------------------|---8----------8-----|-----------------------------|----3--------3----3-----|
G|--------------------|--------------10----|------10---9----7----5----5--|------------------5-----|
D|---------------10---|--------------10----|---------------------5-------|------------------5-----|
A|----------8---------|--------------------|------8----7----5----3-------|------------------3-----|
E|--------------------|--------------------|-----------------------------|------------------------|


E|----------------|----------------|----------------|----------------|----------------|
B|----------3-----|----------3-----|----------3-----|----------3-----|----------3-----|
G|----------2-----|----------2-----|----------2-----|----------2-----|----------2-----|
D|----------4-----|----------4-----|----------4-----|----------4-----|----------4-----|
A|----------5-----|----------5-----|----------5-----|----------5-----|----------5-----|
E|----------------|----------------|----------------|----------------|----------------|


E|----------------|----------------|
B|----------3-----|----------3-----|
G|----------2-----|----------2-----|
D|----------4-----|----------4-----|
A|----------5-----|----------5-----|
E|----------------|----------------|





Track 2: Distorted Guitar II

E|--------|--------|--------|--------|--------|--------|--------|--------|--------|
B|--------|--------|--------|--------|--------|--------|--------|--------|--------|
G|--------|--------|--------|--------|--------|--------|--------|--------|--------|
D|--------|--------|--------|--------|--------|--------|--------|--------|--------|
A|--------|--------|--------|--------|--------|--------|--------|--------|--------|
E|--------|--------|--------|--------|--------|--------|--------|--------|--------|


E|--------|--------|--------|--------|--------|--------|--------|---------------------------|
B|--------|--------|--------|--------|--------|--------|--------|---------------------------|
G|--------|--------|--------|--------|--------|--------|--------|---------------------------|
D|--------|--------|--------|--------|--------|--------|--------|-------------4----5----2---|
A|--------|--------|--------|--------|--------|--------|--------|-------------4----5----2---|
E|--------|--------|--------|--------|--------|--------|--------|-------0--0--2----3----0---|


E|--------|---------------------------|--------|---------------------------|--------|
B|--------|---------------------------|--------|---------------------------|--------|
G|--------|-----------------------5---|-5------|-5-------------------------|--------|
D|-2------|-2-----------4----5----5---|-5------|-5-----------4----5----2---|-2------|
A|-2------|-2-----------4----5----3---|-3------|-3-----------4----5----2---|-2------|
E|-0------|-0-----0--0--2----3--------|--------|-------0--0--2----3----0---|-0------|


E|---------------------|--------|---------------------|--------|---------------------|
B|---------------------|--------|---------------------|--------|---------------------|
G|-----------------5---|-5------|-5-------------------|--------|-----------------5---|
D|-2-----4----5----5---|-5------|-5-----4----5----2---|-2------|-2-----4----5----5---|
A|-2-----4----5----3---|-3------|-3-----4----5----2---|-2------|-2-----4----5----3---|
E|-0-----2----3--------|--------|-------2----3----0---|-0------|-0-----2----3--------|


E|--------|---------------------|--------|---------------------|--------|---------------------|
B|--------|---------------------|--------|---------------------|--------|---------------------|
G|-5------|-5-------------------|--------|-----------------5---|-5------|-5-------------------|
D|-5------|-5-----4----5----2---|-2------|-2-----4----5----5---|-5------|-5-----4----5----2---|
A|-3------|-3-----4----5----2---|-2------|-2-----4----5----3---|-3------|-3-----4----5----2---|
E|--------|-------2----3----0---|-0------|-0-----2----3--------|--------|-------2----3----0---|


E|--------|--------|--------|--------|--------|--------|--------|--------|--------|
B|--------|--------|--------|--------|--------|--------|--------|--------|--------|
G|--------|--------|--------|--------|--------|--------|--------|--------|--------|
D|-2------|--------|--------|--------|--------|--------|--------|--------|--------|
A|-2------|--------|--------|--------|--------|--------|--------|--------|--------|
E|-0------|--------|--------|--------|--------|--------|--------|--------|--------|


E|--------|--------|--------|--------|--------|--------|--------|--------|--------|
B|--------|--------|--------|--------|--------|--------|--------|--------|--------|
G|--------|--------|--------|--------|--------|--------|--------|--------|--------|
D|--------|--------|--------|--------|--------|--------|--------|--------|--------|
A|--------|--------|--------|--------|--------|--------|--------|--------|--------|
E|--------|--------|--------|--------|--------|--------|--------|--------|--------|


E|--------|--------|--------|--------|--------|--------|--------|--------|--------|
B|--------|--------|--------|--------|--------|--------|--------|--------|--------|
G|--------|--------|--------|--------|--------|--------|--------|--------|--------|
D|--------|--------|--------|--------|--------|--------|--------|--------|--------|
A|--------|--------|--------|--------|--------|--------|--------|--------|--------|
E|--------|--------|--------|--------|--------|--------|--------|--------|--------|


E|--------|--------|--------|--------|--------|--------|--------|--------|--------|
B|--------|--------|--------|--------|--------|--------|--------|--------|--------|
G|--------|--------|--------|--------|--------|--------|--------|--------|--------|
D|--------|--------|--------|--------|--------|--------|--------|--------|--------|
A|--------|--------|--------|--------|--------|--------|--------|--------|--------|
E|--------|--------|--------|--------|--------|--------|--------|--------|--------|


E|--------|--------|--------|--------|--------|--------|--------|--------|--------|
B|--------|--------|--------|--------|--------|--------|--------|--------|--------|
G|--------|--------|--------|--------|--------|--------|--------|--------|--------|
D|--------|--------|--------|--------|--------|--------|--------|--------|--------|
A|--------|--------|--------|--------|--------|--------|--------|--------|--------|
E|--------|--------|--------|--------|--------|--------|--------|--------|--------|


E|--------|--------|--------|--------|--------|--------|--------|--------|--------|
B|--------|--------|--------|--------|--------|--------|--------|--------|--------|
G|--------|--------|--------|--------|--------|--------|--------|--------|--------|
D|--------|--------|--------|--------|--------|--------|--------|--------|--------|
A|--------|--------|--------|--------|--------|--------|--------|--------|--------|
E|--------|--------|--------|--------|--------|--------|--------|--------|--------|


E|--------|--------|--------|--------|--------|--------|--------|--------|--------|
B|--------|--------|--------|--------|--------|--------|--------|--------|--------|
G|--------|--------|--------|--------|--------|--------|--------|--------|--------|
D|--------|--------|--------|--------|--------|--------|--------|--------|--------|
A|--------|--------|--------|--------|--------|--------|--------|--------|--------|
E|--------|--------|--------|--------|--------|--------|--------|--------|--------|


E|--------|--------|--------|--------|--------|--------|--------|--------|--------|
B|--------|--------|--------|--------|--------|--------|--------|--------|--------|
G|--------|--------|--------|--------|--------|--------|--------|--------|--------|
D|--------|--------|--------|--------|--------|--------|--------|--------|--------|
A|--------|--------|--------|--------|--------|--------|--------|--------|--------|
E|--------|--------|--------|--------|--------|--------|--------|--------|--------|


E|--------|--------|--------|--------|--------|--------|--------|--------|--------|
B|--------|--------|--------|--------|--------|--------|--------|--------|--------|
G|--------|--------|--------|--------|--------|--------|--------|--------|--------|
D|--------|--------|--------|--------|--------|--------|--------|--------|--------|
A|--------|--------|--------|--------|--------|--------|--------|--------|--------|
E|--------|--------|--------|--------|--------|--------|--------|--------|--------|


E|--------|--------|--------|-----------------|-------------|-------------|-----------------------------------|
B|--------|--------|--------|-----------------|-------------|-------------|-------------17------15-15---------|
G|--------|--------|--------|-----------------|-------------|-------------|---------16------16--------16------|
D|--------|--------|--------|-----------------|-------------|-------------|-----12------------------------11--|
A|--------|--------|--------|-----------------|-------------|-------------|-----------------------------------|
E|--------|--------|--------|-----------------|-------------|-------------|-----------------------------------|


E|-----12------12------------------|-----------------------------------|-19--------------------------------|
B|---------------------------------|-17------15-15-----------------17--|-----17--------------17------15-15-|
G|-12------12------12----------16--|-----16--------16----------18------|-----------------16------16--------|
D|---------------------11--12------|-----------------------16----------|---------11--12--------------------|
A|---------------------------------|-------------------14--------------|-----------------------------------|
E|---------------------------------|-----------------------------------|-----------------------------------|


E|-------------12------12----------|-----------------------------------|---------19----------------|
B|---------------------------------|---------17------15-15-------------|-----17------17------------|
G|-16------12------12------12------|-----16------16--------16----------|-18--------------14--------|
D|-----11----------------------11--|-12----------------------------16--|---------------------------|
A|---------------------------------|---------------------------14------|---------------------------|
E|---------------------------------|-----------------------------------|---------------------------|


E|--------|--------|--------|--------|--------|--------|--------|--------|--------|
B|--------|--------|--------|--------|--------|--------|--------|--------|--------|
G|--------|--------|--------|--------|--------|--------|--------|--------|--------|
D|--------|--------|--------|--------|--------|--------|--------|--------|--------|
A|--------|--------|--------|--------|--------|--------|--------|--------|--------|
E|--------|--------|--------|--------|--------|--------|--------|--------|--------|


E|--------|--------|--------|--------|--------|--------|--------|--------|--------|
B|--------|--------|--------|--------|--------|--------|--------|--------|--------|
G|--------|--------|--------|--------|--------|--------|--------|--------|--------|
D|--------|--------|--------|--------|--------|--------|--------|--------|--------|
A|--------|--------|--------|--------|--------|--------|--------|--------|--------|
E|--------|--------|--------|--------|--------|--------|--------|--------|--------|


E|--------|--------|--------|--------|--------|--------|--------|--------|--------|
B|--------|--------|--------|--------|--------|--------|--------|--------|--------|
G|--------|--------|--------|--------|--------|--------|--------|--------|--------|
D|--------|--------|--------|--------|--------|--------|--------|--------|--------|
A|--------|--------|--------|--------|--------|--------|--------|--------|--------|
E|--------|--------|--------|--------|--------|--------|--------|--------|--------|


E|--------|--------|--------|--------|--------|--------|--------|--------|--------|
B|--------|--------|--------|--------|--------|--------|--------|--------|--------|
G|--------|--------|--------|--------|--------|--------|--------|--------|--------|
D|--------|--------|--------|--------|--------|--------|--------|--------|--------|
A|--------|--------|--------|--------|--------|--------|--------|--------|--------|
E|--------|--------|--------|--------|--------|--------|--------|--------|--------|


E|--------|--------|--------|--------|--------|--------|--------|--------|--------|
B|--------|--------|--------|--------|--------|--------|--------|--------|--------|
G|--------|--------|--------|--------|--------|--------|--------|--------|--------|
D|--------|--------|--------|--------|--------|--------|--------|--------|--------|
A|--------|--------|--------|--------|--------|--------|--------|--------|--------|
E|--------|--------|--------|--------|--------|--------|--------|--------|--------|


E|--------|--------|--------|--------|--------|--------|--------|--------|--------|
B|--------|--------|--------|--------|--------|--------|--------|--------|--------|
G|--------|--------|--------|--------|--------|--------|--------|--------|--------|
D|--------|--------|--------|--------|--------|--------|--------|--------|--------|
A|--------|--------|--------|--------|--------|--------|--------|--------|--------|
E|--------|--------|--------|--------|--------|--------|--------|--------|--------|


E|--------|--------|--------|--------|--------|--------|--------|--------|--------|
B|--------|--------|--------|--------|--------|--------|--------|--------|--------|
G|--------|--------|--------|--------|--------|--------|--------|--------|--------|
D|--------|--------|--------|--------|--------|--------|--------|--------|--------|
A|--------|--------|--------|--------|--------|--------|--------|--------|--------|
E|--------|--------|--------|--------|--------|--------|--------|--------|--------|


E|--------|--------|--------|--------|--------|--------|--------|--------|--------|
B|--------|--------|--------|--------|--------|--------|--------|--------|--------|
G|--------|--------|--------|--------|--------|--------|--------|--------|--------|
D|--------|--------|--------|--------|--------|--------|--------|--------|--------|
A|--------|--------|--------|--------|--------|--------|--------|--------|--------|
E|--------|--------|--------|--------|--------|--------|--------|--------|--------|


E|--------|--------|--------|--------|--------|--------|--------|--------|--------|
B|--------|--------|--------|--------|--------|--------|--------|--------|--------|
G|--------|--------|--------|--------|--------|--------|--------|--------|--------|
D|--------|--------|--------|--------|--------|--------|--------|--------|--------|
A|--------|--------|--------|--------|--------|--------|--------|--------|--------|
E|--------|--------|--------|--------|--------|--------|--------|--------|--------|


E|--------|--------|--------|--------|--------|--------|--------|--------|--------|
B|--------|--------|--------|--------|--------|--------|--------|--------|--------|
G|--------|--------|--------|--------|--------|--------|--------|--------|--------|
D|--------|--------|--------|--------|--------|--------|--------|--------|--------|
A|--------|--------|--------|--------|--------|--------|--------|--------|--------|
E|--------|--------|--------|--------|--------|--------|--------|--------|--------|


E|--------|--------|--------|--------|--------|--------|--------|--------|--------|
B|--------|--------|--------|--------|--------|--------|--------|--------|--------|
G|--------|--------|--------|--------|--------|--------|--------|--------|--------|
D|--------|--------|--------|--------|--------|--------|--------|--------|--------|
A|--------|--------|--------|--------|--------|--------|--------|--------|--------|
E|--------|--------|--------|--------|--------|--------|--------|--------|--------|


E|--------|--------|--------|--------|--------|--------|--------|--------|--------|
B|--------|--------|--------|--------|--------|--------|--------|--------|--------|
G|--------|--------|--------|--------|--------|--------|--------|--------|--------|
D|--------|--------|--------|--------|--------|--------|--------|--------|--------|
A|--------|--------|--------|--------|--------|--------|--------|--------|--------|
E|--------|--------|--------|--------|--------|--------|--------|--------|--------|


E|--------|--------|--------|------------------|-----------------------------------|
B|--------|--------|--------|---------------17-|--------15----------15------13-----|
G|--------|--------|--------|------------------|------------16------------------14-|
D|--------|--------|--------|-----------17-----|----17----------16------17---------|
A|--------|--------|--------|------------------|-----------------------------------|
E|--------|--------|--------|------------------|-----------------------------------|


E|-----------------------------------|-----------------------------------|-----------------------------------|
B|--------15------13-----------------|----17------15----------17------17-|--------15----------20------19--15-|
G|--------------------14--16--12--12-|----------------16--14------14-----|----17----------16------16---------|
D|----16------17---------------------|--------17-------------------------|------------17---------------------|
A|-----------------------------------|-----------------------------------|-----------------------------------|
E|-----------------------------------|-----------------------------------|-----------------------------------|


E|-----------------------------------|-----------------------------------|-------------------------------------|
B|--------19------17-----------------|----20--17--19----------19---------|-------------------------------------|
G|----17------14------17--17--17--16-|----------------19--19------19-----|-------------------------------------|
D|-----------------------------------|--------------------------------5--|----7---5---4--4------------------5--|
A|-----------------------------------|-----------------------------------|------------------7---5---3----------|
E|-----------------------------------|-----------------------------------|------------------------------7------|


E|-------------------------------------|-------------------------|--------|--------|
B|-------------------------------------|-------------------------|--------|--------|
G|-------------------------------------|-------------------------|--------|--------|
D|----7---5---4--4---------------------|-------------------------|--------|--------|
A|------------------7---5---3----------|-------------------------|--------|--------|
E|------------------------------7---5--|----3---2---0------------|--------|--------|


E|--------|--------|--------|--------|--------|--------|--------|--------|--------|
B|--------|--------|--------|--------|--------|--------|--------|--------|--------|
G|--------|--------|--------|--------|--------|--------|--------|--------|--------|
D|--------|--------|--------|--------|--------|--------|--------|--------|--------|
A|--------|--------|--------|--------|--------|--------|--------|--------|--------|
E|--------|--------|--------|--------|--------|--------|--------|--------|--------|


E|--------|--------|--------|--------|--------|--------|--------|--------|--------|
B|--------|--------|--------|--------|--------|--------|--------|--------|--------|
G|--------|--------|--------|--------|--------|--------|--------|--------|--------|
D|--------|--------|--------|--------|--------|--------|--------|--------|--------|
A|--------|--------|--------|--------|--------|--------|--------|--------|--------|
E|--------|--------|--------|--------|--------|--------|--------|--------|--------|


E|--------|--------|--------|--------|--------|--------|--------|--------|--------|
B|--------|--------|--------|--------|--------|--------|--------|--------|--------|
G|--------|--------|--------|--------|--------|--------|--------|--------|--------|
D|--------|--------|--------|--------|--------|--------|--------|--------|--------|
A|--------|--------|--------|--------|--------|--------|--------|--------|--------|
E|--------|--------|--------|--------|--------|--------|--------|--------|--------|


E|--------|--------|--------|--------|--------|--------|--------|--------|--------|
B|--------|--------|--------|--------|--------|--------|--------|--------|--------|
G|--------|--------|--------|--------|--------|--------|--------|--------|--------|
D|--------|--------|--------|--------|--------|--------|--------|--------|--------|
A|--------|--------|--------|--------|--------|--------|--------|--------|--------|
E|--------|--------|--------|--------|--------|--------|--------|--------|--------|


E|--------|
B|--------|
G|--------|
D|--------|
A|--------|
E|--------|





Track 3: Clean Guitar

E|--------|--------|--------|--------|--------|--------|--------|--------|--------|
B|--------|--------|--------|--------|--------|--------|--------|--------|--------|
G|--------|--------|--------|--------|--------|--------|--------|--------|--------|
D|--------|--------|--------|--------|--------|--------|--------|--------|--------|
A|--------|--------|--------|--------|--------|--------|--------|--------|--------|
E|--------|--------|--------|--------|--------|--------|--------|--------|--------|


E|--------|--------|--------|--------|--------|--------|--------|--------|--------|
B|--------|--------|--------|--------|--------|--------|--------|--------|--------|
G|--------|--------|--------|--------|--------|--------|--------|--------|--------|
D|--------|--------|--------|--------|--------|--------|--------|--------|--------|
A|--------|--------|--------|--------|--------|--------|--------|--------|--------|
E|--------|--------|--------|--------|--------|--------|--------|--------|--------|


E|--------|--------|--------|--------|--------|--------|--------|--------|--------|
B|--------|--------|--------|--------|--------|--------|--------|--------|--------|
G|--------|--------|--------|--------|--------|--------|--------|--------|--------|
D|--------|--------|--------|--------|--------|--------|--------|--------|--------|
A|--------|--------|--------|--------|--------|--------|--------|--------|--------|
E|--------|--------|--------|--------|--------|--------|--------|--------|--------|


E|--------|--------|--------|--------|--------|--------|--------|--------|--------|
B|--------|--------|--------|--------|--------|--------|--------|--------|--------|
G|--------|--------|--------|--------|--------|--------|--------|--------|--------|
D|--------|--------|--------|--------|--------|--------|--------|--------|--------|
A|--------|--------|--------|--------|--------|--------|--------|--------|--------|
E|--------|--------|--------|--------|--------|--------|--------|--------|--------|


E|--------|--------|--------|--------|--------|--------|--------|--------|--------|
B|--------|--------|--------|--------|--------|--------|--------|--------|--------|
G|--------|--------|--------|--------|--------|--------|--------|--------|--------|
D|--------|--------|--------|--------|--------|--------|--------|--------|--------|
A|--------|--------|--------|--------|--------|--------|--------|--------|--------|
E|--------|--------|--------|--------|--------|--------|--------|--------|--------|


E|--------|--------|--------|--------|--------|--------|--------|--------|--------|
B|--------|--------|--------|--------|--------|--------|--------|--------|--------|
G|--------|--------|--------|--------|--------|--------|--------|--------|--------|
D|--------|--------|--------|--------|--------|--------|--------|--------|--------|
A|--------|--------|--------|--------|--------|--------|--------|--------|--------|
E|--------|--------|--------|--------|--------|--------|--------|--------|--------|


E|--------|--------|--------|--------|--------|--------|--------|--------|--------|
B|--------|--------|--------|--------|--------|--------|--------|--------|--------|
G|--------|--------|--------|--------|--------|--------|--------|--------|--------|
D|--------|--------|--------|--------|--------|--------|--------|--------|--------|
A|--------|--------|--------|--------|--------|--------|--------|--------|--------|
E|--------|--------|--------|--------|--------|--------|--------|--------|--------|


E|--------|--------|--------|--------|-------2------|-------5------|-------5----5-----|
B|--------|--------|--------|--------|-------2------|-------3------|-------3----3-----|
G|--------|--------|--------|--------|-------4------|-------2------|-------2----2-----|
D|--------|--------|--------|--------|-------4------|-------0------|-------0----0-----|
A|--------|--------|--------|--------|--------------|-------0------|-------0----0-----|
E|--------|--------|--------|--------|-------2------|--------------|------------------|


E|-----5---2------|------5------|------5----5-----|-5---2------|-----5------|-----5----5-----5---|
B|-----3---2------|------3------|------3----3-----|-3---2------|-----3------|-----3----3-----3---|
G|-----2---4------|------2------|------2----2-----|-2---4------|-----2------|-----2----2-----2---|
D|-----0---4------|------0------|------0----0-----|-0---4------|-----0------|-----0----0-----0---|
A|-----0----------|------0------|------0----0-----|-0----------|-----0------|-----0----0-----0---|
E|---------2------|-------------|-----------------|-----2------|------------|--------------------|


E|-2------|-5------|------5---------------2-------|------------------3-----------|
B|-2------|-3------|----------8---------------3---|--------------3---------------|
G|-4------|-2------|-7------------4---------------|----------4-----------4-------|
D|-4------|-0------|-5----------------4-----------|------7-------------------7---|
A|--------|-0------|------------------------------|------------------------------|
E|-2------|--------|------------------------------|-3----------------------------|


E|---------------------0-----|--------|--------|--------|--------|--------|--------|
B|-----------------0---------|--------|--------|--------|--------|--------|--------|
G|-------------0-------------|--------|--------|--------|--------|--------|--------|
D|---------4-----------------|--------|--------|--------|--------|--------|--------|
A|-----2---------------------|--------|--------|--------|--------|--------|--------|
E|-0-------------------------|--------|--------|--------|--------|--------|--------|


E|--------|--------|--------|--------|--------|--------|--------|--------|--------|
B|--------|--------|--------|--------|--------|--------|--------|--------|--------|
G|--------|--------|--------|--------|--------|--------|--------|--------|--------|
D|--------|--------|--------|--------|--------|--------|--------|--------|--------|
A|--------|--------|--------|--------|--------|--------|--------|--------|--------|
E|--------|--------|--------|--------|--------|--------|--------|--------|--------|


E|--------|--------|--------|--------|--------|--------|--------|--------|--------|
B|--------|--------|--------|--------|--------|--------|--------|--------|--------|
G|--------|--------|--------|--------|--------|--------|--------|--------|--------|
D|--------|--------|--------|--------|--------|--------|--------|--------|--------|
A|--------|--------|--------|--------|--------|--------|--------|--------|--------|
E|--------|--------|--------|--------|--------|--------|--------|--------|--------|


E|--------|--------|--------|--------|--------|--------|--------|--------|--------|
B|--------|--------|--------|--------|--------|--------|--------|--------|--------|
G|--------|--------|--------|--------|--------|--------|--------|--------|--------|
D|--------|--------|--------|--------|--------|--------|--------|--------|--------|
A|--------|--------|--------|--------|--------|--------|--------|--------|--------|
E|--------|--------|--------|--------|--------|--------|--------|--------|--------|


E|--------|--------|--------|--------|--------|--------|--------|--------|--------|
B|--------|--------|--------|--------|--------|--------|--------|--------|--------|
G|--------|--------|--------|--------|--------|--------|--------|--------|--------|
D|--------|--------|--------|--------|--------|--------|--------|--------|--------|
A|--------|--------|--------|--------|--------|--------|--------|--------|--------|
E|--------|--------|--------|--------|--------|--------|--------|--------|--------|


E|--------|--------|--------|--------|--------|--------|--------|--------|--------|
B|--------|--------|--------|--------|--------|--------|--------|--------|--------|
G|--------|--------|--------|--------|--------|--------|--------|--------|--------|
D|--------|--------|--------|--------|--------|--------|--------|--------|--------|
A|--------|--------|--------|--------|--------|--------|--------|--------|--------|
E|--------|--------|--------|--------|--------|--------|--------|--------|--------|


E|--------|--------|--------|--------|--------|--------|--------|--------|--------|
B|--------|--------|--------|--------|--------|--------|--------|--------|--------|
G|--------|--------|--------|--------|--------|--------|--------|--------|--------|
D|--------|--------|--------|--------|--------|--------|--------|--------|--------|
A|--------|--------|--------|--------|--------|--------|--------|--------|--------|
E|--------|--------|--------|--------|--------|--------|--------|--------|--------|


E|--------|--------|--------|--------|--------|--------|--------|--------|--------|
B|--------|--------|--------|--------|--------|--------|--------|--------|--------|
G|--------|--------|--------|--------|--------|--------|--------|--------|--------|
D|--------|--------|--------|--------|--------|--------|--------|--------|--------|
A|--------|--------|--------|--------|--------|--------|--------|--------|--------|
E|--------|--------|--------|--------|--------|--------|--------|--------|--------|


E|--------|--------|--------|--------|--------|--------|--------|--------|--------|
B|--------|--------|--------|--------|--------|--------|--------|--------|--------|
G|--------|--------|--------|--------|--------|--------|--------|--------|--------|
D|--------|--------|--------|--------|--------|--------|--------|--------|--------|
A|--------|--------|--------|--------|--------|--------|--------|--------|--------|
E|--------|--------|--------|--------|--------|--------|--------|--------|--------|


E|--------|--------|--------|--------|--------|--------|--------|--------|--------|
B|--------|--------|--------|--------|--------|--------|--------|--------|--------|
G|--------|--------|--------|--------|--------|--------|--------|--------|--------|
D|--------|--------|--------|--------|--------|--------|--------|--------|--------|
A|--------|--------|--------|--------|--------|--------|--------|--------|--------|
E|--------|--------|--------|--------|--------|--------|--------|--------|--------|


E|--------|--------|--------|--------|--------|--------|--------|--------|--------|
B|--------|--------|--------|--------|--------|--------|--------|--------|--------|
G|--------|--------|--------|--------|--------|--------|--------|--------|--------|
D|--------|--------|--------|--------|--------|--------|--------|--------|--------|
A|--------|--------|--------|--------|--------|--------|--------|--------|--------|
E|--------|--------|--------|--------|--------|--------|--------|--------|--------|


E|--------|--------|--------|--------|--------|--------|--------|--------|--------|
B|--------|--------|--------|--------|--------|--------|--------|--------|--------|
G|--------|--------|--------|--------|--------|--------|--------|--------|--------|
D|--------|--------|--------|--------|--------|--------|--------|--------|--------|
A|--------|--------|--------|--------|--------|--------|--------|--------|--------|
E|--------|--------|--------|--------|--------|--------|--------|--------|--------|


E|--------|--------|--------|--------|--------|--------|--------|--------|--------|
B|--------|--------|--------|--------|--------|--------|--------|--------|--------|
G|--------|--------|--------|--------|--------|--------|--------|--------|--------|
D|--------|--------|--------|--------|--------|--------|--------|--------|--------|
A|--------|--------|--------|--------|--------|--------|--------|--------|--------|
E|--------|--------|--------|--------|--------|--------|--------|--------|--------|


E|--------|--------|--------|--------|--------|--------|--------|--------|--------|
B|--------|--------|--------|--------|--------|--------|--------|--------|--------|
G|--------|--------|--------|--------|--------|--------|--------|--------|--------|
D|--------|--------|--------|--------|--------|--------|--------|--------|--------|
A|--------|--------|--------|--------|--------|--------|--------|--------|--------|
E|--------|--------|--------|--------|--------|--------|--------|--------|--------|


E|--------|--------|--------|--------|--------|--------|--------|--------|--------|
B|--------|--------|--------|--------|--------|--------|--------|--------|--------|
G|--------|--------|--------|--------|--------|--------|--------|--------|--------|
D|--------|--------|--------|--------|--------|--------|--------|--------|--------|
A|--------|--------|--------|--------|--------|--------|--------|--------|--------|
E|--------|--------|--------|--------|--------|--------|--------|--------|--------|


E|--------|--------|--------|--------|--------|--------|--------|--------|--------|
B|--------|--------|--------|--------|--------|--------|--------|--------|--------|
G|--------|--------|--------|--------|--------|--------|--------|--------|--------|
D|--------|--------|--------|--------|--------|--------|--------|--------|--------|
A|--------|--------|--------|--------|--------|--------|--------|--------|--------|
E|--------|--------|--------|--------|--------|--------|--------|--------|--------|


E|--------|--------|--------|--------|--------|--------|--------|--------|--------|
B|--------|--------|--------|--------|--------|--------|--------|--------|--------|
G|--------|--------|--------|--------|--------|--------|--------|--------|--------|
D|--------|--------|--------|--------|--------|--------|--------|--------|--------|
A|--------|--------|--------|--------|--------|--------|--------|--------|--------|
E|--------|--------|--------|--------|--------|--------|--------|--------|--------|


E|--------|--------|--------|--------|--------|--------|--------|--------|--------|
B|--------|--------|--------|--------|--------|--------|--------|--------|--------|
G|--------|--------|--------|--------|--------|--------|--------|--------|--------|
D|--------|--------|--------|--------|--------|--------|--------|--------|--------|
A|--------|--------|--------|--------|--------|--------|--------|--------|--------|
E|--------|--------|--------|--------|--------|--------|--------|--------|--------|


E|--------|--------|--------|--------|--------|--------|--------|--------|---------------------|
B|--------|--------|--------|--------|--------|--------|--------|--------|---------------------|
G|--------|--------|--------|--------|--------|--------|--------|--------|------------------4--|
D|--------|--------|--------|--------|--------|--------|--------|--------|--------------4------|
A|--------|--------|--------|--------|--------|--------|--------|--------|----------2----------|
E|--------|--------|--------|--------|--------|--------|--------|--------|---------------------|


E|----0------------------------------|--------------------------------|------------0----------------------|
B|--------3-------------------3------|---------------------3----------|--------3--------------------------|
G|------------4-----------4-------4--|-----------------0-------0------|----2---------------4-----------4--|
D|--------------------4--------------|----4--------4---------------0--|----------------------------4------|
A|-----------------------------------|--------------------------------|----------------0-------2----------|
E|----------------3------------------|--------0-----------------------|-----------------------------------|


E|----0------------------------------|--------------------------------|--------------------------------|
B|--------3-------------------3------|---------------------3----------|--------------------------------|
G|------------4-----------4-------4--|-----------------0-------0------|--------0--------------------4--|
D|--------------------4--------------|----4--------4------------------|----4--------------------4------|
A|-----------------------------------|-----------------------------5--|-------------4---0---2----------|
E|----------------3------------------|--------0-----------------------|--------------------------------|


E|----0---------------------------|--------------------------------|-----------------------------|
B|--------3----------------3------|---------------------3----------|-----------------------------|
G|------------4--------4-------4--|-----------------0-------0------|--------0-----------------0--|
D|--------------------------------|----4--------4------------------|----4-------4----------------|
A|--------------------------------|-----------------------------5--|----------------0----2-------|
E|----------------3---------------|--------0-----------------------|-----------------------------|


E|-----------------------------------|-----------------------------------|--------------------------------|
B|----3-----------------------3------|--------------------3--------------|------------3-------------------|
G|--------0---------------0-------0--|----------------0-------0----------|--------0-----------0-----------|
D|------------4-------4--------------|----4-------4---------------4------|----4-----------4---------------|
A|-----------------------------------|--------------------------------5--|--------------------------------|
E|----------------3------------------|--------0--------------------------|--------------------------------|


E|--------|--------|--------|--------|--------|----------------|----------------|----------------|
B|--------|--------|--------|--------|--------|----------------|----------------|----------3-----|
G|--------|--------|--------|--------|--------|----------------|----------------|----------3-----|
D|--------|--------|--------|--------|--------|----------------|----------------|----------3-----|
A|--------|--------|--------|--------|--------|----------------|----------------|----------1-----|
E|--------|--------|--------|--------|--------|----------------|----------------|----------------|


E|----------------|----------3-----|----------5-----|----------------|----------------|
B|----------5-----|----------3-----|----------6-----|----------6-----|----------5-----|
G|----------5-----|----------3-----|----------7-----|----------5-----|----------5-----|
D|----------5-----|----------5-----|----------7-----|----------5-----|----------5-----|
A|----------3-----|----------------|----------5-----|----------3-----|----------3-----|
E|----------------|----------3-----|----------------|----------------|----------------|


E|----------6-----|----------6-----|----------8-----|----------8-----|----------------|
B|----------6-----|----------6-----|----------8-----|----------8-----|----------------|
G|----------------|----------7-----|----------------|----------10----|----------5-----|
D|----------8-----|----------8-----|----------10----|----------10----|----------5-----|
A|----------6-----|----------------|----------8-----|----------------|----------3-----|
E|----------------|----------6-----|----------------|----------------|----------------|


E|----------3-----|----------------|----------------|----------------|----------------|
B|----------3-----|----------3-----|----------3-----|----------3-----|----------3-----|
G|----------5-----|----------2-----|----------2-----|----------2-----|----------2-----|
D|----------5-----|----------4-----|----------4-----|----------4-----|----------4-----|
A|----------3-----|----------5-----|----------5-----|----------5-----|----------5-----|
E|----------------|----------------|----------------|----------------|----------------|


E|----------------|----------------|----------------|
B|----------3-----|----------3-----|----------3-----|
G|----------2-----|----------2-----|----------2-----|
D|----------4-----|----------4-----|----------4-----|
A|----------5-----|----------5-----|----------5-----|
E|----------------|----------------|----------------|