Menu:

 

Search:

 

dream theater - learning to live:

 



Title: Learning To Live
Artist: 
Album: Images And Words
Author: Dream Theater


Track 1: Bass

G|--------|--------|--------|--------|--------|--------|--------|-----------------------|
D|--------|--------|--------|--------|--------|--------|--------|-----------------------|
A|--------|--------|--------|--------|--------|--------|--------|-----------------------|
E|--------|--------|--------|--------|--------|--------|--------|-------2---2---2---5---|


G|---------------------------------|---------------------------------|---------------------------------|
D|---------------------------------|---------2---4---4---4-----------|-----------------6---6---6---7---|
A|---------4---4---4---2---2---2---|-0---0-------------------0---0---|-0---2---2---2-------------------|
E|-5---5---------------------------|---------------------------------|---------------------------------|


G|---------------------------------|---------------------------------|---------------------------------|
D|-7---6---------------------------|---------------------------------|-2---4---4---4-------------------|
A|---------------------------------|-4---4---4---2---2---2---0---0---|-----------------0---0---0---2---|
E|---------2---2---2---5---5---5---|---------------------------------|---------------------------------|


G|---------------------------------|------------------|---------------------|---------------------|
D|---------6---6---6---7---7---6---|------------------|---------------------|---------------------|
A|-2---2---------------------------|------------------|---------------------|---------------------|
E|---------------------------------|-2-----0-----2----|-----0-----3----2----|-----0-----2-----0---|


G|-----------------------------|-----------------------------------|-------------------------------------|
D|-----------4--4--4---4-------|-----4--4--4---4-----------2---2---|-5-------4--4--4---4-----------4--4--|
A|-----------------------------|-----------------------------------|-------------------------------------|
E|------3------------------2---|-2-----------------0---0-----------|-----3-----------------2---2---------|


G|---------------------------------|-6--6---6--6-----------6--6---6------|-6--6--6---------------------------------|
D|-4---4-----------2---2---5-------|-------------------------------------|-----------------------------------------|
A|---------------------------------|---------------4---4-------------4---|-----------4--4--4---4--4--4---2--2--2---|
E|---------0---0---------------3---|-------------------------------------|-----------------------------------------|


G|---------------------6--6---6--6-------|-----6--6---6------6--6--6-------------|
D|---------------------------------------|---------------------------------------|
A|-5--5--5---7--7--7-----------------4---|-4-------------4-------------4--4--4---|
E|---------------------------------------|---------------------------------------|


G|-6--6--6---------------------------------|-----------------------------------|---------------------------------------|
D|-----------------------------------------|-----------------------------------|---------------------------------------|
A|-----------2--2--2---5--5--5---7--7--7---|-7-----------7--7--7---7-----------|-7--7--7---7---------------------------|
E|-----------------------------------------|-----0---0-----------------0---0---|---------------0---0--0--0---0--0--0---|


G|---------------------------------------|-----------------------------------|---------------------------------|
D|---------------------------------------|-----------------------4-----------|-4-----------4---------------4---|
A|----5--4-------3---2-------------------|-------------------4-----------4---|-----2---4-------4---0---4-------|
E|-0---------1-----------0--0--0---0--0--|-0---0--0--0---2-----------0-------|---------------------------------|


G|---------------------------------|---------------------------------|---------------------------------|
D|-------------4-----------4-------|-----4---------------4-----------|-----2-----------4-----------4---|
A|-4-------4-----------4-------2---|-4-------4---0---4-------4-------|-2-----------4-----------4-------|
E|-----2-----------0---------------|-----------------------------0---|---------2-----------4-----------|


G|---------------------------------|---------------------------------|---------------------------------|
D|---------2---------------4-------|-----4-----------4---------------|-4---------------2-----------4---|
A|-4-----------2-------4-----------|-4-------2---4-------4---0---4---|-----4-------2-----------4-------|
E|-----0-----------2-----------0---|---------------------------------|---------0-----------2-----------|


G|---------------------------------|---------------------------|---------------------|
D|---------4-----------2-----------|-----9-------9-------------|---------------------|
A|-----4-------4-----------2---0---|-7-------7-------7---------|----------2----------|
E|-4---------------0---------------|----------------------2----|------2---------3----|


G|-------------|----------------|------------------------------|-----------------------------------|
D|-------------|----------------|------------------------------|-----------------------------------|
A|-------------|----------------|-----5---7--------------------|-7--7------9---10------------------|
E|--------3----|--------0---0---|-0------------0---0-------0---|-------0-----------0-------0-------|


G|-6---7---7---------------7---9---|------------------------------|-----------------------------------|
D|---------------------------------|------------------------------|-----------------------------------|
A|---------------------------------|-------------5---7------------|---------7--7------9---10----------|
E|-------------0-------0-----------|-0---0---0------------0---0---|-----0---------0-----------0-------|


G|---------6---7---7---------------|-7---9------------------------|-----------------------------------|
D|---------------------------------|------------------------------|-----------------------------------|
A|---------------------------------|---------------------5---7----|-----------------7--7------9---10--|
E|-0-------------------0-------0---|---------0---0---0------------|-0---0-------0---------0-----------|


G|-----------------6---7---7-------|---------7---9-------------------|--------------------------------|
D|---------------------------------|---------------------------------|--------------------------------|
A|---------------------------------|-----------------------------5---|-7--------------------7--7------|
E|-0-------0-------------------0---|-----0-----------0---0---0-------|------0---0-------0---------0---|


G|-------------------------6---7---|-7---------------7---9-----------|------------------------------|
D|---------------------------------|---------------------------------|------------------------------|
A|-9---10--------------------------|---------------------------------|-----5---7--------------------|
E|---------0-------0---------------|-----0-------0-----------0---0---|-0------------0---0-------0---|


G|-----------------------------------|-6---7---7---------------7---9---|------------------------------|
D|-----------------------------------|---------------------------------|------------------------------|
A|-7--7------9---10------------------|---------------------------------|-------------5---7------------|
E|-------0-----------0-------0-------|-------------0-------0-----------|-0---0---0------------0---0---|


G|-----------------------------------|---------6---7---7---------------|-7---9------------------------|
D|-----------------------------------|---------------------------------|------------------------------|
A|---------7--7------9---10----------|---------------------------------|---------------------5---7----|
E|-----0---------0-----------0-------|-0-------------------0-------0---|---------0---0---0------------|


G|-----------------------------------|-----------------6---7---7-------|---------7---9-------------------|
D|-----------------------------------|---------------------------------|---------------------------------|
A|-----------------7--7------9---10--|---------------------------------|-----------------------------5---|
E|-0---0-------0---------0-----------|-0-------0-------------------0---|-----0-----------0---0---0-------|


G|--------------------------------|-------------------------6---7---|-7---------------7---9-----------|
D|--------------------------------|---------------------------------|---------------------------------|
A|-7--------------------7--7------|-9---10--------------------------|---------------------------------|
E|------0---0-------0---------0---|---------0-------0---------------|-----0-------0-----------0---0---|


G|------------------------------|-----------------------------------|-6---7---7---------------7---9---|
D|------------------------------|-----------------------------------|---------------------------------|
A|-----5---7--------------------|-7--7------9---10------------------|---------------------------------|
E|-0------------0---0-------0---|-------0-----------0-------0-------|-------------0-------0-----------|


G|------------------------------|-----------------------------------|---------6---7---7---------------|
D|------------------------------|-----------------------------------|---------------------------------|
A|-------------5---7------------|---------7--7------9---10----------|---------------------------------|
E|-0---0---0------------0---0---|-----0---------0-----------0-------|-0-------------------0-------0---|


G|-7---9------------------------|-----------------------------------|-----------------6---7---7-------|
D|------------------------------|-----------------------------------|---------------------------------|
A|---------------------5---7----|-----------------7--7------9---10--|---------------------------------|
E|---------0---0---0------------|-0---0-------0---------0-----------|-0-------0-------------------0---|


G|---------7---9-------------------|--------------------------------|-------------------------6---7---|
D|---------------------------------|--------------------------------|---------------------------------|
A|-----------------------------5---|-7--------------------7--7------|-9---10--------------------------|
E|-----0-----------0---0---0-------|------0---0-------0---------0---|---------0-------0---------------|


G|-7---------------7---9-----------|------------------------------|-----------------------------------|
D|---------------------------------|------------------------------|-----------------------------------|
A|---------------------------------|-----5---7--------------------|-7--7------9---10------------------|
E|-----0-------0-----------0---0---|-0------------0---0-------0---|-------0-----------0-------0-------|


G|-6---7---7---------------7---9---|------------------------------|-----------------------------------|
D|---------------------------------|------------------------------|-----------------------------------|
A|---------------------------------|-------------5---7------------|---------7--7------9---10----------|
E|-------------0-------0-----------|-0---0---0------------0---0---|-----0---------0-----------0-------|


G|---------6---7---7---------------|-7---9------------------------|-----------------------------------|
D|---------------------------------|------------------------------|-----------------------------------|
A|---------------------------------|---------------------5---7----|-----------------7--7------9---10--|
E|-0-------------------0-------0---|---------0---0---0------------|-0---0-------0---------0-----------|


G|-----------------6---7---7-------|---------7---9-------------------|--------------------------------|
D|---------------------------------|---------------------------------|--------------------------------|
A|---------------------------------|-----------------------------5---|-7--------------------7--7------|
E|-0-------0-------------------0---|-----0-----------0---0---0-------|------0---0-------0---------0---|


G|-------------------------6---7---|-7---------------7---9-----------|-----------2-----2---|
D|---------------------------------|---------------------------------|---------------------|
A|-9---10--------------------------|-------------------------0-------|-0---0---------------|
E|---------0-------0---------------|-----0-------0-------------------|---------------------|


G|------------------------------|------------------------------|---------------------------|
D|------------------------------|-4---2-------------------2----|---------------------------|
A|-----0---2-------2---2----2---|---------3---2----------------|---------------------------|
E|-3----------------------------|-----------------5---3--------|-0---0-----0---0---0---0---|


G|------------------------|---------------------------------|-----------2-----2---|
D|------------------------|-------------0-------------------|---------------------|
A|------------------------|-0---1---2-------3---2---0-------|-0---0---------------|
E|------0---0---0---0-----|---------------------------------|---------------------|


G|------------------------------|---------------------------|---------------------------------|
D|------------------------------|-4----0---0--------2-------|-2---2-------0---2---4---5---4---|
A|-----0---2-------2---2----2---|--------------2------------|---------2-----------------------|
E|-3----------------------------|---------------------------|---------------------------------|


G|---------------------------------|---------------------------------|-------2-----2-------|
D|-0---2-------2---2-------0---2---|-4---5---4---0-------------------|---------------------|
A|---------------------2-----------|-----------------2---0-------0---|-0-------------------|
E|---------------------------------|---------------------------------|-----------------3---|


G|------------------------------|------------------------------|---------------------------------|
D|--------------------------4---|-----0---0--------2-------2---|-2-------0---2---4---5---4---0---|
A|-0---2-------2---2----2-------|-------------2----------------|-----2---------------------------|
E|------------------------------|------------------------------|---------------------------------|


G|---------------------------------|---------------------------------|------2-----2-----------|
D|-2-------2---2-------0---2---4---|-5---4---0-----------------------|------------------------|
A|-----------------2---------------|-------------2---0-------0---0---|--------------------0---|
E|---------------------------------|---------------------------------|----------------3-------|


G|----------------|------------------------------|---------------------------|---------------------------|
D|----------------|------------------------------|---------------------------|---------------------------|
A|-2------2---2---|-2---2--------------------2---|---------------------------|-1--------------------7----|
E|----------------|--------------0---0---0-------|------0---0--------0---0---|------0---0---0---0--------|


G|------------------------------|---------------------------|------------------------------|
D|------------------------------|---------------------------|------------------------------|
A|------------------------------|-----2---------------------|---------1--------------------|
E|-0---0-------0---1----0---0---|-0------------0---0--------|-0---0--------0---0---0---0---|


G|---------------------------|------------------------------|---------------------------|
D|---------------------------|------------------------------|---------------------------|
A|-7-------------------------|-------------2----------------|--------------1------------|
E|------0---0-------0---1----|-0---0---0------------0---0---|------0---0--------0---0---|


G|------------------------------|---------------------------|---------------------------|
D|------------------------------|---------------------------|---------------------------|
A|---------7--------------------|------------------2--------|----------------------1----|
E|-0---0--------0---0-------0---|-1----0---0---0------------|-0---0--------0---0--------|


G|------------------------------|------------------------------|---------------------------|
D|------------------------------|------------------------------|---------------------------|
A|-----------------7------------|--------------------------2---|---------------------------|
E|-0---0---0---0--------0---0---|-----0---1----0---0---0-------|------0---0--------0---0---|


G|------------------------------|--------------------------------|---------------------------|
D|------------------------------|--------------------------------|---------------------------|
A|-1---1-------------------7----|--------------------------------|-----2---------------------|
E|---------0---0---0---0--------|-0---0-------0--0--1----0---0---|-0------------0---0--------|


G|---------------------------------|--------------------------------|---------------------------------|
D|---------------------------------|--------------------------------|---------------------------------|
A|---------1-----------------------|-7------------------------------|-------------2-------------------|
E|-0---0-------0---0---0---0---0---|-----0---0---0-------0--0--1----|-0---0---0-----------0---0---3---|


G|------------------------------|-----------------------------------------|--------------------------------|
D|------------------------------|-----------------------------------------|--------------------------------|
A|-------------2---1------------|-----2-----------------------------------|--------------------------------|
E|-----0---0------------0---0---|-0-----------0--0------0--0--0--0--0--0--|-1----7---0---0---0-------0--0--|


G|------------------------------------|-------------------------------------|----------------------------------|
D|------------------------------------|-------------------------------------|----------------------------------|
A|-------------------------------1----|-2-----------------------------------|------------------------------2---|
E|-----0--0------0--0------0--0-------|-----0---0---0-------0--0------0--0--|-----0--0--1----3--2--0---0-------|


G|-------------------------------------|---------------------------------|---------------------------------------|
D|-------------------------------------|---------------------------------|---------------------------------------|
A|-------------------------------------|-1---1-------5---4-------3---2---|---------------------------------------|
E|-----3--2--0---0---3-------3--2--0---|---------0-----------0-----------|-0---1---0--0--0---0--0--0---3--2--0---|


G|---------------------------------------|-----------------------------------|-------------------------------------|
D|---------------------------------------|-----------------------------------|-------------------------------------|
A|-----2---------------------------------|-----------1---1-------5---4-------|-3---2-------------------------------|
E|-0-------0--0--3--2--0---0---3---0--0--|-3--2--0-----------0-----------0---|---------0---1---0--0--0---0--0--0---|


G|-------------------------------------|-----------------------------------|-----------------------------------|
D|-4--4--4---4-----------4--4--4---4---|---------2---2---5-------4--4--4---|-4-----------4--4--4---4-----------|
A|-------------------------------------|-----------------------------------|-----------------------------------|
E|---------------2---2-----------------|-0---0---------------3-------------|-----2---2-----------------0---0---|


G|-----------------------------------|-----------------------------------|-------------------------------------|
D|-2---2---5-------4--4--4---4-------|-----4--4--4---4-----------2---2---|-5-------4--4--4---4-----------4--4--|
A|-----------------------------------|-----------------------------------|-------------------------------------|
E|-------------3-----------------2---|-2-----------------0---0-----------|-----3-----------------2---2---------|


G|---------------------------------|-------------------------------------|-----------------------------------|
D|-4---4-----------2---2---5-------|-4--4--4---4-----------4--4--4---4---|---------4--4--4-------------------|
A|---------------------------------|-------------------------------------|-----------------------------------|
E|---------0---0---------------3---|---------------2---2-----------------|-2---2-------------2---2---2---2---|


G|-4--4--4---4-----------4--4--4---4---|---------4--4--4-------------------|-7--7--7---7-----------7--7--7---7---|
D|-------------------------------------|-----------------------------------|-------------------------------------|
A|---------------2---2-----------------|-2---2-------------2---2---2---2---|---------------5---5-----------------|
E|-------------------------------------|-----------------------------------|-------------------------------------|


G|---------7--7--7-------------------|-------------------------------------|-----------------------------------|
D|-----------------------------------|-------------------------------------|-----------------------------------|
A|-5---5-------------5---5---5---5---|-7--7--7---7-----------7--7--7---7---|---------7--7--7-------------------|
E|-----------------------------------|---------------0---0-----------------|-0---0-------------0---0---0---0---|


G|-------------------------------------|-----------------------------------|-4--4--4---4-----------4--4--4---4---|
D|-4--4--4---4-----------4--4--4---4---|---------4--4--4-------------------|-------------------------------------|
A|-------------------------------------|-----------------------------------|---------------2---2-----------------|
E|---------------2---2-----------------|-2---2-------------2---2---2---2---|-------------------------------------|


G|---------4--4--4-------------------|-7--7--7---7-----------7--7--7---7---|---------7--7--7-------------------|
D|-----------------------------------|-------------------------------------|-----------------------------------|
A|-2---2-------------2---2---2---2---|---------------5---5-----------------|-5---5-------------5---5---5---5---|
E|-----------------------------------|-------------------------------------|-----------------------------------|


G|-------------------------------------|-----------------------------------|------------------|
D|-------------------------------------|-----------------------------------|------------------|
A|-7--7--7---7-----------7--7--7---7---|---------7--7--7-------------------|------------------|
E|---------------0---0-----------------|-0---0-------------0---0---0---0---|-2-----0-----2----|


G|---------------------|---------------------|------------------------|-------------|
D|---------------------|---------------------|------------------------|-------------|
A|---------------------|---------------------|------------------------|-------------|
E|-----0-----3----2----|-----0-----2-----0---|------3----2------------|-------------|


G|-------------|--------|--------|-------------|-----------------|-----------------|
D|-------------|--------|--------|-------------|-----------------|-----------------|
A|-------------|--------|--------|-------------|-----2-----------|-----------------|
E|-------------|--------|--------|-------2-----|-2---------3-----|-------2-----0---|


G|-------------|-----------------11--|-11----9--11-9---------|-----------------|-------------|
D|-------------|---------------------|-------------------11--|-11--------------|-------------|
A|-------------|---------------------|-----------------------|-------------2---|-2-----2-----|
E|-0-----0-----|-0---3-----2---------|-----------------------|-------2---------|-------------|


G|-----------------|-----------------|-------------|--------------------|--------------------|
D|-----------------|-----------------|-------------|--------------------|--------------------|
A|-------0-----0---|------4----4-----|-------2-----|-2---4---4----0-----|--------------------|
E|-----------------|-----------------|-------------|--------------------|-4-----4---5---5----|


G|-------------|--------|-----------------|-----------------|--------|-----------------------|
D|-------------|--------|-----------------|-----------------|--------|-----------------------|
A|-------------|--------|-----------------|-----------------|--------|-7---7---7-------------|
E|-2-----0-----|-0------|-0-----0---0-----|-------0-----0---|-0------|-------------0---0-----|


G|-----------------------|--------|--------|--------|--------|--------|-------------|
D|-----------------------|--------|--------|--------|--------|--------|-------------|
A|-------7---7---7---7---|-7------|-7------|--------|--------|--------|-------------|
E|-----------------------|--------|--------|-2------|-2------|-2------|-2------2----|


G|--------|--------|--------|--------|--------|--------|--------|-------------|--------|
D|--------|--------|--------|--------|--------|--------|--------|-------------|--------|
A|-2------|-2------|-2------|-2------|-5------|-5------|-5------|-5------5----|-7------|
E|--------|--------|--------|--------|--------|--------|--------|-------------|--------|


G|--------|--------|--------|-------------------------------------|-------------------------------------|
D|--------|--------|--------|-4--4--4---4-------------4-------4---|-4--4--4---4-------------4-----------|
A|-7------|-7------|-7------|-------------------------------------|-------------------------------------|
E|--------|--------|--------|---------------2--2--2-------2-------|---------------2--2--2-------2---2---|


G|-------------------------------------|-------------------------------------|-4--4--4---4-------------4-------4---|
D|-4--4--4---4-------------4-------4---|-4--4--4---4-------------4-----------|-------------------------------------|
A|-------------------------------------|-------------------------------------|---------------2--2--2-------2-------|
E|---------------2--2--2-------2-------|---------------2--2--2-------2---2---|-------------------------------------|


G|-4--4--4---4-------------4-----------|-4--4--4---4-------------4-------4---|-4--4--4---4-------------4-----------|
D|-------------------------------------|-------------------------------------|-------------------------------------|
A|---------------2--2--2-------2---2---|---------------2--2--2-------2-------|---------------2--2--2-------2---2---|
E|-------------------------------------|-------------------------------------|-------------------------------------|


G|-7--7--7---7-------------7-------7---|-7--7--7---7-------------7-----------|-7--7--7---7-------------7-------7---|
D|-------------------------------------|-------------------------------------|-------------------------------------|
A|---------------5--5--5-------5-------|---------------5--5--5-------5---5---|---------------5--5--5-------5-------|
E|-------------------------------------|-------------------------------------|-------------------------------------|


G|-7--7--7---7-------------7-----------|-9--9--9---9-------------9-------9---|-9--9--9---9-------------9-----------|
D|-------------------------------------|-------------------------------------|-------------------------------------|
A|---------------5--5--5-------5---5---|---------------7--7--7-------7-------|---------------7--7--7-------7---7---|
E|-------------------------------------|-------------------------------------|-------------------------------------|


G|---------------------|------------------------|---------------------------------|
D|---------------------|------------------------|-4---4---4---6---6---7---7-------|
A|-7--------------7----|-7------------7---------|-----------------------------4---|
E|-------0---0---------|-----0---0---------0----|---------------------------------|


G|---------------------------------|---------------------------------|---------------------------------|
D|-----2---4-------4---4---4---6---|-6---7---7-----------2---4-------|-4---4---4---6---6---7---7---6---|
A|-4-------------------------------|-------------4---4---------------|---------------------------------|
E|-------------2-------------------|-----------------------------2---|---------------------------------|


G|---------------------------------|---------------------------------|---------------------------------|
D|-6---6---6---7---7---9---9---6---|-6---7---6-------6---6---6---7---|-7---9---9---6---6---7---6-------|
A|---------------------------------|-------------7-------------------|-----------------------------7---|
E|---------------------------------|---------------------------------|---------------------------------|


G|---------------------------------|---------------------------------|---------------------------------|
D|-6---6---6---7---7---9---9-------|-9---9---9---11--11--12--12------|-----7---9-------9---9---9---11--|
A|---------------------------------|-----------------------------9---|-9-------------------------------|
E|-----------------------------7---|---------------------------------|-------------7-------------------|


G|---------------------------------|---------------------------------|-9---9---9---11--11--13--13------|
D|-11--12--12----------7---9-------|-9---9---9---11--11--12--12--9---|-----------------------------9---|
A|-------------9---9---------------|---------------------------------|---------------------------------|
E|-----------------------------7---|---------------------------------|---------------------------------|


G|-----7---9-------9---9---9---11--|-11--13--13----------7---9-------|-9---9---9---11--11--13--13--9---|
D|-9-------------------------------|-------------9---9---------------|---------------------------------|
A|-------------7-------------------|-----------------------------7---|---------------------------------|
E|---------------------------------|---------------------------------|---------------------------------|


G|-11--11--11--13--13--14--14------|-----9---11------11--11--11--13--|-13--14--14----------9---11------|
D|-----------------------------12--|-12------------------------------|-------------12--12--------------|
A|---------------------------------|-------------9-------------------|-----------------------------9---|
E|---------------------------------|---------------------------------|---------------------------------|


G|-11--11--11--13--13--14--14--11--|------------------|-------------------------------------------|
D|---------------------------------|-4-----------4----|-4-----------------4--4--4--4--------------|
A|---------------------------------|------------------|-------------------------------------------|
E|---------------------------------|-------2----------|------2--2--2--2---------------2--2--2--2--|


G|------------------|-------------------------------------------------|-------------|
D|-4-----------4----|-------------4---4---4---------------4---4-------|-------------|
A|------------------|-------------------------------------------------|--------7----|
E|-------2----------|-2---2---2---------------2---2---2-----------2---|-0-----------|


G|--------|-------------|--------|-------------|--------|--------7----|-7------7----|
D|--------|-------------|--------|-------------|--------|-------------|-------------|
A|-7------|-5------5----|-5------|-7-----------|--------|-5-----------|-------------|
E|--------|-------------|--------|--------0----|-0------|-------------|-------------|


G|-4--------------|--------|----------------|--------------------------------|----------------|
D|----------------|--------|--------7---6---|-6----6--7--6--4---6---4--------|----------------|
A|--------2---2---|-2------|-4--------------|---------------------------4----|-5------5---5---|
E|----------------|--------|----------------|--------------------------------|----------------|


G|--------|--------|-------------|--------|--------|-------------|--------|--------|
D|--------|--------|-------------|--------|--------|-------------|--------|--------|
A|-5------|--------|-------------|--------|-5------|-------5-----|--------|--------|
E|--------|-0------|-------0-----|--------|--------|-------------|--------|-0------|


G|-------------|--------|--------|-------------|--------|---------------------------------|
D|-------------|--------|--------|-------------|--------|-2-------2---2-------0---2---4---|
A|-------------|--------|-5------|-------5-----|--------|-----------------2---------------|
E|-------0-----|--------|--------|-------------|--------|---------------------------------|


G|---------------------------------|---------------------------------|---------------------------------|
D|-5---4---0-------2-------2---2---|-----0---2---4---5---4---0-------|-2-------2---2-------0---2---4---|
A|-------------2-------------------|-2---------------------------2---|-----------------2---------------|
E|---------------------------------|---------------------------------|---------------------------------|


G|---------------------------------|---------------------------------|---------------------------------|
D|-5---4---0-------2-------2---2---|-----0---2---4---5---4---0-------|-2-------2---2-------0---2---4---|
A|-------------2-------------------|-2---------------------------2---|-----------------2---------------|
E|---------------------------------|---------------------------------|---------------------------------|


G|---------------------------------|-----7-----------7---------------|---------------------------------|
D|-2-------2---2-------0---2---4---|-5-------5---4-------4---2-------|-2---2-------0---2---4---5-------|
A|-----------------2---------------|---------------------------------|---------2-------------------2---|
E|---------------------------------|---------------------------------|---------------------------------|


G|---------------------------------|---------------------------------|---------------------------------|
D|-4-------2---0---------------0---|-2-------2---0-------------------|---------7---4-------------------|
A|-----2-----------2---0---2-------|-----------------2-------0---7---|-4---5-----------5-------7---5---|
E|---------------------------------|---------------------3-----------|---------------------7-----------|


G|-------------------------------------|-----7---7--7--7---4---------------|--------------|
D|-------------5---5--5--5---4---4--4--|-4---------------------5-----------|--------------|
A|-7---5-------------------------------|---------------------------7---5---|-7------------|
E|---------7---------------------------|-----------------------------------|--------------|


G|--------|--------|--------|--------|-------------|----------9-----------7-------|
D|--------|--------|--------|--------|-------------|--------------7---9-----------|
A|--------|--------|--------|--------|-------------|------7-------------------7---|
E|--------|--------|--------|--------|-------------|------------------------------|


G|-9-----------7-------9-----------|-7-------9---------------5-------|-2---5-------5-------2---5-------|
D|-----7---9---------------7---9---|-------------7---9-----------5---|---------------------------------|
A|-----------------7---------------|-----7---------------3-----------|---------3-------3-----------3---|
E|---------------------------------|---------------------------------|---------------------------------|


G|-5-------2-----------------------|-2---------------9-----------7---|-----9-----------7-------9-------|
D|-------------0---2---5-----------|---------7-----------7---9-------|---------7---9---------------7---|
A|-----0-------------------3---2---|-----5-------7-------------------|-7-------------------7-----------|
E|---------------------------------|---------------------------------|---------------------------------|


G|-----7-------9---------------5---|-----2---5-------5-------2---5---|-----5-------2-------------------|
D|-9---------------7---9-----------|-5-------------------------------|-----------------0---2---5-------|
A|---------7---------------3-------|-------------3-------3-----------|-3-------0-------------------3---|
E|---------------------------------|---------------------------------|---------------------------------|


G|-----2-------------------4---7---|-------------2---------------2---|-----4-------2---4------------|
D|-------------7-------4-----------|-----------------0---2---5-------|---------4-----------4--------|
A|-2-------5-------2---------------|---------0-----------------------|-2-----------------------7----|
E|---------------------------------|---------------------------------|------------------------------|


G|---------------------------|----------2---------------2---|-----4-------2---4-----------9---|
D|-----------------------2---|--------------0---2---5-------|---------4-----------4-----------|
A|-9---10--9----3----5-------|-5----0-----------------------|-2-----------------------7-------|
E|---------------------------|------------------------------|---------------------------------|


G|---------7-------9-----------7---|----------2---------------2---|-----4-------2---4------------|
D|-7---9---------------7---9-------|--------------0---2---5-------|---------4-----------4--------|
A|-------------7-------------------|-7----0-----------------------|-2-----------------------7----|
E|---------------------------------|------------------------------|------------------------------|


G|---------------------------|----------2---------------2---|-----4-------2---4-----------9---|
D|-----------------------2---|--------------0---2---5-------|---------4-----------4-----------|
A|-9---10--9----3----5-------|-5----0-----------------------|-2-----------------------7-------|
E|---------------------------|------------------------------|---------------------------------|


G|---------7-------9-----------7---|-----9-----------7-------9-------|---------5-------2---5-------5---|
D|-7---9---------------7---9-------|---------7---9---------------7---|-9-----------5-------------------|
A|-------------7-------------------|-7-------------------7-----------|-----3-------------------3-------|
E|---------------------------------|---------------------------------|---------------------------------|


G|-----2---5-------5-------2-------|-----------------2---------------|-9-----------7-------9-----------|
D|-----------------------------0---|-2---5-------------------7-------|-----7---9---------------7---9---|
A|-3-----------3-------0-----------|---------3---2-------5-------7---|-----------------7---------------|
E|---------------------------------|---------------------------------|---------------------------------|


G|-7-------9-----------7-------9---|-------------5-------2---5-------|-5-------2---5-------5-------2---|
D|-------------7---9---------------|-7---9-----------5---------------|---------------------------------|
A|-----7-------------------7-------|---------3-------------------3---|-----3-----------3-------0-------|
E|---------------------------------|---------------------------------|---------------------------------|


G|------------------------------|------------------------|---------------------|------------------------|
D|-0---2---5--------------------|------------------------|---------------------|------------------------|
A|-------------3---2--------5---|---------0----0---0-----|-2----2---2-----7----|-7---7-----3----3---3---|
E|------------------------------|------------------------|---------------------|------------------------|


G|---------------------|---------------------|---------------------------|---------------------|
D|---------------------|---------------------|---------------------------|---------------------|
A|------0----0---0-----|-2----2---2-----7----|-7---------7---------------|------0----0---0-----|
E|---------------------|---------------------|-----0---------0---0---0---|---------------------|


G|---------------------|------------------------|---------------------|------------------------|
D|---------------------|------------------------|---------------------|------------------------|
A|-2----2---2-----7----|-7---7-----3----3---3---|------0----0---0-----|-2----2---2-------------|
E|---------------------|------------------------|---------------------|----------------0---0---|


G|---------------------------------|---------------------------------|---------------------------------|
D|---------------------------------|---------------------------------|---------------------------------|
A|---------------------------------|---------------------------------|-------------3---3---3---3---3---|
E|-0---0---0---0---0---0---0---0---|-0---0---0---0---0---0---0---0---|-0---0---0-----------------------|


G|---------------------------------|---------------------------------|---------------------------------|
D|---------------------------------|---------------------------------|---------------------------------|
A|-3---3---3---3---3---3---3-------|---------------------------------|---------------------------------|
E|-----------------------------3---|-3---3---3---3---3---5---5---5---|-2---2---2---0---0---0---0---0---|


G|---------------------------------|---------------------------------|---------------------------------|
D|---------------------------------|---------------------------------|---------------------------------|
A|---------------------------------|---------------------------------|-3---3---3---3---3---3---3---3---|
E|-0---0---0---0---0---0---0---0---|-0---0---0---0---0---0---0---0---|---------------------------------|


G|---------------------------------|---------------------------------|--------2----|
D|---------------------------------|---------------------------------|-------------|
A|-3---3---3---3-------------------|---------------------------------|-0-----------|
E|-----------------3---3---3---3---|-3---3---5---5---5---2---2---2---|-------------|


G|-------------|-------------|---------------------|------------------------|---------------------|
D|-------------|------0------|---------------------|------------------------|---------------------|
A|-------------|-------------|---------------------|-----------3----3---3---|------3----3---3-----|
E|-------2-----|-------------|-0----0---0-----0----|-0---0------------------|---------------------|


G|--------5----|-------------|-------------|---------------------|------------------------|
D|-------------|-------------|------5------|---------------------|------------------------|
A|-3-----------|-------2-----|-------------|---------------------|-----------5----5---5---|
E|-------------|-------------|-------------|-0----0---0-----0----|-0---0------------------|


G|---------------------|--------2----|-------------|-------------|---------------------|
D|---------------------|-------------|-------------|------0------|---------------------|
A|------5----5---5-----|-0-----------|-------------|-------------|---------------------|
E|---------------------|-------------|-------2-----|-------------|-0----0---0-----0----|


G|------------------------|---------------------|--------5----|-------------|-------------|
D|------------------------|---------------------|-------------|-------------|------5------|
A|-----------3----3---3---|------3----3---3-----|-3-----------|-------5-----|-------------|
E|-0---0------------------|---------------------|-------------|-------------|-------------|


G|---------------------------|--------------------|---------------------------------|
D|------------------5---5----|--------------------|-----5---------------------------|
A|--------------7------------|--------------------|-7-------7---7---7---------------|
E|-0----0---0----------------|-------0----0---0---|---------------------8---8---8---|


G|---------------------------------|---------------------------------|------------------------------|
D|---------------------------------|---------------------------------|------------------------------|
A|---------------------------------|---------------------------------|------------------------------|
E|-8---8---8---8---8---8---8---8---|-8---3---3---3---3---3---3---5---|-5---5---2---2---2---0----0---|


G|--------------------|------------------------------|---------------------------------|
D|---------5---5------|----------------------5-------|---------------------------------|
A|-----7--------------|------------------7-------7---|-7---7---------------------------|
E|-0------------------|-----0----0---0---------------|---------8---8---8---8---8---8---|


G|---------------------------------|---------------------------------|------------------------------|
D|---------------------------------|---------------------------------|--------------------------5---|
A|---------------------------------|---------------------------------|----------------------7-------|
E|-8---8---8---8---8---8---3---3---|-3---3---3---3---5---5---5---2---|-2---2---0----0---0-----------|


G|-------------|---------------------------------|---------------------------------|
D|-5-----------|-------------5-------------------|---------------------------------|
A|-------------|---------7-------7---7---7-------|---------------------------------|
E|--------0----|-0---0-----------------------8---|-8---8---8---8---8---8---8---8---|


G|---------------------------------|---------------------------------|---------------------------|
D|---------------------------------|---------------------------------|-----------------5---5-----|
A|---------------------------------|---------------------------------|-------------7-------------|
E|-8---8---8---3---3---3---3---3---|-3---5---5---5---2---2---2---0---|-----0---0-----------------|


G|------------------------|---------------------------------|---------------------------------|
D|------------------------|-5-------------------------------|---------------------------------|
A|--------------------7---|-----7---7---7-------------------|---------------------------------|
E|-------0----0---0-------|-----------------8---8---8---8---|-8---8---8---8---8---8---8---8---|


G|---------------------------------|------------------------------|----------------|
D|---------------------------------|------------------------------|-----5---5------|
A|---------------------------------|------------------------------|-7--------------|
E|-3---3---3---3---3---3---5---5---|-5---2---2---2---0----0---0---|----------------|


G|------------------------------|---------------------------------|---------------------------------|
D|------------------5-----------|---------------------------------|---------------------------------|
A|--------------7-------7---7---|-7-------------------------------|---------------------------------|
E|-0----0---0-------------------|-----8---8---8---8---8---8---8---|-8---8---8---8---8---3---3---3---|


G|---------------------------------|------------------------------|--------------------|
D|---------------------------------|----------------------5---5---|--------------------|
A|---------------------------------|------------------7-----------|--------------------|
E|-3---3---3---5---5---5---2---2---|-2---0----0---0---------------|-----------0----0---|


G|---------------------------------|---------------------------------|---------------------------------|
D|---------5-----------------------|---------------------------------|---------------------------------|
A|-----7-------7---7---7-----------|---------------------------------|---------------------------------|
E|-0-----------------------8---8---|-8---8---8---8---8---8---8---8---|-8---8---3---3---3---3---3---3---|


G|------------------------------|-----------------------|---------------------------|
D|------------------------------|-------------5---5-----|-----------------------5---|
A|------------------------------|---------7-------------|-------------------7-------|
E|-5---5---5---2---2---2---0----|-0---0-----------------|------0----0---0-----------|


G|---------------------------------|---------------------------------|---------------------------------|
D|---------------------------------|---------------------------------|---------------------------------|
A|-7---7---7-----------------------|---------------------------------|---------------------------------|
E|-------------8---8---8---8---8---|-8---8---8---8---8---8---8---3---|-3---3---3---3---3---5---5---5---|


G|------------------------------|----------------|---------------------------------|
D|------------------------------|-5---5----------|-----------------5---------------|
A|--------------------------7---|----------------|-------------7-------7---7---7---|
E|-2---2---2---0----0---0-------|------------0---|-----0---0-----------------------|


G|---------------------------------|---------------------------------|---------------------------------|
D|---------------------------------|---------------------------------|---------------------------------|
A|---------------------------------|---------------------------------|---------------------------------|
E|-8---8---8---8---8---8---8---8---|-8---8---8---8---3---3---3---3---|-3---3---5---5---5---2---2---2---|


G|---------------------------|--------------------|---------------------------------|
D|------------------5---5----|--------------------|-----5---------------------------|
A|--------------7------------|--------------------|-7-------7---7---7---------------|
E|-0----0---0----------------|-------0----0---0---|---------------------8---8---8---|


G|---------------------------------|---------------------------------|------------------------------|
D|---------------------------------|---------------------------------|------------------------------|
A|---------------------------------|---------------------------------|------------------------------|
E|-8---8---8---8---8---8---8---8---|-8---3---3---3---3---3---3---5---|-5---5---2---2---2---0----0---|


G|--------------------|------------------------------|---------------------------------|
D|---------5---5------|----------------------5-------|---------------------------------|
A|-----7--------------|------------------7-------7---|-7---7---------------------------|
E|-0------------------|-----0----0---0---------------|---------8---8---8---8---8---8---|


G|---------------------------------|---------------------------------|------------------------------|
D|---------------------------------|---------------------------------|--------------------------5---|
A|---------------------------------|---------------------------------|----------------------7-------|
E|-8---8---8---8---8---8---3---3---|-3---3---3---3---5---5---5---2---|-2---2---0----0---0-----------|


G|-------------|---------------------------------|---------------------------------|
D|-5-----------|-------------5-------------------|---------------------------------|
A|-------------|---------7-------7---7---7-------|---------------------------------|
E|--------0----|-0---0-----------------------8---|-8---8---8---8---8---8---8---8---|


G|---------------------------------|---------------------------------|---------------------------|
D|---------------------------------|---------------------------------|-----------------5---5-----|
A|---------------------------------|---------------------------------|-------------7-------------|
E|-8---8---8---3---3---3---3---3---|-3---5---5---5---2---2---2---0---|-----0---0-----------------|


G|------------------------|---------------------------------|---------------------------------|
D|------------------------|-5-------------------------------|---------------------------------|
A|--------------------7---|-----7---7---7-------------------|---------------------------------|
E|-------0----0---0-------|-----------------8---8---8---8---|-8---8---8---8---8---8---8---8---|


G|---------------------------------|-----------------------|
D|---------------------------------|-----------------------|
A|---------------------------------|-----------------------|
E|-3---3---3---3---3---3---5---5---|-5---2---2---2---------|