Menu:

 

Search:

 

dream theater - instrumedley:

 



Title: Instrumedley
Artist: 
Album: Live At Budokan
Author: Dream Theater


Track 1: John Petrucci - Distorted Guitar

E|--------|--------|--------|--------|--------|--------|--------|--------|-------------------------------------------|
B|--------|--------|--------|--------|--------|--------|--------|--------|-------------------------------------------|
G|--------|--------|--------|--------|--------|--------|--------|--------|-------------------------------------------|
D|--------|--------|--------|--------|--------|--------|--------|--------|-0--0--0--0-------0-------0---0--0--0--0---|
A|--------|--------|--------|--------|--------|--------|--------|--------|-------------------------------------------|
E|--------|--------|--------|--------|--------|--------|--------|--------|-------------------------------------------|


E|-------------------------------------------|-------------------------------------------|
B|-------------------------------------------|-------------------------------------------|
G|-------------------------------------------|-------------------------------------------|
D|-0--0--0--0-------0-------0---0--0--0--0---|-0--0--0--0-------0-------0---0--0--0--0---|
A|-------------------------------------------|-------------------------------------------|
E|-------------------------------------------|-------------------------------------------|


E|-----------------------------------------------------|-3-----3---------|-3-----3------------|
B|-----------------------------------------------------|-3-----3---------|-3-----3------------|
G|-----------------------------------------------------|-0-----0---------|-0-----0------------|
D|-7--7--7--7-------7--7--7--7--7--7--7---7--7--7--7---|-0-----0---6-----|-0-----0---3----2---|
A|-5--5--5--5-------5--5--5--5--5--5--5---5--5--5--5---|-----------6-----|-----------3----2---|
E|-5--5--5--5-------5--5--5--5--5--5--5---5--5--5--5---|-3-----3---4-----|-3-----3---1----0---|


E|-----------------|----------3-----3---|-------3-----3---|-------------|------------------------|
B|-----------------|----------3-----3---|-------3-----3---|-------------|------------------------|
G|-----------------|----------0-----0---|-------0-----0---|-------------|------------------------|
D|-----------5-----|-4---4----0-----0---|-6-----0-----0---|-3----2------|-5-----8---8------------|
A|-----------3-----|-4---4--------------|-6---------------|-3----2------|-3-----6---6--------5---|
E|-----------3-----|-2---2----3-----3---|-4-----3-----3---|-1----0------|-3-----6---6----3-------|


E|---------------------------------|-----------------------------------|---------------------------------|
B|---------------------------------|-----------------------------------|---------------------------------|
G|---------------------------------|-----------------------------------|---------4---5-------------------|
D|-5-------3---6---5---------------|--------3--5-------------------2---|-3---2---------------5-----------|
A|-----5---------------6---5-------|-5---6---------3-----------2-------|-----------------3-------4-------|
E|-----------------------------3---|-------------------1---0-----------|-----------------------------2---|


E|---------------------------------|-----------------------------------|---------------------------------|
B|---------------------------------|-----------------------------------|---------------------------------|
G|---------------------------------|-----------------------------------|-------------------------4---5---|
D|-6---------------5-------3---6---|-5----------------------3--5-------|-------------2---3---2-----------|
A|-------------5-------5-----------|-----6---5-------5---6---------3---|---------2-----------------------|
E|-----4---3-----------------------|-------------3---------------------|-1---0---------------------------|


E|----------------------------------------|-----------------------------------------------|
B|----------------------------------------|-----------------------------------------------|
G|--------------8-------------------------|-----------------------------------------------|
D|----------5-------6---------------------|-------------------3--5--6--5---6--5--5--6--5--|
A|-3--5--6--------------------------------|-------------3--5------------------------------|
E|----------------------6---4---3---4--3--|-3--4--3--4------------------------------------|


E|---------------------------------------------|---------------------------------------------|
B|---------------------------------------------|---------------------------------------------|
G|----7--5-------------------------------------|---------------------------------------------|
D|----------6--5-------------------------------|-----------------3--5--6--5---6--5--5--6--5--|
A|----------------8--6--5----------------------|-----------3--5------------------------------|
E|-------------------------3---4--3--3--4--3---|-4---3--4------------------------------------|


E|-------------------------------|-------------------|----------------|----3-------------------|
B|-------------------------------|-------------------|----------------|----3-------------------|
G|----7--5-----------------------|-------------------|----------------|----0-------------------|
D|-6--------6--5--------7-----7--|----8-----7-----7--|----5----4------|----0-----6---6----7----|
A|----------------8--6--5-----5--|----6-----5-----5--|----3----2------|----------4---4----5----|
E|----------------------5-----5--|----6-----5-----5--|----3----2------|----3-----4---4----5----|


E|------------------------|------------------------|------------------|-------------------|
B|------------------------|------------------------|------------------|-------------------|
G|------------------------|------------------------|------------------|-------------------|
D|---------7---8-----7----|---------7---5----6-----|----------5-------|-------------------|
A|---------5---6-----5----|---------5---3----6-----|----------5-------|-------------------|
E|---------5---6-----5----|---------5---3----4-----|----------3-------|----------------3--|


E|---------------------------------------------|---------------------------------------------|
B|---------------------------------------------|---------------------------------------------|
G|---------------------------------------------|---------------------7--5--------------------|
D|------------------------------------3--5--6--|-5---6--5--5--6--5---------6--5--------------|
A|------------------------------3--5-----------|---------------------------------8--6--5-----|
E|----4--3--3--4--3---4---3--4-----------------|------------------------------------------3--|


E|------------------------------------------|---------------------------|------------------------|
B|------------------------------------------|---------------------------|------------------------|
G|------------------------------------------|---------------------------|------------------------|
D|----------------------------3--5--6--8----|-----6---6----7----2-------|-----------2------------|
A|----------------------3--5-----------8----|-----6---6----5----2-------|-----------2------------|
E|----4--3--3--4--3--4-----------------6----|-----4---4----5----0-------|-----------0------------|


E|------------------------------------------|-------------------------------------------|
B|------------------------------------------|-------------------------------------------|
G|------------------------------------------|-------------------------------------------|
D|---------------2--2--2-----------2--2--2--|-----2---3------------2--2--2-----------2--|
A|------------------------------------------|-2-----------------------------------------|
E|------0--0--0-----------0--0--0-----------|-------------0--0--0-----------0--0--0-----|


E|-------------------------------------------|-------------------------------------------|
B|-------------------------------------------|-------------------------------------------|
G|-------------------------------------------|-------------------------------------------|
D|-2--2------2---3------------2--2--2--------|----2--2--2------2---3------------2--2--2--|
A|-------2-----------------------------------|-------------2-----------------------------|
E|-------------------0--0--0-----------0--0--|-0-----------------------0--0--0-----------|


E|-------------------------------------------|-----------------------------------------------|
B|-------------------------------------------|-----------------------------------------------|
G|----------------------------------------6--|-3--------------------7---------------10-7-----|
D|----------2--2--2------2---3---------5-----|----4--------------6---------------9--------8--|
A|-------------------2--------------4--------|-------5--------5---------------8--------------|
E|-0--0--0-----------------------3-----------|----------6--4---------------7-----------------|


E|-------------------------------------------|-----------------------------------------------|
B|-------------------------------------------|-----------------------------------------------|
G|----------------11-----13---------------14-|-11-------------------15-----15-14-13-12-------|
D|-------------10--------12------------13----|----12-------------14--------------------16-15-|
A|-9--------9------------11---------12-------|-------13-------13-----------------------------|
E|----10-8---------------10------11----------|----------14-12--------------------------------|


E|---------------------------------------|-------------------------------------------------|
B|-----16--------------------------------|-------------------------------------------------|
G|----------------------14---------------|-------------------------------------------------|
D|------------13-13--------15------------|-------------------------------------------------|
A|---------------------------------------|-------------3--3--2--2--1--0-----0--------------|
E|---------------------------------3--3--|-2--2--1--1--------------------------3--3--2--2--|


E|-----------------------------------------------|-------------------------------------------------|
B|-----------------------------------------------|-------------------------------------------------|
G|-----------------------------------------------|-------------------------------------------------|
D|----------------------2------------------------|-------------------------------------------------|
A|-------3--3--2--2--1--0------------------------|-3--3--2--2--1--0-----0--------------------3--3--|
E|-1--1------------------------3--3--2--2--1--1--|-------------------------3--3--2--2--1--1--------|


E|----------------------------------|---------------------------------|---------------------------------|
B|----------------------------------|---------------------------------|---------------------------------|
G|----------------------------------|---------------------------------|---------------------------------|
D|----------2-----------------------|---------------------------------|---------------------------------|
A|-2--2--1--0-----------------------|-2---5---4-----------------------|---------4---7---6---------------|
E|------------------2---3---4---5---|-------------3-------0---4---5---|-6---7---------------5-------0---|


E|---------------------------------|---------------------------------|---------------------------------|
B|---------------------------------|---------------------------------|---------------------------------|
G|---------------------------------|---------------------------------|---------------------------------|
D|---------------------------------|---------------------------------|---------------------------------|
A|-----------------2---5---4-------|-------------------------4---7---|-6---------------------------2---|
E|-2---3---4---5---------------3---|-----0---4---5---6---7-----------|-----5---0---2---3---4---5-------|


E|---------------------------------|---------------------------------|---------------------------------|
B|---------------------------------|---------------------------------|---------------------------------|
G|---------------------------------|---------------------------------|---------------------------------|
D|---------------------------------|---------------------------------|---------------------------------|
A|-5---4---------------------------|-----4---7---6-------------------|-------------2---5---4-----------|
E|---------3-------0---4---5---6---|-7---------------5-------0---2---|-3---4---5---------------3-------|


E|---------------------------------|------------------------------|---------------------------------|
B|---------------------------------|------------------------------|---------------------------------|
G|---------------------------------|------------------------------|---------------------------------|
D|---------------------------------|---------------------9---8----|-----6-------------------7---6---|
A|---------------------4---7---6---|---------7-------7------------|-7---------------4---5-----------|
E|-0---4---5---6---7---------------|-5---0-------0----------------|-------------0-------------------|


E|---------------------------------|------------------------------|---------------------------|
B|---------------------------------|------------------------------|---------------------------|
G|---------------------------------|------------------------------|---------------------------|
D|-----5---------------------------|-----9---8--------6-----------|-3---5---7---------1---3---|
A|---------3---------------7-------|-7------------7---------------|-------------5-------------|
E|-3-----------1-------0-------0---|--------------------------0---|---------------------------|


E|------------------------|------------------------------|---------------------------------|
B|------------------------|------------------------------|---------------------------------|
G|------------------------|------------------------------|---------------------------------|
D|-5----------------------|-------------9---8--------6---|-----------------7---6-------5---|
A|-----3-----4---3---2----|-7-------7------------7-------|---------4---5-------------------|
E|------------------------|-----0------------------------|-----0-------------------3-------|


E|---------------------------------|----------------------10--12--|-13--------8---10--11------|
B|---------------------------------|------------------------------|-----10----------------8---|
G|---------------------------------|------------------------------|---------------------------|
D|-----------------------------9---|-8--------6-------------------|---------------------------|
A|-3---------------7-------7-------|------7-----------------------|---------------------------|
E|-----1-------0-------0-----------|------------------0-----------|---------------------------|


E|----------------------------|---------------------|---------------------|------------------------------|
B|------11--11--10------------|---------------------|---------------------|------------------------------|
G|------------------11--------|---------------------|---------------------|------------------------------|
D|----------------------------|---------------------|---------------------|------------------------------|
A|----------------------------|---------------------|---------------------|----------10--10--10--9---9---|
E|-----------------------3----|-----2-----1-----0---|-----3-----2-----1---|-----0------------------------|


E|---------------------------------|---------------------------------|---------------------------------|
B|---------------------------------|---------------------------------|---------------------------------|
G|---------------------------------|-------------7-------------------|-----------------5---4-----------|
D|---------------------------------|---------7-----------7---10--9---|-------------4-----------7---5---|
A|-9---8---8---8---7---7---10--10--|-10--9-----------8---------------|-10--7---6-----------------------|
E|---------------------------------|---------------------------------|---------------------------------|


E|---------------------------------|-------------------------------------|---------------------------------------------------------------|
B|-----------------------------7---|-8-----------------------------------|---------------------------------------------------------------|
G|---------------------------------|-----9---7-----------5--4--5--4------|----7--5--4---------------5--4--2------------------------------|
D|-4---5---7---4---5-------9-------|-------------6---9---------------7---|-------------7--5--4---------------5--4--2------9--7--5--------|
A|---------------------7-----------|-------------------------------------|-3---------------------0---------------------------------9--7--|
E|---------------------------------|-------------------------------------|---------------------------------------------0-----------------|


E|---------------------------------------------------------------|-------------------------------------------------------------------------|
B|---------------------------------------------------------------|-------------------------------------------------------------------------|
G|---------------------------------------------------------------|-2--4-----2--4--5-----------4--------4--5-----4--5--7-----------6--------|
D|--------7--5--4---------------5--3--2-----------------2--3--5--|-------5-----------4--5--7-----5--7--------7-----------6--7--9-----7--9--|
A|-5---------------7--5--3---------------5--3--2--3--5-----------|-------------------------------------------------------------------------|
E|-----3---------------------1-----------------------------------|-------------------------------------------------------------------------|


E|---------------------------------------------------------|----------------------------------------------------|
B|---------------------------------------------------------|----------------------------------------------------|
G|-6--7-----6--7--9--10-14-14-10-1110----------------------|-----------------12-12-9--109-----------------------|
D|-------9---------------------------12-12-9--109----------|------------------------------10-10-7--8-7----------|
A|------------------------------------------------11-11-8--|-9-8---------------------------------------9--9--5--|
E|---------------------------------------------------------|-----10-10-7--8-------------------------------------|


E|----------------------------------------------------|----------------------------------------------------|
B|----------------------------------------------------|----------------------------------------------------|
G|-----------------10-10-7--8-7-----------------------|-----------------9--9--5--6-5-----------------------|
D|------------------------------9--9--6--7-6----------|------------------------------7--7--5--6-5----------|
A|-6-5---------------------------------------8--8--5--|-6-5---------------------------------------7--7--4--|
E|-----8--8--5--7-------------------------------------|-----7--7--4--5-------------------------------------|


E|-----------------------------------|---------------------------|-----------------------------------|
B|-----------------------------------|---------------------------|-----------------------------------|
G|-----------------------------------|---------------------------|-----------------------------------|
D|----------------------2---3---5----|------5--------------------|------3---0---7---9---5--9--5--0---|
A|-5-4--------------5----------------|------------------2---4----|-----------------------------------|
E|-----5--5--3--1--------------------|----------0---4------------|-----------------------------------|


E|------------------------------------------------------------------|-------------------------------------------------------------|
B|------------------------------------------------------------------|-------------------------------------------------------------|
G|---------9-109-----9----------------------------------------------|-------------------------------------------------------------|
D|-10--12---------12----10-12-9-109-----9--------2-3-2-----2--------|-------------------------------------------------------------|
A|-----------------------------------12----10-12--------5-----3--5--|-2-3-2-----2--------------------------------------------8----|
E|------------------------------------------------------------------|--------5-----3--5--0--0--0--1--1--1--3--3--3--5--5--5--6----|


E|----------------------------------------------------|------------------------------------|
B|----------------------------------------------------|------------------------------------|
G|----------------------------------------------------|-------7-------7--9----10-9---------|
D|-------------------------------------------------7--|-8--10------10---------------10-----|
A|---------------------7---------7--8-----7--8--10----|--------------------------------10--|
E|-6--8--10--10--8--10-----8--10-------10-------------|------------------------------------|


E|-------------------------------------------|-------------------------------------------------------------|
B|-------------------------------------------|----------------------------------------13-15-17-15-13-------|
G|-----------10121415-------------12141517---|----------14-15-17-15-14-------------------------------------|
D|-1412101214-----------1514121415-----------|-14-15-17----------------17-15-14-15-17----------------17-15-|
A|-------------------------------------------|-------------------------------------------------------------|
E|-------------------------------------------|-------------------------------------------------------------|


E|-------------------------------------------------------------|-------------------------------------------------------------|
B|-------------------------------------------------------------|----------------------------------------11-13-15-13-11-------|
G|----------14-15-17-15-14----------------14-15-17-15-14-------|----------12-14-15-14-12-------------------------------------|
D|-14-15-17----------------------------------------------15-14-|-12-14-15----------------15-14-12-14-15----------------15-14-|
A|-------------------------17-15-13-15-17----------------------|-------------------------------------------------------------|
E|-------------------------------------------------------------|-------------------------------------------------------------|


E|-------------------------------------------------------------|-------------------------------------------------------------|
B|-------------------------------------------------------------|-------------------------------------------------------------|
G|----------12-14-15-14-12----------------12-14-15-14-12-------|----------10-12-14-12-10-------------------------------------|
D|-12-14-15----------------------------------------------14-12-|-10-12-14----------------------------------------------12-10-|
A|-------------------------15-14-12-14-15----------------------|----------------------------------------8--10-12-10-8--------|
E|-------------------------------------------------------------|-------------------------12-10-8--10-12----------------------|


E|----------------------------------------12-13-15-13-12-------|----------10-12-13-12-10-------------------------------------|
B|-------------------------15-13-12-13-15----------------13-12-|-10-12-13----------------------------------------------12-10-|
G|----------9--10-12-10-9--------------------------------------|----------------------------------------7--9--10-9--7--------|
D|-9--10-12----------------------------------------------------|-------------------------10-9--7--9--10----------------------|
A|-------------------------------------------------------------|-------------------------------------------------------------|
E|-------------------------------------------------------------|-------------------------------------------------------------|


E|----------8--10-12-10-8--------------------------------------|----------5--7--8--7--5--------------------------------------|
B|-9--10-12----------------------------------------------8--6--|-5--6--8-----------------------------------------------------|
G|----------------------------------------5--7--9--7--5--------|----------------------------------------2--4--5--4--2--------|
D|-------------------------9--7--6--7--9-----------------------|-------------------------5--3--2--3--5-----------------------|
A|-------------------------------------------------------------|-------------------------------------------------------------|
E|-------------------------------------------------------------|-------------------------------------------------------5--3--|


E|----------------------------------------|-------------|-------------|-------------|
B|----------------------------------------|-------5-----|-------5-----|-------5-----|
G|----------------------------------------|-------4-----|-------4-----|-------4-----|
D|----------------------------------2-----|-------2-----|-------2-----|-------2-----|
A|----------2--3--5--3--2-----------2-----|-------2-----|-------2-----|-------2-----|
E|-1--3--5-----------------5--3--1--0-----|-------0-----|-------0-----|-------0-----|


E|-----------15-12----------12-7-----|-------14-9-----------12-8-----------12-7--------|
B|-----------------12-------------8--|-------------11-------------10-------------8-----|
G|--------------------12-------------|-9--------------11-------------9--------------9--|
D|-----------------------------------|-------------------------------------------------|
A|-----------------------------------|-------------------------------------------------|
E|-----------------------------------|-------------------------------------------------|


E|----7--3-----------9--6-----------6--2-----------|-8--5--------15-12----------12-7-----------14-9--|
B|----------5--------------7--------------2--------|-------5-----------12-------------8--------------|
G|-------------4--------------6--------------3-----|----------------------12-------------9-----------|
D|-------------------------------------------------|-------------------------------------------------|
A|-------------------------------------------------|-------------------------------------------------|
E|-------------------------------------------------|-------------------------------------------------|


E|----------12-8-----------12-7-----------7--3-----|-------9--6-----------6--2-----------8--5--------|
B|-11-------------10-------------8--------------5--|-------------7--------------2--------------5-----|
G|----11-------------9--------------9--------------|-4--------------6--------------3-----------------|
D|-------------------------------------------------|-------------------------------------------------|
A|-------------------------------------------------|-------------------------------------------------|
E|-------------------------------------------------|-------------------------------------------------|


E|-12-7--0--11-7--0-----10-9--0--8--7--0--6--5-----|----------------7--14-15-12----12-------12-------|
B|----------------------------------------------7--|-8--------7--8--------------11----11-10----8--7--|
G|-------------------------------------------------|----8--9-----------------------------------------|
D|-------------------------------------------------|-------------------------------------------------|
A|-------------------------------------------------|-------------------------------------------------|
E|-------------------------------------------------|-------------------------------------------------|


E|-12-7--0--11-7--0-----10-9--0--8--7--0--6--5-----|-------------------------------------------------|
B|----------------------------------------------7--|-8-----------5-----------------------------------|
G|-------------------------------------------------|----5--6--8-----------5--6-----------------------|
D|-------------------------------------------------|----------------7--8--------------7--8--7--------|
A|-------------------------------------------------|----------------------------9--10----------10-9--|
E|-------------------------------------------------|-------------------------------------------------|


E|-------------------------------------------------|-------------------------------------------------|
B|-------------------------------------------------|-------------------------------------------------|
G|-------------------------------------------------|-------------------------------------------------|
D|-------------------------------------------------|-------------------4--5--------------1-----1--4--|
A|-7--------6-----------5--4-----3--2-----1--0-----|-------------------------2--3--4--5-----2--------|
E|----7--0-----7--0-----------0--------0--------2--|-3--2--0--2--6--7--------------------------------|


E|-------------------------------------------------|-------------------------------------1419-14----------------|
B|-------------------------------------------------|-----------------------------------16--------16-------------|
G|-------------------------------------------------|---------------------------------16-------------16----------|
D|-------------------------------------------------|-5---5---5--5-----4--4---------16------------------16-------|
A|-7--------6-----------5--4-----3--2-----1--0-----|-3---3---3--3-----2--2-----1418-----------------------18-14-|
E|----7--0-----7--0-----------0--------0--------2--|-3---3---3--3-----2--2--------------------------------------|


E|------------------------|------------------------|------------------------|------------------------|
B|------------------------|------------------------|------------------------|------------------------|
G|------------------------|------------------------|------------------------|------------------------|
D|-9----9----4----4---9---|-9---9----9---4----4----|-6----6----5---5----4---|-4---4---4----7----8----|
A|-7----7----2----2---7---|-7---7----7---2----2----|-4----4----3---3----2---|-2---2---2----5----6----|
E|-7----7----2----2---7---|-7---7----7---2----2----|-4----4----3---3----2---|-2---2---2----5----6----|


E|------------------------|------------------------|------------------------|------------------------|
B|------------------------|------------------------|------------------------|------------------------|
G|------------------------|------------------------|------------------------|------------------------|
D|-9----9----4----4---9---|-9---9----9---4----4----|-11---11---11--11---4---|-4---4---12---11---10---|
A|-7----7----2----2---7---|-7---7----7---2----2----|-9----9----9---9----2---|-2---2---10---9----8----|
E|-7----7----2----2---7---|-7---7----7---2----2----|-9----9----9---9----2---|-2---2---10---9----8----|


E|---------------------------|---------------------------|------------------------|
B|---------------------------|---------------------------|------------------------|
G|---------------------------|---------------------------|------------------------|
D|-9----4---4---8----4---4---|-7----4---6---6---6----4---|-5----5----5---5----4---|
A|-7----2---2---6----2---2---|-5----2---4---4---4----2---|-3----3----3---3----2---|
E|-7----2---2---6----2---2---|-5----2---4---4---4----2---|-3----3----3---3----2---|


E|------------------------|---------------------------|------------------------|---------------------|
B|------------------------|---------------------------|------------------------|---------------------|
G|------------------------|---------------------------|------------------------|---------------------|
D|-4---4---4----7----8----|-9----4---4---11---4---4---|-12---4---13--13--13----|-----14----14----14--|
A|-2---2---2----5----6----|-7----2---2---9----2---2---|-10---2---11--11--11----|-----12----12----12--|
E|-2---2---2----5----6----|-7----2---2---9----2---2---|-10---2---11--11--11----|-----12----12----12--|


E|------------------|-------------------------------------------|---------------------------|
B|------------------|-------------------------------------------|---------------------------|
G|------------------|-------------------------------------------|---------------------------|
D|-14---14----14----|-16----------------------------------------|-----4------------4--------|
A|-12---12----12----|-14----14-14-13-13-13-12-12-10-10-9--8--8--|-2---4------------4--------|
E|-12---12----12----|-14----------------------------------------|-0---2------------2--------|


E|-----------------------------|--------------------------|--------------------|--------------------|
B|-----------------------------|--------------------------|--------------------|--------------------|
G|-----------------------------|--------------------------|--------------------|--------------------|
D|-----4--4--4-------------4---|-5---------5--5--5--------|-----------5--------|-7--------7---------|
A|-----4--4--4-------------4---|-5---------5--5--5--------|-----------5--------|-7--------7---------|
E|-----2--2--2-------------2---|-3---------3--3--3--------|-----------3--------|-5--------5---------|


E|--------------------|-------0---------------|--------|-12--------------------12-14-12-11--------------|
B|--------------------|------------0--0-------|--------|--------12-----11-----------------14131211------|
G|--------------------|-------------------3---|-3------|-------------------11---------------------141312|
D|------9-------------|-4---------------------|--------|------------------------------------------------|
A|------9---------2---|-4---------------------|--------|------------------------------------------------|
E|------7---------0---|-2---------------------|--------|------------------------------------------------|


E|------------------------------------------------|--------------------------------------|
B|------------------------------------------------|--------------------------------------|
G|-11-----9------8-------9--11-9--8---------------|--------------------------------------|
D|-------------------11-------------11109-8-------|-----------------9----8--8---6--7--6--|
A|------------------------------------------121110|-9----7--7---6------------------------|
E|------------------------------------------------|--------------------------------------|


E|------------------------------12|-14---18-18--14--16---12-12--14--|-11--11-11-11---------------------|
B|----------------------------14--|---------------------------------|--------------12------------------|
G|------11-11--11--11-------16----|---------------------------------|---------------------8----8-------|
D|--------------------------------|---------------------------------|------------------------------9---|
A|-9------------------------------|---------------------------------|----------------------------------|
E|--------------------------------|---------------------------------|----------------------------------|


E|-------------------9--14-------9--12----5--|-6--7--8--9--5--6--------------|-------------------------------------------------|
B|-------------------------------------------|-------------------7-----------|-12-9--10-11-10-9--------------------------------|
G|------11-----9--11-------9--11-------------|----------------------6--6-----|-------------------11-10-9--8-----8--9--11-9--8--|
D|-8-----------------------------------------|-------------------------------|-------------------------------11----------------|
A|-------------------------------------------|-------------------------------|-------------------------------------------------|
E|-------------------------------------------|-------------------------------|-------------------------------------------------|


E|----------------------------------------------------|-------------------------------------------------------------------------|
B|----------------------------------------------------|-------------------------------------------------------------------------|
G|----------------------------------------------------|-11----------------9-----------------6-----------------4-----------------|
D|-11-10-9--8-----8--9--11-9--8-----------------------|-------------------------------------------------------------------------|
A|-------------11----------------11-10-9--7--11-12-13-|----13-11-9--10-11----11-9--7--8--9-----9--7--4--5--6-----6--4--2--3--4--|
E|----------------------------------------------------|-------------------------------------------------------------------------|


E|-------------------------|----7--8--9--10---9--8--7-----7--8--7--------|-7--5--------5--6--------------------------------|
B|----------------------9--|-9-------------------------10----------10-7--|-------7--5--------7-----------------------------|
G|-3-----------------------|---------------------------------------------|----------------------6--4--2--------2--3--------|
D|-------------------------|---------------------------------------------|-------------------------------4--2--------4-----|
A|----4----4-----4---------|---------------------------------------------|----------------------------------------------4--|
E|-------------------------|---------------------------------------------|-------------------------------------------------|


E|--------------------------------------|-------------|-----0---0------|-0------|-----0-----0---------|
B|--------------------------------------|-------------|-----0---0------|-0------|-----0----------0----|
G|--------------------------------------|-------------|-----3---3------|-3------|-----3---------------|
D|-4--3--2--------------------4----4----|-4----2------|-2---4---4------|-4------|-2---4---------------|
A|----------4--2--3--2------------------|-------------|-2---4---4------|-4------|-2---4---------------|
E|----------------------5--2------------|-------------|-0---2---2------|-2------|-0---2---------------|


E|-------------|-------------------------------------------|-----------------------------------------|
B|-------------|-------------------------------------------|-----------------------------------------|
G|-3-----------|----------4--4--------------------------4--|-4--------------------------4--4---------|
D|------4------|-------2---------------3---5---------2-----|-----------3---5---------2---------------|
A|-------------|----2-----------0--3--------------2--------|----0--3--------------2-----------0--3---|
E|-------------|-0-----------------------------0-----------|-------------------0---------------------|


E|---------------------------------------|------------------------------------------|
B|---------------------------------------|------------------------------------------|
G|------------------4--4-----------------|------------------------------------------|
D|-3---5---------2---------------3---5---|------------------------------------------|
A|------------2-----------0--3-----------|------4--5--4--2-----------------2--------|
E|---------0-----------------------------|------------------5--4--2--4--5-----5--4--|


E|-------------------------------------------------|-------------------------------------------------|
B|-------------------------------------------------|-------------------------------------------------|
G|-------------------------------------------------|----------4--6--7--6--4-----------------4--------|
D|-------------------------------------------------|-4--6--7-----------------7--6--4--6--7-----7--6--|
A|----------2--4--5--4--2-----------------2--------|-------------------------------------------------|
E|-2--4--5-----------------5--4--2--4--5-----5--4--|-------------------------------------------------|


E|-------------------------------------------------|----------7--9--10-9--7-----------------7--------|
B|-------------------------------------------------|-7--9--10----------------10-9--7--9--10----10-9--|
G|----------4--6--7--6--4-----------------4--6--7--|-------------------------------------------------|
D|-4--6--7-----------------7--6--4--6--7-----------|-------------------------------------------------|
A|-------------------------------------------------|-------------------------------------------------|
E|-------------------------------------------------|-------------------------------------------------|


E|----------7--9--10-9--7-----------------7--------|----------7--9--10-11-12-------------------------|
B|-7--9--10----------------10-9--7--9--10----10-9--|-7--9--10----------------------------10-11-12-13-|
G|-------------------------------------------------|-------------------------10-11-12-13-------------|
D|-------------------------------------------------|-------------------------------------------------|
A|-------------------------------------------------|-------------------------------------------------|
E|-------------------------------------------------|-------------------------------------------------|


E|-------------------------------------------------|----------------------------------------|
B|-------------------------------------------------|----------------------------------------|
G|-------------10-11-12-13-------------------------|-------------------------6---------6----|
D|-11-12-13-14-------------------------11-12-13-14-|-------------------------6---------6----|
A|-------------------------12-13-14-15-------------|-------------4--4--4--4------4--4-------|
E|-------------------------------------------------|-13-14-15-16----------------------------|


E|----------------------------------------|--------------------------------------|
B|-------------7---------7----------------|-10--------10-------------------------|
G|-------------6---------6----------------|-9---------9----------------9---------|
D|----------------------------------------|----------------------------9---------|
A|-4--4--4--4------4--4-------------------|--------------------------------------|
E|----------------------------9--9--9--9--|-----9--9-------9--9--9--9------9--9--|


E|-------------|-------------|-----------------|-----------------|------------------------|
B|-------------|-------------|-----------------|-----------------|------------------------|
G|-9-----------|-------------|-----------------|-----------------|------------------------|
D|-9-----------|--------18---|------16---------|-----------------|------------------------|
A|-------------|--------16---|------14----16---|------19----14---|------17-------------12-|
E|-------------|-------------|------------14---|------17----12---|------15----12-15-18----|


E|----------------------------------12-18-18-15-12-|----------------12-15-18-21-21-------------|
B|-------------------------12-15-18----------------|-14-11----11-14----------------------------|
G|----------------12-15-18-------------------------|-------12----------------------------------|
D|-------12-15-18----------------------------------|-------------------------------------------|
A|-15-18-------------------------------------------|---------------------------------------7---|
E|-------------------------------------------------|-----------------------------------7-------|


E|---------------------------------|---------------------------------|------------------------------|
B|---------------------------------|---------------------------------|------------------------------|
G|---------------------------------|---------------------------------|------------------------------|
D|---------------------------------|---------------------------------|------------------------------|
A|-9---10------7---9---10------5---|-7---9-------5---7---9-------2---|-5-------4---5----------------|
E|---------7---------------5-------|---------5---------------3-------|-----1-----------0---5--------|


E|--------|--------|--------|--------|----------------|---------------------------------|
B|--------|--------|--------|--------|----------------|-----------------------------8---|
G|--------|--------|--------|--------|----------------|-----------------4---7---9-------|
D|--------|--------|--------|--------|----------------|-------------5-------------------|
A|--------|--------|--------|--------|----------------|-2---5---7-----------------------|
E|--------|--------|--------|--------|--------0---3---|---------------------------------|


E|-7---10--15--14------------------|-------------------------------------|-------------------15-17-14-11-------------------|
B|-----------------15--------------|-------------------------------------|-------------15-17-------------12-10-------------|
G|---------------------14--12--11--|-------------------------------------|-------12-14-------------------------11-8--------|
D|---------------------------------|-12--11------------------------------|-12-14-------------------------------------9--7--|
A|---------------------------------|---------12--------------------10-12-|-------------------------------------------------|
E|---------------------------------|-------------12--10--9---10-12-------|-------------------------------------------------|


E|--------------------|-------------|-----------------|-------------|-----------------|
B|--------------------|-------------|-----------------|-------------|-----------------|
G|--------------------|-------------|-----------------|-------------|-----------------|
D|-------------2------|------3------|-----------------|-------8-----|------8----8-----|
A|-9--6--------2------|------1------|------0-----0----|-------6-----|------6----6-----|
E|-------7--5--0------|------1------|-----------------|-------6-----|------6----6-----|


E|-------------|-----------------|-------------|---------------------------|---------------------------------------|
B|-------------|-----------------|-------------|---------------------------|---------------------------------------|
G|-------------|-----------------|-------------|-------7--6--7-------9--7--|-9-------10-9--10--12-10-12--10-9--10--|
D|-------8-----|------8----8-----|-------8-----|-----------------0---------|-----0---------------------------------|
A|-------6-----|------6----6-----|-------6-----|---------------------------|---------------------------------------|
E|-------6-----|------6----6-----|-------6-----|---------------------------|---------------------------------------|


E|-----------------------------------------|---------------------------------------|
B|-----------------------------------------|---------------------------------------|
G|-9--7--9---7--6--7-----------------------|-------------------------7--6--7-------|
D|---------------------0---8--7--8---7--5--|-7---5--3--5---3--2--3-------------0---|
A|-----------------------------------------|---------------------------------------|
E|-----------------------------------------|---------------------------------------|


E|-----------------------------------------|---------------------------------------|
B|-----------------------------------------|---------------------------------------|
G|-9--7--9-------10-9--10--12-10-12--10-9--|-10--9--7--9---7--6--7-----------------|
D|-----------0-----------------------------|-------------------------0---8--7--8---|
A|-----------------------------------------|---------------------------------------|
E|-----------------------------------------|---------------------------------------|


E|-----------------------------------------|---------------------------------------|
B|-----------------------------------------|---------------------------------------|
G|-------------------------------7--6--7---|-----9--7--9-------10-9--10--12-10-12--|
D|-7--5--7---5--3--5---3--2--3-------------|-0-------------0-----------------------|
A|-----------------------------------------|---------------------------------------|
E|-----------------------------------------|---------------------------------------|


E|-----------------------------------------|-----------------------------------------|
B|-----------------------------------------|-----------------------------------------|
G|-10-9--10--9--7--9---7--6--7-------------|-----------------------------------7--6--|
D|-------------------------------0---8--7--|-8---7--5--7---5--3--5---3--2--3---------|
A|-----------------------------------------|-----------------------------------------|
E|-----------------------------------------|-----------------------------------------|


E|---------------------------------------|---------------------------------------|
B|---------------------------------------|---------------------------------------|
G|-7-------------------------------------|---------------------------------------|
D|-----0---8--7--8---7--5--7---5--3--5---|-3--2--3---2---------2---------3-------|
A|---------------------------------------|-----------0---0--0--0---0--0--1-------|
E|---------------------------------------|-----------------------------------3---|


E|---------------------------------------|-------------------------------------|-----------------------------------------|
B|---------------------------------------|-------------------------------------|-----------------------------------------|
G|---------------------------------------|-------------------------------------|-----------------------------------------|
D|-2---------2---------3---6---2---------|-2---------3---------------------0---|-2---3---2---2--2--2---2--2--3--2--0--0--|
A|-0---0--0--0---0--0--1---4---0---0--0--|-0---0--0--1-------0--0--1---4-------|-----------------------------------------|
E|---------------------------------------|---------------3---------------------|-----------------------------------------|


E|-------------------------------------------|-----------------------------------------------|
B|-------------------------------------------|-----------------------------------------------|
G|---------------------------1--1------------|-----------------------------------1--1--2--2--|
D|-2---2--2--2---2--2--3--3--------2---2--2--|-2---2--2--3--2--0--0--2--2--3--3--------------|
A|-------------------------------------------|-----------------------------------------------|
E|-------------------------------------------|-----------------------------------------------|


E|-----------------------------------------------|------------------------------------------------|
B|-----------------------------------------------|------------------------------------------------|
G|-4--4--5--5------------------------------------|------------------------------------------------|
D|-------------2------------2------------3-------|-2------------2------------3---6---2------------|
A|-------------0---0--0--0--0---0--0--0--1-------|-0---0--0--0--0---0--0--0--1---4---0---0--0--0--|
E|-------------------------------------------3---|------------------------------------------------|


E|--------------------------------------|-------------------------------------------|
B|--------------------------------------|-------------------------------------------|
G|--------------------------------------|-------------------------------------------|
D|-2--------------------------------0---|-2---3---9------------9------------10--7---|
A|-0---0--0--0--1-------0---1---4-------|---------7---7--7--7--7---7--7--7--8---5---|
E|------------------3-------------------|-------------------------------------------|


E|------------------------------------------------|--------------------------------------|
B|------------------------------------------------|--------------------------------------|
G|------------------------------------------------|--------------------------------------|
D|-9------------9------------10--13--9------------|-9------------10--7---9---10--13--14--|
A|-7---7--7--7--7---7--7--7--8---11--7---7--7--7--|-7---7--7--7--8---5---7---8---11--12--|
E|------------------------------------------------|--------------------------------------|


E|---------------------------------------|------------------------------------------|
B|---------------------------------------|------------------------------------------|
G|---------------------------------------|------------------------------------------|
D|-16--17------------15--------14--------|-12---------------------------------------|
A|-14--15--12--12-12-----12-12-----12-12-|------13-13-13-13-15-15-15-15-17-17-17-17-|
E|---------------------------------------|------------------------------------------|


E|----------------------------------------------------|-------------------------------------------|
B|----------------------------------------------------|-------------------------------------------|
G|-------------------------------------14-15-14-------|-------------------------------------------|
D|-------------15-15-15-15-14-14-14-15----------15-14-|-12----------------------------------------|
A|-16-16-16-16----------------------------------------|----15-13-12-----------15--------14--------|
E|----------------------------------------------------|-------------12--12-12-----12-12-----12-12-|


E|------------------------------------------|----------------------------------------------------|
B|------------------------------------------|----------------------------------------------------|
G|------------------------------------------|----------------------------------------------------|
D|------------------------------------------|-------------------------------------14-15-14-------|
A|-12---------------------------------------|-------------15-15-15-15-14-14-14-15----------15-14-|
E|------13-13-13-13-15-15-15-15-17-17-17-17-|-16-16-16-16----------------------------------------|


E|---------------------------------------------------|----------------------------------------------------|
B|---------------------------------------------------|----------------------------------------------------|
G|---------------------------------------------------|---------------------------------6--6---------------|
D|-------------7---7--7--7--7---7--7--7--8--7--5--5--|-7---7--7--7--7---7--7--7--8--8--------7---7--7--7--|
A|-12------------------------------------------------|----------------------------------------------------|
E|----15-13-12---------------------------------------|----------------------------------------------------|


E|--------------------------------------------------|---------------------------------|
B|--------------------------------------------------|---------------------------------|
G|--------------------------------------6--6--7--7--|-9--9--10-10-9----9----10-9------|
D|-7---7--7--7--8--7--5--5--7--7--8--8--------------|-----------------------------12--|
A|--------------------------------------------------|---------------------------------|
E|--------------------------------------------------|---------------------------------|


E|------------------------|--------------------------------|-----------------------|
B|---------------9--------|------------------------9---10--|-12--13--10----11--8---|
G|-9-----9---10------9----|-9----10-9------9---10----------|-----------------------|
D|------------------------|------------12------------------|-----------------------|
A|------------------------|--------------------------------|-----------------------|
E|------------------------|--------------------------------|-----------------------|


E|--------------------|------------------------------|-----------------------|--------------------|
B|-10----11--14--10---|------11--8---10--11--14--15--|-17--18--17----18--15--|-17----18--21--17---|
G|--------------------|------------------------------|-----------------------|--------------------|
D|--------------------|------------------------------|-----------------------|--------------------|
A|--------------------|------------------------------|-----------------------|--------------------|
E|--------------------|------------------------------|-----------------------|--------------------|


E|----------------------16--17--|-19--20--------------------------------------|-------------------------------------------------|
B|------18--15--17--18----------|---------------------------------------------|-------------------------------------------------|
G|------------------------------|---------------------------------------------|-------------------------------------------------|
D|------------------------------|---------------------------------------------|-------------------------------------------------|
A|------------------------------|---------------------------------------------|-------------------------------------------------|
E|------------------------------|---------5--0--3--1--0--0--5--7--0--3--0--0--|-1--3--1--0--5--0--3--1--0--0--5--7--0--3--0--0--|


E|-------------------------------------------------|-------------------------------------------------|
B|-------------------------------------------------|-------------------------------------------------|
G|-------------------------------------------------|-------------------------------------------------|
D|-------------------------------------------------|-------------------------------------------------|
A|-------------------------------------------------|-------------------------------------------------|
E|-1--3--1--0--5--0--3--1--0--0--5--7--0--3--0--0--|-1--3--1--0--5--0--3--1--0--0--5--7--0--3--0--0--|


E|-------------------------------------------------|-------------------------------------------------|
B|-------------------------------------------------|-------------------------------------------------|
G|-------------------------------------------------|-------------------------------------------------|
D|-------------------------------------------------|-------------------------------------------------|
A|-------------------------------------------------|-------------------------------------------------|
E|-1--3--1--0--5--0--3--1--0--0--5--7--0--3--0--0--|-1--3--1--0--5--0--3--1--0--0--7--8--0--3--0--0--|


E|-------------------------------------------------|-------------------------------------------------|
B|-------------------------------------------------|-------------------------------------------------|
G|-------------------------------------------------|-------------------------------------------------|
D|-------------------------------------------------|-------------------------------------------------|
A|-------------------------------------------------|-------------------------------------------------|
E|-10-12-10-12-5--0--3--1--0--0--5--7--0--3--0--0--|-1--3--1--0--0--5--7--0--3--0--0--10-12-0--13-12-|


E|-------------------------------------------------|-------------------------------------------------|
B|-------------------------------------------------|-------------------------------------------------|
G|-------------------------------------------------|-------------------------------------------------|
D|-------------------------------------------------|-------------------------------------------------|
A|-------8--7--5--0--3--2--0--0--5--7--0--3--0--0--|-2--3--2--0--5--0--3--2--0--0--5--7--0--3--0--0--|
E|-0--0--------------------------------------------|-------------------------------------------------|


E|-------------------------------------------------|-------------------------------------------------|
B|-------------------------------------------------|-------------------------------------------------|
G|-------------------------------------------------|-------------------------------------------------|
D|-------------------------------------------------|-------------------------------------------------|
A|-2--3--2--0--5--0--3--2--0--0--5--7--0--3--0--0--|-2--3--2--0--5--0--3--2--0--0--5--7--0--3--0--0--|
E|-------------------------------------------------|-------------------------------------------------|


E|-------------------------------------------------|-------------------------------------------------|
B|-------------------------------------------------|-------------------------------------------------|
G|-------------------------------------------------|----------------------------------2--------------|
D|-------------------------------------------------|-------------------------------------5--2--5--2--|
A|-2--3--2--0--5--0--3--2--0--0--5--7--0--3--0--0--|-2--3--2--0--5--0--3--2--0--0--5-----------------|
E|-------------------------------------------------|-------------------------------------------------|


E|-------------------------------------------------|-------------------------------------------------|
B|-------------------------------------------------|-------------------------------------------------|
G|-------------------------------------------------|----------------------------------2--------------|
D|----2--------------------------------------------|----------------------------------------5--------|
A|-5-----5--3--5--0--3--2--0--0--5--7--0--3--0--0--|-2--3--2--0--5--0--3--2--0--0--5--------------7--|
E|-------------------------------------------------|-------------------------------------------------|


E|-------------------------------------------------|-------------------------------------------------|
B|-------------------------------------------------|-------------------------------------------------|
G|-------------------------------------------------|-------------------------------------------------|
D|-------------------------------------------------|-------------------------------------------------|
A|----3--2--0--5--0--3--2--0--0--5--7--0--3--0--0--|-2--3--2--0--7--0--5--3--0--0--7--8--0--5--0--0--|
E|-------------------------------------------------|-------------------------------------------------|


E|-------------------------------------------------|-------------------------------------------------|
B|-------------------------------------------------|-------------------------------------------------|
G|-------------------------------------------------|-------------------------------------------------|
D|-------------------------------------------------|-------------------------------------------------|
A|-3--5--3--0--8--0--7--5--0--0--8--10-0--7--0--0--|-5--7--5--0--10-0--8--7--0--0--10-12-0--8--0--0--|
E|-------------------------------------------------|-------------------------------------------------|


E|-------------------------------------------------|-------------------------------------------------|
B|-------------------------------------------------|-------------------------------------------------|
G|-------------------------------------------------|-------------------------------------------------|
D|-------------------------------------------------|-------------------------------------------------|
A|-7--8--7--0--12-0--10-8--0--0--12-14-0--12-10-0--|-0--14-15-0--14-12-0--0--15-17-0--15-14-0--0--17-|
E|-------------------------------------------------|-------------------------------------------------|


E|-------------------------------------------------|-------------------------------------------------|
B|-------------------------------------------------|-------------------------------------------------|
G|-------------------------------------------------|-------------------------------------------------|
D|-------------------------------------------------|-------------------------------------------------|
A|-19-0--17-15-0--19-20-0--19-17-0--20-22-0--20-19-|-0--22-24-0--22-24-0--22-24-0--22-24-0--22-------|
E|-------------------------------------------------|-------------------------------------------0--1--|


E|-------------------------------------------------|-------17-16-----|-------------------------------------------------|
B|----------------------------------6--5--6--13-12-|-12-13-----------|----10-17-18-17-15-17-15----15-17-15----15-17-18-|
G|----------------------5--4--4--5-----------------|-----------------|-------------------------18----------18----------|
D|-------------3--2--3-----------------------------|-----------------|-------------------------------------------------|
A|-3--2--2--3--------------------------------------|-----------------|-------------------------------------------------|
E|-------------------------------------------------|-----------------|-------------------------------------------------|


E|-------------------------------------------------|-------------------15-13-------------------------|
B|-17-15-17-15----15-17-15----15-17-18-17-15-17-15-|----15-17-15----15-------15-13----------13-14-13-|
G|-------------18----------18----------------------|-18----------18----------------15-12-15----------|
D|-------------------------------------------------|-------------------------------------------------|
A|-------------------------------------------------|-------------------------------------------------|
E|-------------------------------------------------|-------------------------------------------------|


E|-----------------------------------------------|-------------------------------------|
B|-----------------------------------------------|-------------------------------------|
G|-15-12-------15-12-----------------------------|-------3--0-----3--0-----3--0-----3--|
D|-------15-12-------15-12-------12-10-----------|-------------5--------5--------5-----|
A|-------------------------15-13-------13-10-----|-------------------------------------|
E|-----------------------------------------------|-------------------------------------|


E|-------------------------------------------------|-------------------------------------------------|
B|-------------------------------------------------|-------------------------------------------------|
G|-0-----3--0--5--0--3--0-----3--0-----3--0-----3--|-0-----------------3--0-----3--0-----3--0-----3--|
D|----5--------------------5--------5--------5-----|----5--3--0--3--0--------5--------5--------5-----|
A|-------------------------------------------------|-------------------------------------------------|
E|-------------------------------------------------|-------------------------------------------------|


E|-------------------------------------------------|-------------------------------------------------|
B|-------------------------------------------------|-------------------------------------------------|
G|-0-----3--0--5--0--6--0--5--0--3--0-----3--0-----|----0--------------3--0-----3--0-----3--0-----3--|
D|----5--------------------------------5--------5--|-0-----5--0--3--0--------5--------5--------5-----|
A|-------------------------------------------------|-------------------------------------------------|
E|-------------------------------------------------|-------------------------------------------------|


E|-------------------------------------------------|-------------------------------------------------|
B|-------------------------------------------------|-------------------------------------------------|
G|-0-----3--0--5--0--3--0-----3--0-----3--0-----3--|-0-----------------3--0-----3--0-----3--0-----3--|
D|----5--------------------5--------5--------5-----|----5--3--0--3--0--------5--------5--------5-----|
A|-------------------------------------------------|-------------------------------------------------|
E|-------------------------------------------------|-------------------------------------------------|


E|-------------------------------------------------|---------------------------------|
B|-------------------8-----6-----------------------|------------------------3--3-----|
G|-0-----3--0--5--0-----7-----5--3--0--5--0--3--0--|------------------------0--0-----|
D|----5--------------------------------------------|-3--0-------------------0--0-----|
A|-------------------------------------------------|-------4--3--1-------------------|
E|-------------------------------------------------|----------------3--1----3--3-----|


E|---------------------------|------------------------|---------------------------|
B|------------3--3-----------|------------3--3----3---|---------------------------|
G|------------0--0-----------|------------0--0----0---|---------------0-----------|
D|------------0--0---3---3---|------------0--0----0---|---------------------------|
A|-------------------1---1---|------------------------|----------3--------3---3---|
E|-------1----3--3-----------|-------1----3--3----3---|------1---0--------0---1---|


E|---------------------------|---------------------------|---------------------------|
B|------------------3--3-----|------------3--3---3---3---|---------------------------|
G|-----0------------0--0-----|------------0--0---0---0---|------------0--0-----------|
D|------------------0--0-----|------------0--0-----------|-------3-----------3---5---|
A|---------3-----------------|-------------------3---3---|-------1-----------1---3---|
E|---------1---1----3--3-----|-------1----3--3-----------|---------------------------|


E|---------------------------------|-------------------------------------------|-------------------------------------------------|
B|---------------------------------|-------------17-18-17-15----15-17-15----15-|-17-18-17-15----15-17-15----15-17-18-17-15----15-|
G|-----0------------0--0-----------|-----0-------------------18----------18----|-------------18----------18----------------18----|
D|---------5---8-----------8---10--|---------10--------------------------------|-------------------------------------------------|
A|-3-------3---6-----------6---8---|-8-------8---------------------------------|-------------------------------------------------|
E|---------------------------------|-------------------------------------------|-------------------------------------------------|


E|-------------------------------------------------|-------------------------------------------------|
B|-------------------17-18-17-15----15-17-15----15-|-17-18-17-15----15-17-15----15-17-18-17-15-------|
G|-18-0--17-0--15-0--------------18----------18----|-------------18----------18----------------18-0--|
D|-------------------------------------------------|-------------------------------------------------|
A|-------------------------------------------------|-------------------------------------------------|
E|-------------------------------------------------|-------------------------------------------------|


E|------------------------------------------|-------------------------------------------------|
B|------------17-18-17-15----15-17-15----15-|-17-18-17-15----15-17-15----15-17-18-17-15----15-|
G|-17-0--15---------------18----------18----|-------------18----------18----------------18----|
D|------------------------------------------|-------------------------------------------------|
A|------------------------------------------|-------------------------------------------------|
E|------------------------------------------|-------------------------------------------------|


E|-------------------------------------------------|-------------------------------------------------|
B|-------------------17-18-17-15----15-17-15----15-|-17-18-17-15----15-17-15----15-17-18-17-15-------|
G|-18-0--17-0--15-0--------------18----------18----|-------------18----------18----------------18-0--|
D|-------------------------------------------------|-------------------------------------------------|
A|-------------------------------------------------|-------------------------------------------------|
E|-------------------------------------------------|-------------------------------------------------|


E|------------------------------------------|-------------------------------------------------|
B|------------17-18-17-15----15-17-15----15-|-17-18-17-15----15-17-15----15-17-18-17-15----15-|
G|-17-0--15---------------18----------18----|-------------18----------18----------------18----|
D|------------------------------------------|-------------------------------------------------|
A|------------------------------------------|-------------------------------------------------|
E|------------------------------------------|-------------------------------------------------|


E|-------------------------------------------------|-------------------------------------------17-18-|
B|-------------------17-18-17-15----15-17-15----15-|-17-18-17-15----15-17----------17-18-19-20-------|
G|-18-0--17-0--15-0--------------18----------18----|-------------18-------19-18-19-------------------|
D|-------------------------------------------------|-------------------------------------------------|
A|-------------------------------------------------|-------------------------------------------------|
E|-------------------------------------------------|-------------------------------------------------|


E|----17-18-20-17-18-15-17-14-15-17----------------|-------------------------------------------------|
B|-20-------------------------------18-15-13-------|-------------------------------------------------|
G|-------------------------------------------15-0--|----15-0-----15-0-----15-0-----15-0--17-0--15-0--|
D|-------------------------------------------------|-17-------17-------17-------17-------------------|
A|-------------------------------------------------|-------------------------------------------------|
E|-------------------------------------------------|-------------------------------------------------|


E|-------------------------------------------------|-------------------------------------------------|
B|-------------------------------------------------|-------------------------------------------------|
G|----15-0-----15-0-----15-0-----------------15-0--|----15-0-----15-0-----15-0-----15-0--17-0--18-0--|
D|-17-------17-------17-------17-15-0--15-0--------|-17-------17-------17-------17-------------------|
A|-------------------------------------------------|-------------------------------------------------|
E|-------------------------------------------------|-------------------------------------------------|


E|-------------------------------------------------|-------------------------------------------------|
B|-------------------------------------------------|-------------------------------------------------|
G|-17-0--15-0-----15-0--------0--------------3--0--|----3--0-----3--0-----3--0-----3--0--5--0--3--0--|
D|-------------17-------17-0-----17-0--15-0--------|-5--------5--------5--------5--------------------|
A|-------------------------------------------------|-------------------------------------------------|
E|-------------------------------------------------|-------------------------------------------------|


E|-------------------------------------------------|-------------------------------------------------|
B|-------------------------------------------------|-------------------------------------------------|
G|----3--0-----3--0-----3--0-----------------3--0--|----3--0-----3--0-----3--0-----3--0--5--0--------|
D|-5--------5--------5--------5--3--0--3--0--------|-5--------5--------5--------5--------------------|
A|-------------------------------------------------|-------------------------------------------10-13-|
E|-------------------------------------------------|-------------------------------------------------|


E|----------------------------------10-12-13-17-13-|----------13-17-13----------------------13-17-13-|
B|-------------------------10-11-13----------------|-------------------------------------------------|
G|-------10-12-------10-12-------------------------|-15-14-15----------15-14----------14-15----------|
D|-10-12-------10-12-------------------------------|-------------------------15-14-15----------------|
A|-------------------------------------------------|-------------------------------------------------|
E|-------------------------------------------------|-------------------------------------------------|


E|----------13-17-13----------------------13-17-13-|----------13-17-13----------------------13-20-15-|
B|-------------------------------------------------|-------------------------------------------------|
G|-15-14-15----------15-14----------14-15----------|-15-14-15----------15-14----------14-15----------|
D|-------------------------15-14-15----------------|-------------------------15-14-15----------------|
A|-------------------------------------------------|-------------------------------------------------|
E|-------------------------------------------------|-------------------------------------------------|


E|----------15-20-15----------15-20-15-------17-13-|----------13-17-13----------------------13-17-13-|
B|-------------------------------------------------|-------------------------------------------------|
G|-17-15-17----------17-15-17----------17-15-------|-15-14-15----------15-14----------14-15----------|
D|-------------------------------------------------|-------------------------15-14-15----------------|
A|-------------------------------------------------|-------------------------------------------------|
E|-------------------------------------------------|-------------------------------------------------|


E|----------13-17-13----------------------13-17-13-|----------13-17-13----------------------13-20-13-|
B|-------------------------------------------------|-------------------------------------------------|
G|-15-14-15----------15-14----------14-15----------|-15-14-15----------15-14----------14-15----------|
D|-------------------------15-14-15----------------|-------------------------15-14-15----------------|
A|-------------------------------------------------|-------------------------------------------------|
E|-------------------------------------------------|-------------------------------------------------|


E|----13-18-13----13-17-13----13-15-13----13-17-13-|----------13-17-13----------------------13-17-13-|
B|-------------------------------------------------|-------------------------------------------------|
G|-17----------17----------17----------17----------|-15-14-15----------15-14----------14-15----------|
D|-------------------------------------------------|-------------------------15-14-15----------------|
A|-------------------------------------------------|-------------------------------------------------|
E|-------------------------------------------------|-------------------------------------------------|


E|----------13-17-13----------------------13-17-13-|----------13-17-13----------------------13-20-15-|
B|-------------------------------------------------|-------------------------------------------------|
G|-15-14-15----------15-14----------14-15----------|-15-14-15----------15-14----------14-15----------|
D|-------------------------15-14-15----------------|-------------------------15-14-15----------------|
A|-------------------------------------------------|-------------------------------------------------|
E|-------------------------------------------------|-------------------------------------------------|


E|----------15-20-15----------15-20-15-------17-13-|----------13-17-13----------------------13-17-13-|
B|-------------------------------------------------|-------------------------------------------------|
G|-17-15-17----------17-15-17----------17-15-------|-15-14-15----------15-14----------14-15----------|
D|-------------------------------------------------|-------------------------15-14-15----------------|
A|-------------------------------------------------|-------------------------------------------------|
E|-------------------------------------------------|-------------------------------------------------|


E|----------13-17-13----------------------13-17-13-|----------13-17-13----------------------13-20-13-|
B|-------------------------------------------------|-------------------------------------------------|
G|-15-14-15----------15-14----------14-15----------|-15-14-15----------15-14----------14-15----------|
D|-------------------------15-14-15----------------|-------------------------15-14-15----------------|
A|-------------------------------------------------|-------------------------------------------------|
E|-------------------------------------------------|-------------------------------------------------|


E|----13-18-13----13-17-13----13-15-13----13-13--|------13------------|----------------|
B|-----------------------------------------------|--------------------|----------------|
G|-17----------17----------17----------17--------|--------------------|----------------|
D|-----------------------------------------------|--------------------|----------------|
A|-----------------------------------------------|--------------------|----------------|
E|-----------------------------------------------|--------------------|----------------|


E|----------------|--------|--------|--------|--------|------------13--|-12--11-12-11-10---------------------|
B|----------------|--------|--------|--------|--------|----------------|-----------------14--13--12--13--15--|
G|----------------|--------|--------|--------|--------|----------------|-------------------------------------|
D|----------------|--------|--------|--------|--------|----------------|-------------------------------------|
A|----------------|--------|--------|--------|--------|----------------|-------------------------------------|
E|----------------|--------|--------|--------|--------|----------------|-------------------------------------|


E|-------------------------------------|---------------------------------------|-------------------------------------------------|
B|-14--13-14-13-12-----------------13--|---------------13----------------------|-------------------------------------------5--6--|
G|-----------------15--14--13--14------|-12-12-11--12------12-12-11--12--------|-------------------------------5--6--7--8--------|
D|-------------------------------------|---------------------------------------|-------------------6--7--8--9--------------------|
A|-------------------------------------|---------------------------------------|-------7--8--9--10-------------------------------|
E|-------------------------------------|---------------------------------8--9--|-10-11-------------------------------------------|


E|-------4--5--6--7--8--9--10-11-12-13-14-15-13--|--------------------|----------------------------------------|
B|-7--8------------------------------------------|--------------------|----------------------------------------|
G|-----------------------------------------------|--------------------|----------------------------------------|
D|-----------------------------------------------|-----------10---10--|----------------------------------------|
A|-----------------------------------------------|-----------10---8---|-------------------18----17-------14-15-|
E|-----------------------------------------------|-----------8--------|----------0--14-16----16----18-19-------|


E|-------------------------------------------------|-------------------------------------------------|
B|-------------------------------------------------|-------------------------------------------------|
G|-------------------------------------------------|-------------------------------------------------|
D|-------------------------------------------------|-------------------------------------------------|
A|----------------18----17-------14-15-------13-14-|----------------18----17-------14-15-------------|
E|-16-17-0--14-16----16----18-19-------16-17-------|-15-16-0--14-16----16----18-19-------16-17-0--14-|


E|-------------------------------------------------|-------------------------------------------------|
B|-------------------------------------------------|-------------------------------------------------|
G|-------------------------------------------------|-------------------------------------------------|
D|-------------------------------14-16-17-18-------|-------------------------------------------------|
A|----18----17-------14-15-16-17-------------------|----18----17-------14-15----------------18----17-|
E|-16----16----18-19-------------------------0--14-|-16----16----18-19-------16-17-0--14-16----16----|


E|-------------------------------------------------|-------------------------------------------------|
B|-------------------------------------------------|-------------------------------------------------|
G|-------------------------------------------------|-------------------------------------------------|
D|-------------------------------------------------|-------------------------------------------------|
A|-14-15----------------18----17-------14-15-------|----------18----17-14-15-------13-14-------------|
E|-------16-17-0--14-16----16----18-19-------16-17-|-0--14-16----16----------16-17-------15-16-19-16-|


E|-------------------------------------------------|-------------------------------------------------|
B|-------------------------------------------------|-------------------------------------------------|
G|-------------------------------------------------|-------------------------------------------------|
D|-------------------------------------------------|-------------------------------------------------|
A|-------------------------------------------------|-14-16-17----------6-----5--------2--3-----------|
E|-18-16-0--19-16-18-16-0--19-16-18-16-0--15-16-18-|----------0--2--4-----4-----6--7--------4--5--0--|


E|-------------------------------------------------|-------------------------------------------------|
B|-------------------------------------------------|-------------------------------------------------|
G|-------------------------------------------------|-------------------------------------------------|
D|-------------------------------------------------|-------------------------------------------------|
A|-------6-----5--------2--3--------1--2-----------|-------6-----5--------2--3-----------------6-----|
E|-2--4-----4-----6--7--------4--5--------3--4--0--|-2--4-----4-----6--7--------4--5--0--2--4-----4--|


E|-------------------------------------------------|-------------------------------------------------|
B|-------------------------------------------------|-------------------------------------------------|
G|-------------------------------------------------|-------------------------------------------------|
D|----------------------2--4--5--6-----------------|-------------------------------------------------|
A|-5--------2--3--4--5-----------------------6-----|-5--------2--3-----------------6-----5--2--3-----|
E|----6--7--------------------------0--2--4-----4--|----6--7--------4--5--0--2--4-----4-----------4--|


E|-------------------------------------------------|-------------------------------------------------|
B|-------------------------------------------------|-------------------------------------------------|
G|-------------------------------------------------|-------------------------------------------------|
D|-------------------------------------------------|-------------------------------------------------|
A|-------------6-----5--------2--3-----------------|-6-----5--2--3--------1--2-----------------------|
E|-5--0--2--4-----4-----6--7--------4--5--0--2--4--|----4-----------4--5--------3--4--7--4--6--4--0--|


E|-------------------------------------------------|-------------------------------------------------|
B|-------------------------------------------------|-------------------------------------------------|
G|-------------------------------------------------|-------------------------------------------------|
D|-------------------------------------------------|-------------------------------------------------|
A|----------------------------------------2--4--5--|-7--4--6--4--0--7--4--6--4--0--7--4--6--4--0--3--|
E|-7--4--6--4--0--7--4--6--4--0--3--4--6-----------|-------------------------------------------------|


E|-------------------------------------------------|-------------------------------------------------|
B|-------------------------------------------------|-------------------------------------------------|
G|-------------------------------------------------|-------------------------2--3--5--6--3--5--------|
D|-------2--4--5--2--4--2-----5--2--4--2--4--2-----|-5--2--4--2-----2--4--5--------------------6--3--|
A|-4--6--------------------3--------------------3--|-------------3-----------------------------------|
E|-------------------------------------------------|-------------------------------------------------|


E|-------------------------------------------------|---------------------------------|
B|-------------------------------------------------|---------------------------------|
G|-6--3--5--------6--3--5--------------------------|---------------------------------|
D|----------6--3-----------6--3--5--6--5--3--------|---------------------------------|
A|-------------------------------------------6--4--|-3--2----1-----------------------|
E|-------------------------------------------------|--------------4----3----2----1---|


E|-----------|--------------------|------------------------|-------------------|-----------------------------|
B|-----------|--------------------|------------------------|-------------------|-----------------------------|
G|-----------|--------------------|------------------------|-------------------|-----------------------------|
D|----2------|----2----2----4-----|---------4----4----6----|----------6--------|------------3---------3------|
A|----2------|----2----2----4-----|---------4----4----6----|----------6--------|------------3----------------|
E|----0------|----0----0----2-----|---------2----2----4----|----------4-----4--|----3---2---1-----1-------1--|


E|--------------------|---------------------|------------------------|---------------------|
B|--------------------|---------5-----------|------------------------|---------------------|
G|--------------------|---------4-----------|------------------------|---------------------|
D|----3----3----2-----|---------2-----2-----|----4----4----4----4----|----6-----6-----6----|
A|----3----3----2-----|---------2-----2-----|----4----4----4----4----|----6-----6-----6----|
E|----1----1----0-----|---------0-----0-----|----2----2----2----2----|----4-----4-----4----|


E|---------------------|---------------------|----------------|------------------|
B|---------------------|---------------------|----------------|------------------|
G|---------------------|---------------------|----------------|------------------|
D|------6-----7-----7--|---------7-----7-----|----6------6----|------6-----6-----|
A|------6-----7-----7--|---------7-----7-----|----4------4----|------4-----3-----|
E|------4-----5-----5--|---------5-----5-----|----------------|------------------|


E|---------------------|----------------|---------------------------|-----------------------------------|
B|---------------------|----------------|---------------------------|-----------------------------------|
G|---------------------|----------------|---------------------------|------------------------2---2---2--|
D|---------6-----6-----|----4------4----|------4-----2--------------|------------2---2---2---2---2---2--|
A|---------3-----3-----|----2------2----|------2-----0---0---0---0--|----0---0---0---0---0---0---0---0--|
E|---------------------|----------------|---------------------------|-----------------------------------|


E|------------------------|-----------------------|------------------------|---------------------------|
B|------------------------|-----------------3-----|---------3----3---------|---------------------------|
G|-------------------0----|-----------------0-----|---------0----0---------|---------------0-----------|
D|----3-----3-------------|--------3----3---0-----|---------0----0----3----|------3-----------------3--|
A|----3-----3-------------|-----------------------|-------------------3----|------3--------------------|
E|----1-----1----1--------|----1------------3-----|---------3----3----1----|------1----1--------1------|


E|-----------------|-----------------------|---------------------------|----------------|
B|----------3------|----3----3-------------|---------------------------|----3------3----|
G|----------0------|----0----0-------------|----------0----------------|----0------0----|
D|------3---0------|----0----0----3-----3--|-------------------3----3--|----0------0----|
A|-----------------|--------------3-----3--|---------------------------|----------------|
E|----------3------|----3----3----1-----1--|------1--------1-----------|----3------3----|


E|------------------|----------------|
B|------3-----3-----|----------3-----|
G|------0-----2-----|----------2-----|
D|------0-----0-----|----------0-----|
A|------------0-----|----------0-----|
E|------3-----------|----------------|





Track 2: John Petrucci - Distorted Guitar (Low Volume)

E|--------|--------|--------|--------|--------|--------|--------|--------|--------|
B|--------|--------|--------|--------|--------|--------|--------|--------|--------|
G|--------|--------|--------|--------|--------|--------|--------|--------|--------|
D|--------|--------|--------|--------|--------|--------|--------|--------|--------|
A|--------|--------|--------|--------|--------|--------|--------|--------|--------|
E|--------|--------|--------|--------|--------|--------|--------|--------|--------|


E|--------|--------|--------|--------|--------|--------|--------|--------|--------|
B|--------|--------|--------|--------|--------|--------|--------|--------|--------|
G|--------|--------|--------|--------|--------|--------|--------|--------|--------|
D|--------|--------|--------|--------|--------|--------|--------|--------|--------|
A|--------|--------|--------|--------|--------|--------|--------|--------|--------|
E|--------|--------|--------|--------|--------|--------|--------|--------|--------|


E|--------|--------|--------|--------|--------|--------|--------|--------|--------|
B|--------|--------|--------|--------|--------|--------|--------|--------|--------|
G|--------|--------|--------|--------|--------|--------|--------|--------|--------|
D|--------|--------|--------|--------|--------|--------|--------|--------|--------|
A|--------|--------|--------|--------|--------|--------|--------|--------|--------|
E|--------|--------|--------|--------|--------|--------|--------|--------|--------|


E|--------|--------|--------|--------|--------|--------|--------|--------|--------|
B|--------|--------|--------|--------|--------|--------|--------|--------|--------|
G|--------|--------|--------|--------|--------|--------|--------|--------|--------|
D|--------|--------|--------|--------|--------|--------|--------|--------|--------|
A|--------|--------|--------|--------|--------|--------|--------|--------|--------|
E|--------|--------|--------|--------|--------|--------|--------|--------|--------|


E|--------|--------|--------|--------|--------|--------|--------|--------|--------|
B|--------|--------|--------|--------|--------|--------|--------|--------|--------|
G|--------|--------|--------|--------|--------|--------|--------|--------|--------|
D|--------|--------|--------|--------|--------|--------|--------|--------|--------|
A|--------|--------|--------|--------|--------|--------|--------|--------|--------|
E|--------|--------|--------|--------|--------|--------|--------|--------|--------|


E|--------|--------|--------|--------|--------|--------|--------|--------|--------|
B|--------|--------|--------|--------|--------|--------|--------|--------|--------|
G|--------|--------|--------|--------|--------|--------|--------|--------|--------|
D|--------|--------|--------|--------|--------|--------|--------|--------|--------|
A|--------|--------|--------|--------|--------|--------|--------|--------|--------|
E|--------|--------|--------|--------|--------|--------|--------|--------|--------|


E|--------|--------|--------|--------|--------|--------|--------|--------|--------|
B|--------|--------|--------|--------|--------|--------|--------|--------|--------|
G|--------|--------|--------|--------|--------|--------|--------|--------|--------|
D|--------|--------|--------|--------|--------|--------|--------|--------|--------|
A|--------|--------|--------|--------|--------|--------|--------|--------|--------|
E|--------|--------|--------|--------|--------|--------|--------|--------|--------|


E|--------|--------|--------|--------|--------|--------|--------|--------|--------|
B|--------|--------|--------|--------|--------|--------|--------|--------|--------|
G|--------|--------|--------|--------|--------|--------|--------|--------|--------|
D|--------|--------|--------|--------|--------|--------|--------|--------|--------|
A|--------|--------|--------|--------|--------|--------|--------|--------|--------|
E|--------|--------|--------|--------|--------|--------|--------|--------|--------|


E|--------|--------|--------|--------|--------|--------|--------|--------|--------|
B|--------|--------|--------|--------|--------|--------|--------|--------|--------|
G|--------|--------|--------|--------|--------|--------|--------|--------|--------|
D|--------|--------|--------|--------|--------|--------|--------|--------|--------|
A|--------|--------|--------|--------|--------|--------|--------|--------|--------|
E|--------|--------|--------|--------|--------|--------|--------|--------|--------|


E|--------|--------|--------|--------|--------|--------|--------|--------|--------|
B|--------|--------|--------|--------|--------|--------|--------|--------|--------|
G|--------|--------|--------|--------|--------|--------|--------|--------|--------|
D|--------|--------|--------|--------|--------|--------|--------|--------|--------|
A|--------|--------|--------|--------|--------|--------|--------|--------|--------|
E|--------|--------|--------|--------|--------|--------|--------|--------|--------|


E|--------|--------|--------|--------|--------|--------|--------|--------|--------|
B|--------|--------|--------|--------|--------|--------|--------|--------|--------|
G|--------|--------|--------|--------|--------|--------|--------|--------|--------|
D|--------|--------|--------|--------|--------|--------|--------|--------|--------|
A|--------|--------|--------|--------|--------|--------|--------|--------|--------|
E|--------|--------|--------|--------|--------|--------|--------|--------|--------|


E|--------|--------|--------|--------|--------|--------|--------|--------|--------|
B|--------|--------|--------|--------|--------|--------|--------|--------|--------|
G|--------|--------|--------|--------|--------|--------|--------|--------|--------|
D|--------|--------|--------|--------|--------|--------|--------|--------|--------|
A|--------|--------|--------|--------|--------|--------|--------|--------|--------|
E|--------|--------|--------|--------|--------|--------|--------|--------|--------|


E|--------|--------|--------|--------|--------|--------|--------|--------|--------|
B|--------|--------|--------|--------|--------|--------|--------|--------|--------|
G|--------|--------|--------|--------|--------|--------|--------|--------|--------|
D|--------|--------|--------|--------|--------|--------|--------|--------|--------|
A|--------|--------|--------|--------|--------|--------|--------|--------|--------|
E|--------|--------|--------|--------|--------|--------|--------|--------|--------|


E|--------|--------|--------|--------|--------|--------|--------|--------|--------|
B|--------|--------|--------|--------|--------|--------|--------|--------|--------|
G|--------|--------|--------|--------|--------|--------|--------|--------|--------|
D|--------|--------|--------|--------|--------|--------|--------|--------|--------|
A|--------|--------|--------|--------|--------|--------|--------|--------|--------|
E|--------|--------|--------|--------|--------|--------|--------|--------|--------|


E|--------|--------|--------|--------|--------|--------|--------|--------|--------|
B|--------|--------|--------|--------|--------|--------|--------|--------|--------|
G|--------|--------|--------|--------|--------|--------|--------|--------|--------|
D|--------|--------|--------|--------|--------|--------|--------|--------|--------|
A|--------|--------|--------|--------|--------|--------|--------|--------|--------|
E|--------|--------|--------|--------|--------|--------|--------|--------|--------|


E|--------|--------|--------|--------|--------|--------|--------|--------|--------|
B|--------|--------|--------|--------|--------|--------|--------|--------|--------|
G|--------|--------|--------|--------|--------|--------|--------|--------|--------|
D|--------|--------|--------|--------|--------|--------|--------|--------|--------|
A|--------|--------|--------|--------|--------|--------|--------|--------|--------|
E|--------|--------|--------|--------|--------|--------|--------|--------|--------|


E|--------|--------|--------|--------|--------|--------|--------|--------|--------|
B|--------|--------|--------|--------|--------|--------|--------|--------|--------|
G|--------|--------|--------|--------|--------|--------|--------|--------|--------|
D|--------|--------|--------|--------|--------|--------|--------|--------|--------|
A|--------|--------|--------|--------|--------|--------|--------|--------|--------|
E|--------|--------|--------|--------|--------|--------|--------|--------|--------|


E|--------|--------|--------|--------|--------|--------|--------|--------|--------|
B|--------|--------|--------|--------|--------|--------|--------|--------|--------|
G|--------|--------|--------|--------|--------|--------|--------|--------|--------|
D|--------|--------|--------|--------|--------|--------|--------|--------|--------|
A|--------|--------|--------|--------|--------|--------|--------|--------|--------|
E|--------|--------|--------|--------|--------|--------|--------|--------|--------|


E|--------|--------|--------|--------|--------|--------|--------|--------|--------|
B|--------|--------|--------|--------|--------|--------|--------|--------|--------|
G|--------|--------|--------|--------|--------|--------|--------|--------|--------|
D|--------|--------|--------|--------|--------|--------|--------|--------|--------|
A|--------|--------|--------|--------|--------|--------|--------|--------|--------|
E|--------|--------|--------|--------|--------|--------|--------|--------|--------|


E|--------|--------|--------|--------|--------|--------|--------|--------|--------|
B|--------|--------|--------|--------|--------|--------|--------|--------|--------|
G|--------|--------|--------|--------|--------|--------|--------|--------|--------|
D|--------|--------|--------|--------|--------|--------|--------|--------|--------|
A|--------|--------|--------|--------|--------|--------|--------|--------|--------|
E|--------|--------|--------|--------|--------|--------|--------|--------|--------|


E|--------|--------|--------|--------|--------|--------|--------|--------|--------|
B|--------|--------|--------|--------|--------|--------|--------|--------|--------|
G|--------|--------|--------|--------|--------|--------|--------|--------|--------|
D|--------|--------|--------|--------|--------|--------|--------|--------|--------|
A|--------|--------|--------|--------|--------|--------|--------|--------|--------|
E|--------|--------|--------|--------|--------|--------|--------|--------|--------|


E|--------|--------|--------|--------|--------|--------|--------|--------|--------|
B|--------|--------|--------|--------|--------|--------|--------|--------|--------|
G|--------|--------|--------|--------|--------|--------|--------|--------|--------|
D|--------|--------|--------|--------|--------|--------|--------|--------|--------|
A|--------|--------|--------|--------|--------|--------|--------|--------|--------|
E|--------|--------|--------|--------|--------|--------|--------|--------|--------|


E|--------|--------|--------|--------|--------|--------|--------|--------|--------|
B|--------|--------|--------|--------|--------|--------|--------|--------|--------|
G|--------|--------|--------|--------|--------|--------|--------|--------|--------|
D|--------|--------|--------|--------|--------|--------|--------|--------|--------|
A|--------|--------|--------|--------|--------|--------|--------|--------|--------|
E|--------|--------|--------|--------|--------|--------|--------|--------|--------|


E|--------|--------|--------|--------|--------|--------|--------|--------|--------|
B|--------|--------|--------|--------|--------|--------|--------|--------|--------|
G|--------|--------|--------|--------|--------|--------|--------|--------|--------|
D|--------|--------|--------|--------|--------|--------|--------|--------|--------|
A|--------|--------|--------|--------|--------|--------|--------|--------|--------|
E|--------|--------|--------|--------|--------|--------|--------|--------|--------|


E|--------|--------|--------|--------|--------|--------|--------|--------|--------|
B|--------|--------|--------|--------|--------|--------|--------|--------|--------|
G|--------|--------|--------|--------|--------|--------|--------|--------|--------|
D|--------|--------|--------|--------|--------|--------|--------|--------|--------|
A|--------|--------|--------|--------|--------|--------|--------|--------|--------|
E|--------|--------|--------|--------|--------|--------|--------|--------|--------|


E|--------|--------|--------|--------|--------|--------|--------|--------|--------|
B|--------|--------|--------|--------|--------|--------|--------|--------|--------|
G|--------|--------|--------|--------|--------|--------|--------|--------|--------|
D|--------|--------|--------|--------|--------|--------|--------|--------|--------|
A|--------|--------|--------|--------|--------|--------|--------|--------|--------|
E|--------|--------|--------|--------|--------|--------|--------|--------|--------|


E|--------|--------|--------|--------|--------|--------|--------|--------|--------|
B|--------|--------|--------|--------|--------|--------|--------|--------|--------|
G|--------|--------|--------|--------|--------|--------|--------|--------|--------|
D|--------|--------|--------|--------|--------|--------|--------|--------|--------|
A|--------|--------|--------|--------|--------|--------|--------|--------|--------|
E|--------|--------|--------|--------|--------|--------|--------|--------|--------|


E|--------|--------|--------|--------|--------|--------|--------|--------|--------|
B|--------|--------|--------|--------|--------|--------|--------|--------|--------|
G|--------|--------|--------|--------|--------|--------|--------|--------|--------|
D|--------|--------|--------|--------|--------|--------|--------|--------|--------|
A|--------|--------|--------|--------|--------|--------|--------|--------|--------|
E|--------|--------|--------|--------|--------|--------|--------|--------|--------|


E|--------|--------|--------|--------|--------|--------|--------|--------|--------|
B|--------|--------|--------|--------|--------|--------|--------|--------|--------|
G|--------|--------|--------|--------|--------|--------|--------|--------|--------|
D|--------|--------|--------|--------|--------|--------|--------|--------|--------|
A|--------|--------|--------|--------|--------|--------|--------|--------|--------|
E|--------|--------|--------|--------|--------|--------|--------|--------|--------|


E|--------|--------|--------|--------|--------|--------|--------|--------|--------|
B|--------|--------|--------|--------|--------|--------|--------|--------|--------|
G|--------|--------|--------|--------|--------|--------|--------|--------|--------|
D|--------|--------|--------|--------|--------|--------|--------|--------|--------|
A|--------|--------|--------|--------|--------|--------|--------|--------|--------|
E|--------|--------|--------|--------|--------|--------|--------|--------|--------|


E|--------|--------|--------|--------|--------|--------|--------|--------|--------|
B|--------|--------|--------|--------|--------|--------|--------|--------|--------|
G|--------|--------|--------|--------|--------|--------|--------|--------|--------|
D|--------|--------|--------|--------|--------|--------|--------|--------|--------|
A|--------|--------|--------|--------|--------|--------|--------|--------|--------|
E|--------|--------|--------|--------|--------|--------|--------|--------|--------|


E|--------|--------|--------|--------|--------|--------|--------|--------|--------|
B|--------|--------|--------|--------|--------|--------|--------|--------|--------|
G|--------|--------|--------|--------|--------|--------|--------|--------|--------|
D|--------|--------|--------|--------|--------|--------|--------|--------|--------|
A|--------|--------|--------|--------|--------|--------|--------|--------|--------|
E|--------|--------|--------|--------|--------|--------|--------|--------|--------|


E|--------|--------|--------|--------|--------|--------|--------|--------|--------|
B|--------|--------|--------|--------|--------|--------|--------|--------|--------|
G|--------|--------|--------|--------|--------|--------|--------|--------|--------|
D|--------|--------|--------|--------|--------|--------|--------|--------|--------|
A|--------|--------|--------|--------|--------|--------|--------|--------|--------|
E|--------|--------|--------|--------|--------|--------|--------|--------|--------|


E|--------|--------|--------|--------|--------|--------|--------|--------|--------|
B|--------|--------|--------|--------|--------|--------|--------|--------|--------|
G|--------|--------|--------|--------|--------|--------|--------|--------|--------|
D|--------|--------|--------|--------|--------|--------|--------|--------|--------|
A|--------|--------|--------|--------|--------|--------|--------|--------|--------|
E|--------|--------|--------|--------|--------|--------|--------|--------|--------|


E|--------|--------|--------|--------|--------|--------|--------|--------|--------|
B|--------|--------|--------|--------|--------|--------|--------|--------|--------|
G|--------|--------|--------|--------|--------|--------|--------|--------|--------|
D|--------|--------|--------|--------|--------|--------|--------|--------|--------|
A|--------|--------|--------|--------|--------|--------|--------|--------|--------|
E|--------|--------|--------|--------|--------|--------|--------|--------|--------|


E|--------|--------|--------|--------|--------|--------|--------|--------|--------|
B|--------|--------|--------|--------|--------|--------|--------|--------|--------|
G|--------|--------|--------|--------|--------|--------|--------|--------|--------|
D|--------|--------|--------|--------|--------|--------|--------|--------|--------|
A|--------|--------|--------|--------|--------|--------|--------|--------|--------|
E|--------|--------|--------|--------|--------|--------|--------|--------|--------|


E|--------|--------|--------|--------|--------|--------|--------|--------|--------|
B|--------|--------|--------|--------|--------|--------|--------|--------|--------|
G|--------|--------|--------|--------|--------|--------|--------|--------|--------|
D|--------|--------|--------|--------|--------|--------|--------|--------|--------|
A|--------|--------|--------|--------|--------|--------|--------|--------|--------|
E|--------|--------|--------|--------|--------|--------|--------|--------|--------|


E|--------|--------|--------|--------|--------|--------|----------------|---------------------------|
B|--------|--------|--------|--------|--------|--------|----------------|-----10---10------6--------|
G|--------|--------|--------|--------|--------|--------|----------------|-----10---10------7--------|
D|--------|--------|--------|--------|--------|--------|----------------|-----10---10------7--------|
A|--------|--------|--------|--------|--------|--------|------------8---|-----8----8-------5--------|
E|--------|--------|--------|--------|--------|--------|----------------|---------------------------|


E|---------------------------|---------------------------|------------------------------|
B|-----6----6-------8--------|-----10---10------6--------|-----6----6-------8-----------|
G|-----7----7-------9--------|-----10---10------7--------|-----7----7-------9-----------|
D|-----8----8-------10-------|-----10---10------7--------|-----8----8-------10----------|
A|-----8----8-------10-------|-----8----8-------5--------|-----8----8-------10----------|
E|-----6----6-------8--------|---------------------------|-----6----6-------8-----------|


E|--------|--------|--------|--------|--------|--------|--------|--------|--------|
B|--------|--------|--------|--------|--------|--------|--------|--------|--------|
G|--------|--------|--------|--------|--------|--------|--------|--------|--------|
D|--------|--------|--------|--------|--------|--------|--------|--------|--------|
A|--------|--------|--------|--------|--------|--------|--------|--------|--------|
E|--------|--------|--------|--------|--------|--------|--------|--------|--------|


E|--------|--------|--------|--------|--------|--------|--------|--------|--------|
B|--------|--------|--------|--------|--------|--------|--------|--------|--------|
G|--------|--------|--------|--------|--------|--------|--------|--------|--------|
D|--------|--------|--------|--------|--------|--------|--------|--------|--------|
A|--------|--------|--------|--------|--------|--------|--------|--------|--------|
E|--------|--------|--------|--------|--------|--------|--------|--------|--------|


E|--------|--------|--------|--------|--------|--------|--------|--------|--------|
B|--------|--------|--------|--------|--------|--------|--------|--------|--------|
G|--------|--------|--------|--------|--------|--------|--------|--------|--------|
D|--------|--------|--------|--------|--------|--------|--------|--------|--------|
A|--------|--------|--------|--------|--------|--------|--------|--------|--------|
E|--------|--------|--------|--------|--------|--------|--------|--------|--------|


E|--------|--------|--------|--------|--------|--------|--------|--------|--------|
B|--------|--------|--------|--------|--------|--------|--------|--------|--------|
G|--------|--------|--------|--------|--------|--------|--------|--------|--------|
D|--------|--------|--------|--------|--------|--------|--------|--------|--------|
A|--------|--------|--------|--------|--------|--------|--------|--------|--------|
E|--------|--------|--------|--------|--------|--------|--------|--------|--------|


E|--------|--------|--------|--------|--------|--------|--------|--------|--------|
B|--------|--------|--------|--------|--------|--------|--------|--------|--------|
G|--------|--------|--------|--------|--------|--------|--------|--------|--------|
D|--------|--------|--------|--------|--------|--------|--------|--------|--------|
A|--------|--------|--------|--------|--------|--------|--------|--------|--------|
E|--------|--------|--------|--------|--------|--------|--------|--------|--------|


E|--------|--------|--------|--------|--------|--------|--------|--------|--------|
B|--------|--------|--------|--------|--------|--------|--------|--------|--------|
G|--------|--------|--------|--------|--------|--------|--------|--------|--------|
D|--------|--------|--------|--------|--------|--------|--------|--------|--------|
A|--------|--------|--------|--------|--------|--------|--------|--------|--------|
E|--------|--------|--------|--------|--------|--------|--------|--------|--------|





Track 3: Untitled

C|--------|--------|--------|--------|-------------------------------------------|
G|--------|--------|--------|--------|-------------------------------------------|
D|--------|--------|--------|--------|-------------------------------------------|
A|--------|--------|--------|--------|-------------------------------------------|
E|--------|--------|--------|--------|-------------------------------------------|
B|--------|--------|--------|--------|-3--3--3--3-------3-------3---3--3--3--3---|


C|-------------------------------------------|-------------------------------------------|
G|-------------------------------------------|-------------------------------------------|
D|-------------------------------------------|-------------------------------------------|
A|-------------------------------------------|-------------------------------------------|
E|-------------------------------------------|-------------------------------------------|
B|-3--3--3--3-------3-------3---3--3--3--3---|-3--3--3--3-------3-------3---3--3--3--3---|


C|-------------------------------------------|-------------------------------------------|
G|-------------------------------------------|-------------------------------------------|
D|-------------------------------------------|-------------------------------------------|
A|-------------------------------------------|-------------------------------------------|
E|-------------------------------------------|-------------------------------------------|
B|-3--3--3--3-------3-------3---3--3--3--3---|-3--3--3--3-------3-------3---3--3--3--3---|


C|-------------------------------------------|-------------------------------------------|
G|-------------------------------------------|-------------------------------------------|
D|-------------------------------------------|-------------------------------------------|
A|-------------------------------------------|-------------------------------------------|
E|-------------------------------------------|-------------------------------------------|
B|-3--3--3--3-------3-------3---3--3--3--3---|-3--3--3--3-------3-------3---3--3--3--3---|


C|-----------------------------------------------------|-----------------|--------------------|
G|-----------------------------------------------------|-----------------|--------------------|
D|-----------------------------------------------------|-----------------|--------------------|
A|-----------------------------------------------------|-----------------|--------------------|
E|-----------------------------------------------------|-3-----3---4-----|-3-----3---1----0---|
B|-3--3--3--3-------3--3--3--3--3--3--3---3--3--3--3---|-----------------|--------------------|


C|-----------------|-----------------|-----------------|-------------|---------------------|
G|-----------------|-----------------|-----------------|-------------|---------------------|
D|-----------------|-----------------|-----------------|-------------|---------------------|
A|-----------------|-----------------|-----------------|-------------|---------------------|
E|-----------------|-2-----3-----3---|-4-----3-----3---|-1----0------|-----------------10--|
B|-----------1-----|-----------------|-----------------|-------------|-1-----4-----8-------|


C|---------------------------------|-----------------------------------|---------------------------------|
G|---------------------------------|-----------------------------------|---------------------------------|
D|---------------------------------|-----------------------------------|---------9---10------------------|
A|-10------8---11--10--------------|--------8--10------------------7---|-8---7---------------10----------|
E|-----10--------------11--10------|-10--11--------8-----------7-------|-----------------8-------9-------|
B|-----------------------------8---|-------------------6---5-----------|-----------------------------7---|


C|---------------------------------|-----------------------------------|---------------------------------|
G|---------------------------------|-----------------------------------|---------------------------------|
D|---------------------------------|-----------------------------------|-------------------------9---10--|
A|-11--------------10------8---11--|-10---------------------8--10------|-------------7---8---7-----------|
E|-------------10------10----------|-----11--10------10--11--------8---|---------7-----------------------|
B|-----9---8-----------------------|-------------8---------------------|-6---5---------------------------|


C|----------------------------------------|-----------------------------------------------|
G|----------------------------------------|-----------------------------------------------|
D|----------5-----------------------------|-------------------3--5--6---------------------|
A|-------8------6-------------------------|-------------3--5------------------------------|
E|-8--11----------------6---4---3---4--3--|-3--4--3--4-----------------3---4--3--3--4--3--|
B|------------------4---------------------|-----------------------------------------------|


C|---------------------------------------------|---------------------------------------------|
G|---------------------------------------------|---------------------------------------------|
D|---------------------------------------------|-----------------3--5--6---------------------|
A|----5--3-------------------------------------|-----------3--5------------------------------|
E|----------4--3-----------3---4--3--3--4--3---|-4---3--4-----------------3---4--3--3--4--3--|
B|----------------6--4--3----------------------|---------------------------------------------|


C|-------------------------------|-------------------|----------------|---------------------|
G|-------------------------------|-------------------|----------------|---------------------|
D|-------------------------------|-------------------|----------------|---------------------|
A|----5--3-----------------------|-------------------|----------------|---------------------|
E|-4--------4--3-----------------|-------------------|----------------|----3----------------|
B|----------------6--4--3-----3--|----4-----3-----3--|----1----0------|----------2-----3----|


C|------------------------|------------------------|------------------|-------------------|
G|------------------------|------------------------|------------------|-------------------|
D|------------------------|------------------------|------------------|-------------------|
A|------------------------|------------------------|------------------|-------------------|
E|------------------------|------------------4-----|----------3-------|----------------3--|
B|---------3---4-----3----|---------3---1----------|------------------|-------------------|


C|---------------------------------------------|-----------------------------------------------|
G|---------------------------------------------|-----------------------------------------------|
D|------------------------------------3--5--6--|-----------------------------------------------|
A|------------------------------3--5-----------|-----------------------5--3--------------------|
E|----4--3--3--4--3---4---3--4-----------------|-3---4--3--3--4--3--4--------4--3-----------3--|
B|---------------------------------------------|-----------------------------------6--4--3-----|


C|------------------------------------------|----------------------------|--------------------------------|
G|------------------------------------------|----------------------9--16-|-----------10--12---------------|
D|----------------------------3--5--6-------|----------------------------|----7--10-----------------------|
A|----------------------3--5----------------|----------------------------|--------------------------------|
E|----4--3--3--4--3--4-----------------6----|-----4----------0--7--------|-------------------0------------|
B|------------------------------------------|-----------3----------------|--------------------------------|


C|------------------------------------------|-------------------------------------------|
G|------------------------------------------|-------------------------------------------|
D|---------------2--2--2-----------2--2--2--|-----2---3------------2--2--2-----------2--|
A|------------------------------------------|-2-----------------------------------------|
E|------0--0--0-----------0--0--0-----------|-------------0--0--0-----------0--0--0-----|
B|------------------------------------------|-------------------------------------------|


C|-------------------------------------------|-------------------------------------------|
G|-------------------------------------------|-------------------------------------------|
D|-2--2------2---3------------2--2--2--------|----2--2--2------2---3------------2--2--2--|
A|-------2-----------------------------------|-------------2-----------------------------|
E|-------------------0--0--0-----------0--0--|-0-----------------------0--0--0-----------|
B|-------------------------------------------|-------------------------------------------|


C|------------------------------------|-----------------------------|--------------------------------|
G|------------------------------------|-3-----------7-----------7---|------------11------------------|
D|----------2--2--2------2---3--------|----------6------------------|---------10---------------------|
A|-------------------2----------------|-----------------------------|--------------------------------|
E|-0--0--0-----------------------3----|------4-------------7--------|-----8-------------10------11---|
B|------------------------------------|-----------------------------|--------------------------------|


C|--------------------------------------|---------------------------------------|-------------------------------------------------|
G|-11----------15-----15-14-13-12-------|-----15---------------14---------------|-------------------------------------------------|
D|----------14--------------------16-15-|------------13-13--------15------------|-------------------------------------------------|
A|--------------------------------------|---------------------------------------|-------------3--3--2--2--1--0-----0--------------|
E|------12------------------------------|---------------------------------3--3--|-2--2--1--1--------------------------3--3--2--2--|
B|--------------------------------------|---------------------------------------|-------------------------------------------------|


C|-----------------------------------------------|-------------------------------------------------|
G|-----------------------------------------------|-------------------------------------------------|
D|-----------------------------------------------|-------------------------------------------------|
A|-------3--3--2--2--1--0------------------------|-3--3--2--2--1--0-----0--------------------3--3--|
E|-1--1------------------------3--3--2--2--1--1--|-------------------------3--3--2--2--1--1--------|
B|-----------------------------------------------|-------------------------------------------------|


C|----------------------------------|---------------------------------|---------------------------------|
G|----------------------------------|---------------------------------|---------------------------------|
D|----------------------------------|---------------------------------|---------------------------------|
A|-2--2--1--0-----------------------|-2---5---4-----------------------|---------4---7---6---------------|
E|------------------2---3---4---5---|-------------3-------0---4---5---|-6---7---------------5-------0---|
B|----------------------------------|---------------------------------|---------------------------------|


C|---------------------------------|---------------------------------|---------------------------------|
G|---------------------------------|---------------------------------|---------------------------------|
D|---------------------------------|---------------------------------|---------------------------------|
A|-----------------2---5---4-------|-------------------------4---7---|-6---------------------------2---|
E|-2---3---4---5---------------3---|-----0---4---5---6---7-----------|-----5---0---2---3---4---5-------|
B|---------------------------------|---------------------------------|---------------------------------|


C|---------------------------------|---------------------------------|---------------------------------|
G|---------------------------------|---------------------------------|---------------------------------|
D|---------------------------------|---------------------------------|---------------------------------|
A|-5---4---------------------------|-----4---7---6-------------------|-------------2---5---4-----------|
E|---------3-------0---4---5---6---|-7---------------5-------0---2---|-3---4---5---------------3-------|
B|---------------------------------|---------------------------------|---------------------------------|


C|---------------------------------|------------------------------|---------------------------------|
G|---------------------------------|------------------------------|---------------------------------|
D|---------------------------------|---------------------9---8----|-----6-------------------7---6---|
A|---------------------4---7---6---|---------7-------7------------|-7---------------4---5-----------|
E|-0---4---5---6---7---------------|-5---0-------0----------------|-------------0-------------------|
B|---------------------------------|------------------------------|---------------------------------|


C|---------------------------------|------------------------------|------------------------------|
G|---------------------------------|------------------------------|------------------------------|
D|-----5---------------------------|-----9---8--------6-----------|-3---5---7------------1---3---|
A|---------3---------------7-------|-7------------7---------------|-------------5---5------------|
E|-3-----------1-------0-------0---|--------------------------0---|------------------------------|
B|---------------------------------|------------------------------|------------------------------|


C|---------------------------|------------------------------|---------------------------------|
G|---------------------------|------------------------------|---------------------------------|
D|-5-------------------------|-------------9---8--------6---|-----------------7---6-------5---|
A|-----3---3----4---3---2----|-7-------7------------7-------|---------4---5-------------------|
E|---------------------------|-----0------------------------|-----0-------------------3-------|
B|---------------------------|------------------------------|---------------------------------|


C|---------------------------------|------------------------------|------------------------------|
G|---------------------------------|------------------------------|------------------------------|
D|-----------------------------9---|-8--------6-----------3---5---|-7------------1---3---5-------|
A|-3---------------7-------7-------|------7-----------------------|-----5---5----------------3---|
E|-----1-------0-------0-----------|------------------0-----------|------------------------------|
B|---------------------------------|------------------------------|------------------------------|


C|----------------------------|---------------------|---------------------|------------------------------|
G|----------------------------|---------------------|---------------------|------------------------------|
D|----------------------------|---------------------|---------------------|------------------------------|
A|-3----4---4---3---2---------|---------------------|---------------------|----------10--10--10--9---9---|
E|-----------------------3----|-----2-----1-----0---|-----3-----2-----1---|-----0------------------------|
B|----------------------------|---------------------|---------------------|------------------------------|


C|---------------------------------|---------------------------------|---------------------------------|
G|---------------------------------|-------------7-------------------|---------------------------------|
D|---------------------------------|---------7-----------7---10--9---|-----------------10--9-----------|
A|-9---8---8---8---7---7---10--10--|-10--9-----------8---------------|-10--7-------9-----------12--10--|
E|---------------------------------|---------------------------------|---------11----------------------|
B|---------------------------------|---------------------------------|---------------------------------|


C|-----------------------|---------------------|---------------------------|--------------------|
G|-----------------------|---------------------|---------------------------|--------------------|
D|-----------------------|---------------------|---------------------------|--------------------|
A|-9---------------7-----|-5-------------------|-3--------0----------------|--------------------|
E|---------11------------|-----8---7-----0-----|-------------------0-------|-----3--------1-----|
B|-----------------------|---------------------|---------------------------|--------------------|


C|-----------------|---------------------|---------------------|------------------------------------------|
G|-----------------|---------------------|---------------------|------------------------------------------|
D|-----------------|---------------------|---------------------|------------------------------------------|
A|------5-----7----|------5--------------|-2----3--------------|-3----2--2--2--2--2--2--2--2--------------|
E|-----------------|---------------------|---------------------|------------------------------4--4--4--4--|
B|-----------------|---------------------|---------------------|------------------------------------------|


C|-------------------------------------------------|---------------------------|-----------------------|
G|-------------------------------------------------|---------------------------|---------9-----9-------|
D|-------------------------------------------------|-----------------------9---|-10--12------------11--|
A|-------------------------------------4--4--4--4--|-4--4--4--4--5-----5-------|-----------------------|
E|-4--4--4--4--5--5--5--5--5--5--5--5--------------|---------------------------|-----------------------|
B|-------------------------------------------------|---------------------------|-----------------------|


C|--------------------|---------------------|---------------------|-------------------------|
G|---------10---------|---------------------|---------------------|-------------------------|
D|-12--14-------------|---------------------|---------------------|-------------------------|
A|---------------10---|------7----5---------|----------------1----|-------1---1--1--1---1---|
E|--------------------|----------------7----|-4-------------------|-------------------------|
B|--------------------|---------------------|------0--------------|-------------------------|


C|-------------|-------------|--------|--------|--------|--------|--------|-----------------------------|
G|-------------|-------------|--------|--------|--------|--------|--------|-----------------------------|
D|-------------|-------------|--------|--------|--------|--------|--------|-----------------------------|
A|-1-----3-----|-5-----7-----|--------|--------|-1------|-1------|-5------|-----------------------------|
E|-------------|-------------|-3------|-3------|--------|--------|--------|-3----3----3---3--3--3---3---|
B|-------------|-------------|--------|--------|--------|--------|--------|-----------------------------|


C|-----------------------------|-----------------------------|---------------------|
G|-----------------------------|-----------------------------|---------------------|
D|-----------------------------|-----------------------------|---------------------|
A|-----------------------------|-----------------------------|----------------5----|
E|-5----5----5---5--5--5---5---|-0----0----0---0--0--0---0---|-1----1-----1--------|
B|-----------------------------|-----------------------------|---------------------|


C|-----------------|-------------|-------------|-------------|-------------------------------|
G|-----------------|-------------|-------------|-------------|-------------------------------|
D|-----------------|-------------|-------------|-------------|-------------------------------|
A|-5-----5---------|-------------|-------------|-------------|-------------------------------|
E|-----------0-----|-------0-----|-------0-----|-------0-----|-------0--0--0--0-----0--0--0--|
B|-----------------|-------------|-------------|-------------|-------------------------------|


C|-------------------------------------------------|-------------------------------------------------|
G|-------------------------------------------------|-------------------------------------------------|
D|-------------------------------------------------|-------------------------------------------------|
A|-------------------------------------------------|-------------------------------------------------|
E|-0-----0--0--0--0-----0--0--0--0-----0--0--0--0--|----0--0--0--0-----0--0--0--0-----0--0--0--0-----|
B|-------------------------------------------------|-------------------------------------------------|


C|-------------------------------------------------|-------------------------------------------------|
G|-------------------------------------------------|-------------------------------------------------|
D|-------------------------------------------4--4--|-4--4-----7--7--7--7-----------------------------|
A|-------------7--7--7--7-----7--7--7--7-----------|-------------------------7--7--7--7-----7--7--7--|
E|-0--0--0-----------------------------------------|-------------------------------------------------|
B|-------------------------------------------------|-------------------------------------------------|


C|-------------------------------------------------|-------------------------------------------------|
G|-------------------------------------------------|-------------------------------------------------|
D|-------4--4--4--4-----4--4--4--4-----7--7--7-----|-------------------------------------------------|
A|-7-----------------------------------------------|-7--------6-----------5--4-----3--2-----1--0-----|
E|-------------------------------------------------|----7--0-----7--0-----------0--------0--------2--|
B|-------------------------------------------------|-------------------------------------------------|


C|---------------------|-------------------------------------------------|-------------------------------------------------|
G|---------------------|-------------------------------------------------|-------------------------------------------------|
D|---------------------|-------------------------------------------------|-5-----------2-----------------------------------|
A|-4---------3---------|-7--------6-----------5--4-----3--2-----1--0-----|----3--4--6-----------3--4--------0--1--0--------|
E|------3---------2----|----7--0-----7--0-----------0--------0--------2--|----------------5--6--------2--3-----------3--2--|
B|---------------------|-------------------------------------------------|-------------------------------------------------|


C|-------------------------------------------------|-------------------------------------------------|
G|-------------------------------------------------|-------------------------------------------------|
D|-------------------------------------------------|-------------------------------------------------|
A|-7--------6-----------5--4-----3--2-----1--0-----|-------------------------------4--5--6-----6--9--|
E|----7--0-----7--0-----------0--------0--------2--|-------------------------7--8-----------7--------|
B|-------------------------------------------------|-8--7--5--7--4--5--7--8--------------------------|


C|-------------------------------------------------|----------------------------------|
G|-------------------------------------------------|----------------------------------|
D|-------------------------------------------------|----------------------------------|
A|-7--------6-----------5--4-----3--2-----1--0-----|----------------------------------|
E|----7--0-----7--0-----------0--------0--------2--|----------------------------------|
B|-------------------------------------------------|-3---3---3--3-----2--2------------|


C|------------------------|------------------------|------------------------|------------------------|
G|------------------------|------------------------|------------------------|------------------------|
D|------------------------|------------------------|------------------------|------------------------|
A|------------------------|------------------------|------------------------|------------------------|
E|------------------------|------------------------|------------------------|------------------------|
B|-5----5----0----0---5---|-5---5----5---0----0----|-2----2----1---1----0---|-0---0---0----3----4----|


C|------------------------|------------------------|------------------------|------------------------|
G|------------------------|------------------------|------------------------|------------------------|
D|------------------------|------------------------|------------------------|------------------------|
A|------------------------|------------------------|------------------------|------------------------|
E|------------------------|------------------------|------------------------|------------------------|
B|-5----5----0----0---5---|-5---5----5---0----0----|-7----7----7---7----0---|-0---0---8----7----6----|


C|---------------------------|---------------------------|------------------------|
G|---------------------------|---------------------------|------------------------|
D|---------------------------|---------------------------|------------------------|
A|---------------------------|---------------------------|------------------------|
E|---------------------------|---------------------------|------------------------|
B|-5----0---0---4----0---0---|-3----0---2---2---2----0---|-1----1----1---1----0---|


C|------------------------|---------------------------|------------------------|---------------------|
G|------------------------|---------------------------|------------------------|---------------------|
D|------------------------|---------------------------|------------------------|---------------------|
A|------------------------|---------------------------|------------------------|---------------------|
E|------------------------|---------------------------|------------------------|---------------------|
B|-0---0---0----3----4----|-5----0---0---7----0---0---|-8----0---9---9---9-----|-----10----10----10--|


C|---------------------|-----------------|---------------------------------------------------|
G|---------------------|-----------------|----------11-----------------------11--------------|
D|---------------------|-----------------|----4-----------4--9-9-------4-----------4--9-9----|
A|---------------------|-----------------|-------9-----9---------9--------9-----9---------9--|
E|---------------------|-----------------|-2------------------------2------------------------|
B|-10---10-------10----|-14--------------|---------------------------------------------------|


C|---------------------------------------------------|---------------------------------------------------|
G|----------11-----------------------11--------------|----------12-----------------------12--------------|
D|----4-----------4--9-9-------4-----------4--9-9----|----5-----------5--1010------5-----------5--1010---|
A|-------9-----9---------9--------9-----9---------9--|-------10----10--------10-------10----10--------10-|
E|-2------------------------2------------------------|-3------------------------3------------------------|
B|---------------------------------------------------|---------------------------------------------------|


C|---------------------------------------------------|---------------------------------------------------|
G|----------12-----------------------12--------------|----------14-----------------------14--------------|
D|----5-----------5--1010------5-----------5--1010---|----7-----------7--1212------7-----------7--1212---|
A|-------10----10--------10-------10----10--------10-|-------12----12--------12-------12----12--------12-|
E|-3------------------------3------------------------|-5------------------------5------------------------|
B|---------------------------------------------------|---------------------------------------------------|


C|----------------------------------------------|--------|--------|---------------------------------------------|
G|----------16-----------------------16---------|--------|--------|---------------------------------------------|
D|----9-----------9--1414------9--------5-------|--------|--------|---------------------------------------------|
A|-------14----14--------14-------14----5-------|--------|--------|---------------------------------------------|
E|-7------------------------7---------------0---|-2------|-2------|-0---2---2--2--2--2--2--2--2--2--2--2--2--2--|
B|----------------------------------------------|--------|--------|---------------------------------------------|


C|-------------------------------------------------|---------------------------------------------|
G|-------------------------------------------------|---------------------------------------------|
D|-------------------------------------------------|---------------------------------------------|
A|-------------------------------------------------|---------------------------------------------|
E|-2--2--2--2--2--2--2--2--2--2--2--2--2--2--2--2--|-0---2---2--2--2--2--2--2--2--2--2--2--2--2--|
B|-------------------------------------------------|---------------------------------------------|


C|-------------------------------------------------|---------------------------------------------|
G|-------------------------------------------------|---------------------------------------------|
D|-------------------------------------------------|---------------------------------------------|
A|-------------------------------------------------|---------------------------------------------|
E|-2--2--2--2--2--2--2--2--2--2--2--2--2--2--2--2--|-0---2---2--2--2--2--2--2--2--2--2--2--2--2--|
B|-------------------------------------------------|---------------------------------------------|


C|-------------------------------------------------|---------------------------------------------|
G|-------------------------------------------------|---------------------------------------------|
D|-------------------------------------------------|---------------------------------------------|
A|-------------------------------------------------|---------------------------------------------|
E|-2--2--2--2--2--2--2--2--2--2--2--2--2--2--2--2--|-0---2---2--2--2--2--2--2--2--2--2--2--2--2--|
B|-------------------------------------------------|---------------------------------------------|


C|-------------------------------------------------|---------------------------------------------|
G|-------------------------------------------------|---------------------------------------------|
D|-------------------------------------------------|---------------------------------------------|
A|-------------------------------------------------|---------------------------------------------|
E|-2--2--2--2--2--2--2--2--2--2--2--2--2--2--2--2--|-0---2---2--2--2--2--2--2--2--2--2--2--2--2--|
B|-------------------------------------------------|---------------------------------------------|


C|-------------------------------------------------|---------------------------------------------|
G|-------------------------------------------------|---------------------------------------------|
D|-------------------------------------------------|---------------------------------------------|
A|-------------------------------------------------|---------------------------------------------|
E|-2--2--2--2--2--2--2--2--2--2--2--2--2--2--2--2--|-0---2---2--2--2--2--2--2--2--2--2--2--2--2--|
B|-------------------------------------------------|---------------------------------------------|


C|-------------------------------------------------|---------------------------------------------|
G|-------------------------------------------------|---------------------------------------------|
D|-------------------------------------------------|---------------------------------------------|
A|-------------------------------------------------|---------------------------------------------|
E|-2--2--2--2--2--2--2--2--2--2--2--2--2--2--2--2--|-0---2---2--2--2--2--2--2--2--2--2--2--2--2--|
B|-------------------------------------------------|---------------------------------------------|


C|-------------------------------------------------|---------------------------------------------|
G|-------------------------------------------------|---------------------------------------------|
D|-------------------------------------------------|---------------------------------------------|
A|-------------------------------------------------|---------------------------------------------|
E|-2--2--2--2--2--2--2--2--2--2--2--2--2--2--2--2--|-0---2---2--2--2--2--2--2--2--2--2--2--2--2--|
B|-------------------------------------------------|---------------------------------------------|


C|-------------------------------------------------|---------------------------------------------|
G|-------------------------------------------------|---------------------------------------------|
D|-------------------------------------------------|---------------------------------------------|
A|-------------------------------------------------|---------------------------------------------|
E|-2--2--2--2--2--2--2--2--2--2--2--2--2--2--2--2--|-0---2---2--2--2--2--2--2--2--2--2--2--2--2--|
B|-------------------------------------------------|---------------------------------------------|


C|-------------------------------------------------|---------------------------------------------|
G|-------------------------------------------------|---------------------------------------------|
D|-------------------------------------------------|---------------------------------------------|
A|-------------------------------------------------|---------------------------------------------|
E|-2--2--2--2--2--2--2--2--2--2--2--2--2--2--2--2--|-0---2---2--2--2--2--2--2--2--2--2--2--2--2--|
B|-------------------------------------------------|---------------------------------------------|


C|-------------------------------------------------|-----------------------------------------|
G|-------------------------------------------------|-------9--16---------10--12--------9--16-|
D|-------------------------------------------------|--------------7--10----------------------|
A|-------------------------------------------------|-----------------------------------------|
E|-2--2--2--2--2--2--2--2--2--2--2--2--2--2--2--2--|-0--7------------------------0--7--------|
B|-------------------------------------------------|-----------------------------------------|


C|---------------------------------------|-------------------------------------|------------------------------------------|
G|-----------10--12--------9--16---------|-10--12--------9--16---------10--12--|------------------------------------------|
D|----7--10-----------------------7--10--|----------------------7--10----------|------11-12-11-9-----------------9--------|
A|---------------------------------------|-------------------------------------|------------------12-11-9--11-12----12-11-|
E|-------------------0--7----------------|---------0--7------------------------|------------------------------------------|
B|---------------------------------------|-------------------------------------|------------------------------------------|


C|-------------------------------------------------|-------------------------------------------------|
G|-------------------------------------------------|-------------------------------------------------|
D|----------9--11-12-11-9-----------------9--------|----------9--11-12-11-9-----------------9--------|
A|-9--11-12----------------12-11-9--11-12----12-11-|-9--11-12----------------12-11-9--11-12----12-11-|
E|-------------------------------------------------|-------------------------------------------------|
B|-------------------------------------------------|-------------------------------------------------|


C|-------------------------------------------------|-------------------------------------------------|
G|-------------------------------------------------|-------------------------------------------------|
D|----------9--11-12-11-9-----------------9--------|----------9--11-12-11-9-----------------9--------|
A|-9--11-12----------------12-11-9--11-12----12-11-|-9--11-12----------------12-11-9--11-12----12-11-|
E|-------------------------------------------------|-------------------------------------------------|
B|-------------------------------------------------|-------------------------------------------------|


C|-------------------------------------------------|-------------------------------------------------|
G|-------------------------------------------------|-------------5--6--7--8--------------------------|
D|----------9--11-12-11-9-----------------9--------|----------9--------------------------7--8--9--10-|
A|-9--11-12----------------12-11-9--11-12----12-11-|-9--11-12----------------8--9--10-11-------------|
E|-------------------------------------------------|-------------------------------------------------|
B|-------------------------------------------------|-------------------------------------------------|


C|-------------------------------------------------|--------------------|-------------|
G|-------------------------------------------------|--------------------|-------------|
D|-------------------------------------------------|-------------11-----|-9------7----|
A|-------------8--9--10-11-------------------------|--------------------|-------------|
E|-9--10-11-12-------------------------9--10-11-12-|--------------------|-------------|
B|-------------------------10-11-12-13-------------|-6--7--8--9---------|-------------|


C|-------------|------------------------------------------|-------------14-------------|
G|-------------|----------16----------14----------16------|-----12---------------------|
D|-------9-----|------14------14--12------12--14------14--|-10------10-----------------|
A|-------------|------------------------------------------|-----------------------4----|
E|-------------|------------------------------------------|----------------------------|
B|-------------|------------------------------------------|----------------------------|


C|-----------------|-----------------|-----------------|-------------|-------------|
G|-----------------|-----------------|-----------------|-------------|-------------|
D|-----------------|-----------------|-----------------|-------------|-------------|
A|------2----------|-----------------|-----------------|-------------|--------2----|
E|------------2----|------5-----0----|------3----------|-------------|-------------|
B|-----------------|-----------------|-----------------|-------------|-------------|


C|-----------------|--------------------|------------------------------|--------|--------|
G|-----------------|--------------------|------------------------------|--------|--------|
D|-----------------|--------------------|------------------------------|--------|--------|
A|------2-----0----|------0---------2---|-5-------4---5----------------|--------|--------|
E|-----------------|------------3-------|-----1-----------0---5--------|--------|--------|
B|-----------------|--------------------|------------------------------|--------|--------|


C|--------|--------|-------------|-------------|-------------|-------------|-------------|
G|--------|--------|-------------|-------------|-------------|-2-----------|-------------|
D|--------|--------|-------------|-------2-----|-------------|--------0----|-------1-----|
A|--------|--------|-------------|-------------|------3------|-------------|-------------|
E|--------|--------|--------3----|-------------|-------------|-------------|-------------|
B|--------|--------|-------------|-------------|-------------|-------------|-------------|


C|-------------|-------------|-------------|-----------------|-------------|-----------------------------------|
G|-------------|------3------|------2------|------2----8-----|-------8-----|-10---12---12-12-12-12-12-12-12-12-|
D|-------------|------3------|------2------|------2----8-----|-------8-----|-----------------------------------|
A|-------------|------1------|------0------|------0----6-----|-------6-----|-----------------------------------|
E|------0------|-------------|-------------|-----------------|-------------|-----------------------------------|
B|-------------|-------------|-------------|-----------------|-------------|-----------------------------------|


C|----------------------------------|-------------|---------------------------|---------------------------------------|
G|-12-12-12-12-12--12--12--12-------|-------------|---------------------------|---------------------------------------|
D|----------------------------------|-------------|-------12-11-12--0---14-12-|-14--0---15-14-15--17-15-17--15-14-15--|
A|----------------------------------|-------------|---------------------------|---------------------------------------|
E|----------------------------------|-------------|---------------------------|---------------------------------------|
B|----------------------------------|-------------|---------------------------|---------------------------------------|


C|-----------------------------------------|---------------------------------------|
G|-------------------------15-14-15--14-12-|-14--12-10-12--10-9--10----------------|
D|-14-12-14--12-11-12--0-------------------|-------------------------12-11-12--0---|
A|-----------------------------------------|---------------------------------------|
E|-----------------------------------------|---------------------------------------|
B|-----------------------------------------|---------------------------------------|


C|-----------------------------------------|---------------------------------------|
G|-----------------------------------------|-----------------------------15-14-15--|
D|-14-12-14--0---15-14-15--17-15-17--15-14-|-15--14-12-14--12-11-12--0-------------|
A|-----------------------------------------|---------------------------------------|
E|-----------------------------------------|---------------------------------------|
B|-----------------------------------------|---------------------------------------|


C|-----------------------------------------|---------------------------------------|
G|-14-12-14--12-10-12--10-9--10------------|---------------------------------------|
D|-------------------------------12-11-12--|-0---14-12-14--0---15-14-15--17-15-17--|
A|-----------------------------------------|---------------------------------------|
E|-----------------------------------------|---------------------------------------|
B|-----------------------------------------|---------------------------------------|


C|-----------------------------------------|-----------------------------------------|
G|-----------------------------------15-14-|-15--14-12-14--12-10-12--10-9--10--------|
D|-15-14-15--14-12-14--12-11-12--0---------|-----------------------------------12-11-|
A|-----------------------------------------|-----------------------------------------|
E|-----------------------------------------|-----------------------------------------|
B|-----------------------------------------|-----------------------------------------|


C|---------------------------------------|---------------------------------------|
G|---------------------------------------|---------------------------------------|
D|-12--0---14-12-14--0---15-14-15--17-15-|-17--15-14-15--14-12-14--12-11-12--0---|
A|---------------------------------------|---------------------------------------|
E|---------------------------------------|---------------------------------------|
B|---------------------------------------|---------------------------------------|


C|-----------------------------------------|---------------------------------------|
G|-15-14-15--14-12-14--12-10-12--10-9--10--|---------------------------------------|
D|-----------------------------------------|---------------------------------------|
A|-----------------------------------------|-0---0--0--0---0--0--1-------0---0--0--|
E|-----------------------------------------|-------------------------3-------------|
B|-----------------------------------------|---------------------------------------|


C|---------------------------------------|-----------------------------------|-------------------------------------------|
G|---------------------------------------|-----------------------------------|-------------------------------------------|
D|---------------------------------------|---------------------------2---3---|-2---2--2--2---2--2--3--2--0--0--2---2--2--|
A|-0---0--0--1---4---0---0--0--0---0--0--|-1-------0--0--1---4---5-----------|-------------------------------------------|
E|---------------------------------------|-----3-----------------------------|-------------------------------------------|
B|---------------------------------------|-----------------------------------|-------------------------------------------|


C|-------------------------------------------|-------------------------------------------------|
G|-----------------1--1----------------------|-------------------------1--1--2--2--4--4--5--5--|
D|-2---2--2--3--3--------2---2--2--2---2--2--|-3--2--0--0--2--2--3--3--------------------------|
A|-------------------------------------------|-------------------------------------------------|
E|-------------------------------------------|-------------------------------------------------|
B|-------------------------------------------|-------------------------------------------------|


C|------------------------------------------------|------------------------------------------------|
G|------------------------------------------------|------------------------------------------------|
D|------------------------------------------------|------------------------------------------------|
A|-0---0--0--0--0---0--0--0--1-------0---0--0--0--|-0---0--0--0--1---4---0---0--0--0--0---0--0--0--|
E|-------------------------------3----------------|------------------------------------------------|
B|------------------------------------------------|------------------------------------------------|


C|---------------------------------|------------------------------------------------|
G|---------------------------------|------------------------------------------------|
D|-------------------------2---3---|-2---2--2--2--2---2--2--2--3---0---2---2--2--2--|
A|-1-------0---1---4---5-----------|------------------------------------------------|
E|-----3---------------------------|------------------------------------------------|
B|---------------------------------|------------------------------------------------|


C|------------------------------------------------|---------------------------------|
G|------------------------------------------------|-----------------1---2---4---5---|
D|-2---2--2--2--3---6---2---2--2--2--2---2--2--2--|-3---0---2---3-------------------|
A|------------------------------------------------|---------------------------------|
E|------------------------------------------------|---------------------------------|
B|------------------------------------------------|---------------------------------|


C|---------------------------------------|---------------------------------------|
G|---------------------------------------|---------------------------------------|
D|---------------------------------------|---------------------------------------|
A|-0---0--0--0---0--0--1-------0---0--0--|-0---0--0--1---4---0---0--0--0---0--0--|
E|-------------------------3-------------|---------------------------------------|
B|---------------------------------------|---------------------------------------|


C|-----------------------------------|-------------------------------------------|
G|-----------------------------------|-------------------------------------------|
D|---------------------------2---3---|-2---2--2--2---2--2--3--2--0--0--2---2--2--|
A|-1-------0--0--1---4---5-----------|-------------------------------------------|
E|-----3-----------------------------|-------------------------------------------|
B|-----------------------------------|-------------------------------------------|


C|-------------------------------------------|-------------------------------------|
G|-----------------1--1----------------------|---------------------1---2---4---5---|
D|-2---2--2--3--3--------2---2--2--2---2--2--|-3--2--0--0--2---3-------------------|
A|-------------------------------------------|-------------------------------------|
E|-------------------------------------------|-------------------------------------|
B|-------------------------------------------|-------------------------------------|


C|---------------------------------------|-----------------------------------------|
G|---------------------------------------|-----------------------------------------|
D|-7--6--7-------8--7--8-------11-8--11--|-12-11-12--11-9--11--8--7--8---7--6--7---|
A|-----------0-------------0-------------|-----------------------------------------|
E|---------------------------------------|-----------------------------------------|
B|---------------------------------------|-----------------------------------------|


C|------------------------------------|---------------------------------------|-----------------------------------------|
G|-----10-9--10-9--7---9---7--6--7----|---------------------------------------|-----------------------------------------|
D|------------------------------------|---------------------------------------|-----------------------------------------|
A|-0----------------------------------|-7--6--7-------8--7--8-------11-8--11--|-12-11-12--11-9--11--8--7--8---7--6--7---|
E|------------------------------------|-----------0-------------0-------------|-----------------------------------------|
B|------------------------------------|---------------------------------------|-----------------------------------------|


C|------------------------------------|---------------------------------------|-----------------------------------------|
G|------------------------------------|---------------------------------------|-----------------------------------------|
D|-----10-9--10-9--7---9---7--6--7----|-7--6--7-------8--7--8-------11-8--11--|-12-11-12--11-9--11--8--7--8---7--6--7---|
A|------------------------------------|-----------0-------------0-------------|-----------------------------------------|
E|-0----------------------------------|---------------------------------------|-----------------------------------------|
B|------------------------------------|---------------------------------------|-----------------------------------------|


C|------------------------------------|---------------------------------------|-----------------------------------------|
G|-----10-9--10-9--7---9---7--6--7----|---------------------------------------|-----------------------------------------|
D|------------------------------------|---------------------------------------|-----------------------------------------|
A|-0----------------------------------|-7--6--7-------8--7--8-------11-8--11--|-12-11-12--11-9--11--8--7--8---7--6--7---|
E|------------------------------------|-----------0-------------0-------------|-----------------------------------------|
B|------------------------------------|---------------------------------------|-----------------------------------------|


C|------------------------------------|-------------------------------------------------|
G|------------------------------------|-------------------------------------------------|
D|-----10-9--10-9--7---9---7--6--7----|-------------------------------------------------|
A|------------------------------------|-------------------------------------------------|
E|-0----------------------------------|-5--0--3--1--0--0--5--7--0--3--0--0--1--3--1--0--|
B|------------------------------------|-------------------------------------------------|


C|-------------------------------------------------|-------------------------------------------------|
G|-------------------------------------------------|-------------------------------------------------|
D|-------------------------------------------------|-------------------------------------------------|
A|-------------------------------------------------|-------------------------------------------------|
E|-5--0--3--1--0--0--5--7--0--3--0--0--1--3--1--0--|-5--0--3--1--0--0--5--7--0--3--0--0--1--3--1--0--|
B|-------------------------------------------------|-------------------------------------------------|


C|-------------------------------------------------|-------------------------------------------------|
G|-------------------------------------------------|-------------------------------------------------|
D|-------------------------------------------------|-------------------------------------------------|
A|-------------------------------------------------|-------------------------------------------------|
E|-5--0--3--1--0--0--5--7--0--3--0--0--1--3--1--0--|-5--0--3--1--0--0--5--7--0--3--0--0--1--3--1--0--|
B|-------------------------------------------------|-------------------------------------------------|


C|-------------------------------------------------|-------------------------------------------------|
G|-------------------------------------------------|-------------------------------------------------|
D|-------------------------------------------------|-------------------------------------------------|
A|-------------------------------------------------|-------------------------------------------------|
E|-5--0--3--1--0--0--7--8--0--3--0--0--10-12-10-12-|-5--0--3--1--0--0--5--7--0--3--0--0--1--3--1--0--|
B|-------------------------------------------------|-------------------------------------------------|


C|-------------------------------------------------|-------------------------------------------------|
G|-------------------------------------------------|-------------------------------------------------|
D|-------------------------------------------------|-------------------------------------------------|
A|-------------------------------------------8--7--|-5--0--3--2--0--0--5--7--0--3--0--0--2--3--2--0--|
E|-0--5--7--0--3--0--0--10-12-0--13-12-0--0--------|-------------------------------------------------|
B|-------------------------------------------------|-------------------------------------------------|


C|-------------------------------------------------|-------------------------------------------------|
G|-------------------------------------------------|-------------------------------------------------|
D|-------------------------------------------------|-------------------------------------------------|
A|-5--0--3--2--0--0--5--7--0--3--0--0--2--3--2--0--|-5--0--3--2--0--0--5--7--0--3--0--0--2--3--2--0--|
E|-------------------------------------------------|-------------------------------------------------|
B|-------------------------------------------------|-------------------------------------------------|


C|-------------------------------------------------|-------------------------------------------------|
G|-------------------------------------------------|-------------------------------------------------|
D|-------------------------------------------------|-------------------------------------------------|
A|-5--0--3--2--0--0--5--7--0--3--0--0--2--3--2--0--|-5--0--3--2--0--0--5--7--0--3--0--0--2--3--2--0--|
E|-------------------------------------------------|-------------------------------------------------|
B|-------------------------------------------------|-------------------------------------------------|


C|-------------------------------------------------|-------------------------------------------------|
G|-------------------------------------------------|-------------------------------------------------|
D|----------------------7--5-----5-----------------|-------------------------------------------------|
A|-5--0--3--2--0--0--5--------7-----7--5--7--5-----|-5--0--3--2--0--0--5--7--0--3--0--0--2--3--2--0--|
E|----------------------------------------------8--|-------------------------------------------------|
B|-------------------------------------------------|-------------------------------------------------|


C|-------------------------------------------------|-------------------------------------------------|
G|-------------------------------------------------|-------------------------------------------------|
D|----------------------7-----5--------------------|-------------------------------------------------|
A|-5--0--3--2--0--0--5--------------7-----3--2--0--|-5--0--3--2--0--0--5--7--0--3--0--0--2--3--2--0--|
E|-------------------------------------------------|-------------------------------------------------|
B|-------------------------------------------------|-------------------------------------------------|


C|-------------------------------------------------|-------------------------------------------------|
G|-------------------------------------------------|-------------------------------------------------|
D|-------------------------------------------------|-------------------------------------------------|
A|-7--0--5--3--0--0--7--8--0--5--0--0--3--5--3--0--|-8--0--7--5--0--0--8--10-0--7--0--0--5--7--5--0--|
E|-------------------------------------------------|-------------------------------------------------|
B|-------------------------------------------------|-------------------------------------------------|


C|-------------------------------------------------|-------------------------------------------------|
G|-------------------------------------------------|-------------------------------------------------|
D|-------------------------------------------------|-------------------------------------------------|
A|-10-0--8--7--0--0--10-12-0--8--0--0--7--8--7--0--|-12-0--10-8--0--0--12-14-0--12-10-0--0--14-15-0--|
E|-------------------------------------------------|-------------------------------------------------|
B|-------------------------------------------------|-------------------------------------------------|


C|-------------------------------------------------|-------------------------------------------------|
G|-------------------------------------------------|-------------------------------------------------|
D|-------------------------------------------------|-------------------------------------------------|
A|-14-12-0--0--15-17-0--15-14-0--0--17-19-0--17-15-|-0--19-20-0--19-17-0--20-22-0--20-19-0--22-24-0--|
E|-------------------------------------------------|-------------------------------------------------|
B|-------------------------------------------------|-------------------------------------------------|


C|-------------------------------------------------|-------------------------------------------17-16-|
G|-------------------------------------------------|-------------------------------17-16-16-17-------|
D|-------------------------------------------------|----------------------15-------------------------|
A|-22-24-0--22-24-0--22-24-0--22-------------------|-8--------15-14-14-15----19-20-------------------|
E|-------------------------------------8--7--7--8--|----12-13----------------------------------------|
B|-------------------------------5--6--------------|-------------------------------------------------|


C|------------------|-----------------|--------------|------------|------------|-----------------|
G|------------------|-----------------|--------------|------------|------------|-----------------|
D|------------------|-----------------|--------------|------------|------------|-----------------|
A|------------------|-----------------|--------------|------------|------------|-----------------|
E|------------------|-----------------|--------------|------------|------------|-----------------|
B|------------------|-----------------|--------------|------------|------------|-----8-----8-----|


C|------------|------------|------------|-----------------|------------|------------|
G|------------|------------|------------|-----------------|------------|------------|
D|------------|------------|------------|-----------------|------------|------------|
A|------------|------------|------------|-----------------|------------|------------|
E|------------|------------|------------|-----------------|------------|------------|
B|------------|------------|------------|-----8-----8-----|------------|------------|


C|------------|----------------------|-----------------------------|--------------------------|
G|------------|----------------------|-----------------------------|--------------------------|
D|------------|----------------------|-----------------------------|--------------------------|
A|------------|----------------------|-------------------1---1-----|--------------------------|
E|------------|-----1---1--3--3------|-----1---1--3--3-------------|-----1---1--3--3----3-----|
B|------------|----------------------|-----------------------------|--------------------------|


C|---------------------|----------------------|-----------------------------|-----------------|
G|---------------------|----------------------|-----------------------------|-----------------|
D|---------------------|----------------------|-----------------------------|-----------------|
A|---------------------|----------------------|-------------------3---3-----|-----1-----3-----|
E|-1---0-----0---1-----|-1---1---1--3--3------|-----1---1--3--3-------------|-----------------|
B|---------------------|----------------------|-----------------------------|-----------------|


C|-----------------|---------------------|------------------------|---------------------|
G|-----------------|---------------------|------------------------|---------------------|
D|-----1-----3-----|-----12----12---12---|-----12---12---12---12--|-----12----12---12---|
A|-----------------|---------------------|------------------------|---------------------|
E|-----------------|---------------------|------------------------|---------------------|
B|-----------------|---------------------|------------------------|---------------------|


C|------------------------|---------------------|------------------------|---------------------|
G|------------------------|---------------------|------------------------|---------------------|
D|-----12---12---12---12--|-----12----12---12---|-----12---12---12---12--|-----12----12---12---|
A|------------------------|---------------------|------------------------|---------------------|
E|------------------------|---------------------|------------------------|---------------------|
B|------------------------|---------------------|------------------------|---------------------|


C|------------------------|------------------------|---------------------|---------------------------|
G|------------------------|------------------------|---------------------|---------------------------|
D|-----12---12---12---12--|-----12---12---12---12--|-----12---12---------|---------------------------|
A|------------------------|------------------------|---------------------|---------------------------|
E|------------------------|------------------------|---------------3-----|-3----3---3--3---3---------|
B|------------------------|------------------------|---------------------|---------------------4-----|


C|---------------------------|---------------------------|-----------------|---------------------------|
G|---------------------------|---------------------------|-----------------|---------------------------|
D|---------------------------|---------------------------|-----------------|---------------------------|
A|---------------------------|---------------------------|-----------------|---------------------------|
E|---------------------------|---------------------------|-----------3-----|-3----3---3--3---3---------|
B|-4----4---4--4---4---3-----|-3----3---3--3---3---1-----|-----3-----------|---------------------4-----|


C|---------------------------|---------------------------|-----------------|-----------------|
G|---------------------------|---------------------------|-----------------|-----------------|
D|---------------------------|---------------------------|-----------3-----|-----------------|
A|---------------------------|---------------------------|-----------------|-----------5-----|
E|---------------------------|---------------------------|-----------------|-----------------|
B|-4----4---4--4---4---3-----|-3----3---3--3---3---1-----|-----3-----------|-----------------|


C|-----------------|-----------------|-----------------|-----------------|-----------------|
G|-----------------|-----------------|-----------------|-----------------|-----------------|
D|-----------------|-----------------|-----------------|-----------------|-----------------|
A|-----------3-----|-----------3-----|-----------------|-----------5-----|-----------3-----|
E|-----------------|-----------------|-----------1-----|-----------------|-----------------|
B|-----------------|-----------------|-----------------|-----------------|-----------------|


C|-----------------|-----------------|-----------------|------------------|-----------------|
G|-----------------|-----------------|-----------------|------------------|-----------------|
D|-----------------|-----------0-----|-----------------|------------------|-----------------|
A|-----------3-----|-----------------|-----------------|------------------|-----------------|
E|-----------------|-----------------|-----------0-----|-1-----5----6-----|-----------3-----|
B|-----------------|-----------------|-----------------|------------------|-----------------|


C|------------------|-----------------|------------------|-----------------|------------------|
G|------------------|-----------------|------------------|-----------------|------------------|
D|------------0-----|-----------------|------------------|-----------------|------------------|
A|-------3----------|-----------------|------------------|-----------------|-------3----3-----|
E|-5----------------|-----------0-----|-1-----5----6-----|-----------3-----|-5----------------|
B|------------------|-----------------|------------------|-----------------|------------------|


C|-----------------|------------------------------|-----------------|------------------------------|
G|-----------------|------------------------------|-----------------|------------------------------|
D|-----------------|------------------------------|-----------------|------------------------------|
A|-3---------------|-------------5-------8--------|-----------------|-------------5-------8--------|
E|-----------------|----------8-------8-----------|-----------------|----------8-------8-----------|
B|-----------------|------------------------------|-----------------|------------------------------|


C|------------------------|------------------------|------------------------|------------------------|
G|------------------------|------------------------|------------------------|------------------------|
D|------------------------|------------------------|------------------------|------------------------|
A|-----5------------------|---------------8--------|-----5------------------|---------------8--------|
E|---------------6--------|-----8------------------|---------------6--------|-----8--------------8---|
B|------------------------|------------------------|------------------------|------------------------|


C|------------------------|------------------------|------------------------|--------------------|
G|------------------------|------------------------|------------------------|--------------------|
D|------------------------|------------------------|------------------------|--------------------|
A|-----8---------8--------|-----8---------10-------|-----10-----------------|--------------------|
E|----------8---------8---|----------8---------8---|----------8----8--------|-----------8--------|
B|------------------------|------------------------|------------------------|--------------------|


C|--------------------|---------------------|-----------------------------------------------|
G|--------------------|---------------------|-----------------------------------------------|
D|--------------------|---------------------|-----------------------------------------------|
A|-----------8--------|------------8--------|--------------6-----5--------2--3--------------|
E|--------------------|-------8-------------|-----0--2--4-----4-----6--7--------4--5--0--2--|
B|--------------------|---------------------|-----------------------------------------------|


C|-------------------------------------------------|-------------------------------------------------|
G|-------------------------------------------------|-------------------------------------------------|
D|-------------------------------------------------|-------------------------------------------------|
A|----6-----5--------2--3--------1--2--------------|----6-----5--------2--3-----------------6-----5--|
E|-4-----4-----6--7--------4--5--------3--4--0--2--|-4-----4-----6--7--------4--5--0--2--4-----4-----|
B|-------------------------------------------------|-------------------------------------------------|


C|-------------------------------------------------|-------------------------------------------------|
G|-------------------------------------------------|-------------------------------------------------|
D|-------------------2--4--5--6--------------------|-------------------------------------------------|
A|-------2--3--4--5-----------------------6-----5--|-------2--3-----------------6-----5--2--3--------|
E|-6--7--------------------------0--2--4-----4-----|-6--7--------4--5--0--2--4-----4-----------4--5--|
B|-------------------------------------------------|-------------------------------------------------|


C|-------------------------------------------------|-------------------------------------------------|
G|-------------------------------------------------|-------------------------------------------------|
D|-------------------------------------------------|-------------------------------------------------|
A|----------6-----5--------2--3-----------------6--|----5--2--3--------1--2--------------------------|
E|-0--2--4-----4-----6--7--------4--5--0--2--4-----|-4-----------4--5--------3--4--7--4--6--4--0--7--|
B|-------------------------------------------------|-------------------------------------------------|


C|-------------------------------------------------|-------------------------------------------------|
G|-------------------------------------------------|-------------------------------------------------|
D|-------------------------------------------------|-------------------------------------------------|
A|-------------------------------------2--4--5-----|-------6-----5--------2--3-----------------6-----|
E|-4--6--4--0--7--4--6--4--0--3--4--6-----------0--|-2--4-----4-----6--7--------4--5--0--2--4-----4--|
B|-------------------------------------------------|-------------------------------------------------|


C|-------------------------------------------------|-------------------------------------------------|
G|-------------------------------------------------|-------------------------------------------------|
D|-------------------------------------------------|-------------------------------------------------|
A|-5--------2--3--------1--2-----------------6-----|-5--------2--3-----------------6-----5--------2--|
E|----6--7--------4--5--------3--4--0--2--4-----4--|----6--7--------4--5--0--2--4-----4-----6--7-----|
B|-------------------------------------------------|-------------------------------------------------|


C|-------------------------------------------------|-------------------------------------------------|
G|-------------------------------------------------|-------------------------------------------------|
D|----------2--4--5--6-----------------------------|-------------------------------------------------|
A|-3--4--5-----------------------6-----5--------2--|-3-----------------6-----5--2--3-----------------|
E|----------------------0--2--4-----4-----6--7-----|----4--5--0--2--4-----4-----------4--5--0--2--4--|
B|-------------------------------------------------|-------------------------------------------------|


C|-------------------------------------------------|-------------------------------------------------|
G|-------------------------------------------------|-------------------------------------------------|
D|-------------------------------------------------|-------------------------------------------------|
A|-6-----5--------2--3-----------------6-----5--2--|-3--------1--2-----------------------------------|
E|----4-----6--7--------4--5--0--2--4-----4--------|----4--5--------3--4--7--4--6--4--0--7--4--6--4--|
B|-------------------------------------------------|-------------------------------------------------|


C|-------------------------------------------------|-------------------------------------------------|
G|-------------------------------------------------|-------------------------------------------------|
D|-------------------------------------------------|-------------------------------------------2--4--|
A|----------------------------2--4--5--7--4--6--4--|-0--7--4--6--4--0--7--4--6--4--0--3--4--6--------|
E|-0--7--4--6--4--0--3--4--6-----------------------|-------------------------------------------------|
B|-------------------------------------------------|-------------------------------------------------|


C|-------------------------------------------------|-------------------------------------------------|
G|-------------------------------------------------|-------------2--3--5--6--3--5--------6--3--5-----|
D|-5--2--4--2-----5--2--4--2--4--2-----5--2--4--2--|----2--4--5--------------------6--3-----------6--|
A|-------------3--------------------3--------------|-3-----------------------------------------------|
E|-------------------------------------------------|-------------------------------------------------|
B|-------------------------------------------------|-------------------------------------------------|


C|-----------------------------------------------|----------------------------------|
G|----6--3--5------------------------------------|----------------------------------|
D|-3-----------6--3--5--6--5--3------------------|----------------------------------|
A|-------------------------------6--4--3--2----1-|----------------------------------|
E|-----------------------------------------------|-------4----3----2----1----0---0--|
B|-----------------------------------------------|----------------------------------|


C|-----------------------------------|-----------------------------------|-----------------------------------|
G|-----------------------------------|-----------------------------------|-----------------------------------|
D|-----------------------------------|-----------------------------------|-----------------------------------|
A|-----------------------------------|-----------------------------------|-----------------------------------|
E|----0---0---0---0---0---0---0---0--|----0---0---2---2---2---2---2---2--|----2---2---2---2---4---4---4---4--|
B|-----------------------------------|-----------------------------------|-----------------------------------|


C|-----------------------------------|-----------------------------------|-----------------------------------|
G|-----------------------------------|-----------------------------------|-----------------------------------|
D|-----------------------------------|-----------------------------------|-----------------------------------|
A|-----------------------------------|-----------------------------------|-----------------------------------|
E|----4---4---4---4---4---4---3---2--|----1---1---1---1---1---1---1---1--|----1---1---0---0---0---0---0---0--|
B|-----------------------------------|-----------------------------------|-----------------------------------|


C|-----------------------------------|-----------------------------------|-----------------------------------|
G|-----------------------------------|-----------------------------------|-----------------------------------|
D|-----------------------------------|-----------------------------------|-----------------------------------|
A|-----------------------------------|-----------------------------------|-----------------------------------|
E|----0---0---0---0---0---0---2---2--|----2---2---2---2---2---2---4---4--|----4---4---4---4---4---4---4---4--|
B|-----------------------------------|-----------------------------------|-----------------------------------|


C|-----------------------------------|-----------------------------------|-----------------------------------|
G|-----------------------------------|-----------------------------------|-----------------------------------|
D|-----------------------------------|-----------------------------------|-----------------------------------|
A|-----------------------------------|-----------------------------------|-----------------------------------|
E|----4---4---5---5---5---5---5---5--|----5---5---5---5---5---5---9---9--|----9---9---9---9---9---9---9---9--|
B|-----------------------------------|-----------------------------------|-----------------------------------|


C|-----------------------------------|-----------------------------------|-----------------------------------|
G|-----------------------------------|-----------------------------------|-----------------------------------|
D|----9---11-------------------------|-----------------------------------|-----------------------------------|
A|-----------------------------------|-----------------------------------|-----------------------------------|
E|------------8---8---8---8---8---8--|----8---8---8---8---8---8---7---7--|----7---7---7---7---7---7---7---7--|
B|-----------------------------------|-----------------------------------|-----------------------------------|


C|-----------------------------------|-----------------------------------|-----------------------------------|
G|-----------------------------------|-----------------------------------|-----------------------------------|
D|----7---9--------------------------|-----------------------------------|-----------------------------------|
A|------------0---0---0---0---0---0--|----0---0---0---0---0---0----------|-----------------------------------|
E|-----------------------------------|----------------------------1---1--|----1---1---1---1---1---1---1---1--|
B|-----------------------------------|-----------------------------------|-----------------------------------|


C|-----------------------------------|-----------------------------------|-----------------------------------|
G|-----------------------------------|-----------------------------------|-----------------------------------|
D|-----------------------------------|-----------------------------------|-----------------------------------|
A|-----------------------------------|-----------------------------------|-----------------------------------|
E|----1---1---3---3---3---3---3---3--|----3---3---3---3---1---1---1---1--|----1---1---1---1---1---1---1---1--|
B|-----------------------------------|-----------------------------------|-----------------------------------|


C|-----------------------------------|-----------------------------------|-----------------------------------|
G|-----------------------------------|-----------------------------------|-----------------------------------|
D|-----------------------------------|-----------------------------------|-----------------------------------|
A|-----------------------------------|-----------------------------------|-----------------------------------|
E|----3---3---3---3---3---3---3---3--|----3---3---1---1---1---1---1---1--|----1---1---1---1---1---1---3---3--|
B|-----------------------------------|-----------------------------------|-----------------------------------|


C|-----------------------------|----------------|----------------|--------|
G|-----------------------------|----------------|----------------|--------|
D|-----------------------------|----------------|----------------|--------|
A|-----------------------------|---------0------|-----------0----|--------|
E|----3---3---3---3---3-----3--|----------------|----------------|--------|
B|-----------------------------|----------------|----------------|--------|