Menu:

 

Search:

 

dream theater - in the name of god:

 



Title: In The Name Of God
Artist: 
Album: Train Of Thought
Author: Myung,Petrucci,Portnoy and Rudess


Track 1: Clean I

 C|-----------------0---------------|-----------------0---------------|-----------------0---------------|
 G|---------0---1-------0-------0---|---------0---1-------0-------3---|---------0---1-------0-------0---|
D#|---------------------------------|---------------------------------|---------------------------------|
A#|-----2-------------------3-------|-----2-------------------5-------|-----2-------------------3-------|
 F|-0-------------------------------|-0-------------------------------|-0-------------------------------|
 C|---------------------------------|---------------------------------|---------------------------------|


 C|-----------------0-----------3---|-----------------0---------------|-----------------0-----------------|
 G|---------0---1-------0-----------|---------0---1-------0-------0---|---------0---1-------0-------3--0--|
D#|-------------------------4-------|---------------------------------|-------------------------0---------|
A#|-----2---------------------------|-----2-------------------3-------|-----2-----------------------------|
 F|-0-------------------------------|-0-------------------------------|-0---------------------------------|
 C|---------------------------------|---------------------------------|-----------------------------------|


 C|-----------------0---------------|-----------------0-----------3---|-3----3-----3----|
 G|---------0---1-------0-------0---|---------0---1-------0-----------|-----------------|
D#|---------------------------------|-------------------------4-------|-----------------|
A#|-----2-------------------3-------|-----2---------------------------|-----------------|
 F|-0-------------------------------|-0-------------------------------|-----------------|
 C|---------------------------------|---------------------------------|-----------------|


 C|--------|--------|--------|--------|--------|--------|--------|--------|--------|
 G|--------|--------|--------|--------|--------|--------|--------|--------|--------|
D#|--------|--------|--------|--------|--------|--------|--------|--------|--------|
A#|--------|--------|--------|--------|--------|--------|--------|--------|--------|
 F|--------|--------|--------|--------|--------|--------|--------|--------|--------|
 C|--------|--------|--------|--------|--------|--------|--------|--------|--------|


 C|--------|--------|--------|--------|--------|--------|--------|--------|--------|
 G|--------|--------|--------|--------|--------|--------|--------|--------|--------|
D#|--------|--------|--------|--------|--------|--------|--------|--------|--------|
A#|--------|--------|--------|--------|--------|--------|--------|--------|--------|
 F|--------|--------|--------|--------|--------|--------|--------|--------|--------|
 C|--------|--------|--------|--------|--------|--------|--------|--------|--------|


 C|--------|--------|--------|--------|--------|--------|--------|--------|--------|
 G|--------|--------|--------|--------|--------|--------|--------|--------|--------|
D#|--------|--------|--------|--------|--------|--------|--------|--------|--------|
A#|--------|--------|--------|--------|--------|--------|--------|--------|--------|
 F|--------|--------|--------|--------|--------|--------|--------|--------|--------|
 C|--------|--------|--------|--------|--------|--------|--------|--------|--------|


 C|--------|--------|--------|--------|--------|--------|--------|--------|--------|
 G|--------|--------|--------|--------|--------|--------|--------|--------|--------|
D#|--------|--------|--------|--------|--------|--------|--------|--------|--------|
A#|--------|--------|--------|--------|--------|--------|--------|--------|--------|
 F|--------|--------|--------|--------|--------|--------|--------|--------|--------|
 C|--------|--------|--------|--------|--------|--------|--------|--------|--------|


 C|--------|--------|--------|--------|--------|--------|--------|--------|--------|
 G|--------|--------|--------|--------|--------|--------|--------|--------|--------|
D#|--------|--------|--------|--------|--------|--------|--------|--------|--------|
A#|--------|--------|--------|--------|--------|--------|--------|--------|--------|
 F|--------|--------|--------|--------|--------|--------|--------|--------|--------|
 C|--------|--------|--------|--------|--------|--------|--------|--------|--------|


 C|--------|--------|--------|--------|--------|--------|--------|--------|--------|
 G|--------|--------|--------|--------|--------|--------|--------|--------|--------|
D#|--------|--------|--------|--------|--------|--------|--------|--------|--------|
A#|--------|--------|--------|--------|--------|--------|--------|--------|--------|
 F|--------|--------|--------|--------|--------|--------|--------|--------|--------|
 C|--------|--------|--------|--------|--------|--------|--------|--------|--------|


 C|--------|--------|--------|--------|--------|--------|--------|--------|--------|
 G|--------|--------|--------|--------|--------|--------|--------|--------|--------|
D#|--------|--------|--------|--------|--------|--------|--------|--------|--------|
A#|--------|--------|--------|--------|--------|--------|--------|--------|--------|
 F|--------|--------|--------|--------|--------|--------|--------|--------|--------|
 C|--------|--------|--------|--------|--------|--------|--------|--------|--------|


 C|--------|--------|--------|--------|--------|--------|--------|--------|--------|
 G|--------|--------|--------|--------|--------|--------|--------|--------|--------|
D#|--------|--------|--------|--------|--------|--------|--------|--------|--------|
A#|--------|--------|--------|--------|--------|--------|--------|--------|--------|
 F|--------|--------|--------|--------|--------|--------|--------|--------|--------|
 C|--------|--------|--------|--------|--------|--------|--------|--------|--------|


 C|--------|--------|--------|--------|--------|--------|--------|--------|--------|
 G|--------|--------|--------|--------|--------|--------|--------|--------|--------|
D#|--------|--------|--------|--------|--------|--------|--------|--------|--------|
A#|--------|--------|--------|--------|--------|--------|--------|--------|--------|
 F|--------|--------|--------|--------|--------|--------|--------|--------|--------|
 C|--------|--------|--------|--------|--------|--------|--------|--------|--------|


 C|--------|--------|--------|--------|--------|--------|--------|--------|--------|
 G|--------|--------|--------|--------|--------|--------|--------|--------|--------|
D#|--------|--------|--------|--------|--------|--------|--------|--------|--------|
A#|--------|--------|--------|--------|--------|--------|--------|--------|--------|
 F|--------|--------|--------|--------|--------|--------|--------|--------|--------|
 C|--------|--------|--------|--------|--------|--------|--------|--------|--------|


 C|--------|--------|--------|--------|--------|--------|--------|--------|--------|
 G|--------|--------|--------|--------|--------|--------|--------|--------|--------|
D#|--------|--------|--------|--------|--------|--------|--------|--------|--------|
A#|--------|--------|--------|--------|--------|--------|--------|--------|--------|
 F|--------|--------|--------|--------|--------|--------|--------|--------|--------|
 C|--------|--------|--------|--------|--------|--------|--------|--------|--------|


 C|--------|--------|--------|--------|--------|--------|--------|--------|--------|
 G|--------|--------|--------|--------|--------|--------|--------|--------|--------|
D#|--------|--------|--------|--------|--------|--------|--------|--------|--------|
A#|--------|--------|--------|--------|--------|--------|--------|--------|--------|
 F|--------|--------|--------|--------|--------|--------|--------|--------|--------|
 C|--------|--------|--------|--------|--------|--------|--------|--------|--------|


 C|--------|--------|--------|--------|--------|--------|--------|--------|--------|
 G|--------|--------|--------|--------|--------|--------|--------|--------|--------|
D#|--------|--------|--------|--------|--------|--------|--------|--------|--------|
A#|--------|--------|--------|--------|--------|--------|--------|--------|--------|
 F|--------|--------|--------|--------|--------|--------|--------|--------|--------|
 C|--------|--------|--------|--------|--------|--------|--------|--------|--------|


 C|--------|--------|--------|--------|--------|--------|--------|--------|--------|
 G|--------|--------|--------|--------|--------|--------|--------|--------|--------|
D#|--------|--------|--------|--------|--------|--------|--------|--------|--------|
A#|--------|--------|--------|--------|--------|--------|--------|--------|--------|
 F|--------|--------|--------|--------|--------|--------|--------|--------|--------|
 C|--------|--------|--------|--------|--------|--------|--------|--------|--------|


 C|--------|--------|--------|--------|--------|--------|--------|--------|--------|
 G|--------|--------|--------|--------|--------|--------|--------|--------|--------|
D#|--------|--------|--------|--------|--------|--------|--------|--------|--------|
A#|--------|--------|--------|--------|--------|--------|--------|--------|--------|
 F|--------|--------|--------|--------|--------|--------|--------|--------|--------|
 C|--------|--------|--------|--------|--------|--------|--------|--------|--------|


 C|--------|--------|--------|--------|--------|--------|--------|--------|--------|
 G|--------|--------|--------|--------|--------|--------|--------|--------|--------|
D#|--------|--------|--------|--------|--------|--------|--------|--------|--------|
A#|--------|--------|--------|--------|--------|--------|--------|--------|--------|
 F|--------|--------|--------|--------|--------|--------|--------|--------|--------|
 C|--------|--------|--------|--------|--------|--------|--------|--------|--------|


 C|--------|--------|--------|--------|--------|--------|--------|--------|--------|
 G|--------|--------|--------|--------|--------|--------|--------|--------|--------|
D#|--------|--------|--------|--------|--------|--------|--------|--------|--------|
A#|--------|--------|--------|--------|--------|--------|--------|--------|--------|
 F|--------|--------|--------|--------|--------|--------|--------|--------|--------|
 C|--------|--------|--------|--------|--------|--------|--------|--------|--------|


 C|--------|--------|--------|--------|--------|--------|--------|--------|--------|
 G|--------|--------|--------|--------|--------|--------|--------|--------|--------|
D#|--------|--------|--------|--------|--------|--------|--------|--------|--------|
A#|--------|--------|--------|--------|--------|--------|--------|--------|--------|
 F|--------|--------|--------|--------|--------|--------|--------|--------|--------|
 C|--------|--------|--------|--------|--------|--------|--------|--------|--------|


 C|--------|--------|--------|--------|--------|--------|--------|--------|--------|
 G|--------|--------|--------|--------|--------|--------|--------|--------|--------|
D#|--------|--------|--------|--------|--------|--------|--------|--------|--------|
A#|--------|--------|--------|--------|--------|--------|--------|--------|--------|
 F|--------|--------|--------|--------|--------|--------|--------|--------|--------|
 C|--------|--------|--------|--------|--------|--------|--------|--------|--------|


 C|--------|--------|--------|--------|--------|--------|--------|--------|--------|
 G|--------|--------|--------|--------|--------|--------|--------|--------|--------|
D#|--------|--------|--------|--------|--------|--------|--------|--------|--------|
A#|--------|--------|--------|--------|--------|--------|--------|--------|--------|
 F|--------|--------|--------|--------|--------|--------|--------|--------|--------|
 C|--------|--------|--------|--------|--------|--------|--------|--------|--------|


 C|--------|--------|--------|--------|--------|--------|--------|--------|--------|
 G|--------|--------|--------|--------|--------|--------|--------|--------|--------|
D#|--------|--------|--------|--------|--------|--------|--------|--------|--------|
A#|--------|--------|--------|--------|--------|--------|--------|--------|--------|
 F|--------|--------|--------|--------|--------|--------|--------|--------|--------|
 C|--------|--------|--------|--------|--------|--------|--------|--------|--------|


 C|--------|--------|--------|--------|--------|--------|--------|--------|--------|
 G|--------|--------|--------|--------|--------|--------|--------|--------|--------|
D#|--------|--------|--------|--------|--------|--------|--------|--------|--------|
A#|--------|--------|--------|--------|--------|--------|--------|--------|--------|
 F|--------|--------|--------|--------|--------|--------|--------|--------|--------|
 C|--------|--------|--------|--------|--------|--------|--------|--------|--------|


 C|--------|--------|--------|--------|--------|--------|--------|--------|--------|
 G|--------|--------|--------|--------|--------|--------|--------|--------|--------|
D#|--------|--------|--------|--------|--------|--------|--------|--------|--------|
A#|--------|--------|--------|--------|--------|--------|--------|--------|--------|
 F|--------|--------|--------|--------|--------|--------|--------|--------|--------|
 C|--------|--------|--------|--------|--------|--------|--------|--------|--------|


 C|--------|--------|--------|--------|--------|--------|--------|--------|--------|
 G|--------|--------|--------|--------|--------|--------|--------|--------|--------|
D#|--------|--------|--------|--------|--------|--------|--------|--------|--------|
A#|--------|--------|--------|--------|--------|--------|--------|--------|--------|
 F|--------|--------|--------|--------|--------|--------|--------|--------|--------|
 C|--------|--------|--------|--------|--------|--------|--------|--------|--------|


 C|--------|--------|--------|--------|--------|--------|--------|--------|--------|
 G|--------|--------|--------|--------|--------|--------|--------|--------|--------|
D#|--------|--------|--------|--------|--------|--------|--------|--------|--------|
A#|--------|--------|--------|--------|--------|--------|--------|--------|--------|
 F|--------|--------|--------|--------|--------|--------|--------|--------|--------|
 C|--------|--------|--------|--------|--------|--------|--------|--------|--------|


 C|--------|--------|--------|--------|--------|--------|--------|--------|--------|
 G|--------|--------|--------|--------|--------|--------|--------|--------|--------|
D#|--------|--------|--------|--------|--------|--------|--------|--------|--------|
A#|--------|--------|--------|--------|--------|--------|--------|--------|--------|
 F|--------|--------|--------|--------|--------|--------|--------|--------|--------|
 C|--------|--------|--------|--------|--------|--------|--------|--------|--------|


 C|--------|--------|--------|--------|--------|--------|--------|--------|--------|
 G|--------|--------|--------|--------|--------|--------|--------|--------|--------|
D#|--------|--------|--------|--------|--------|--------|--------|--------|--------|
A#|--------|--------|--------|--------|--------|--------|--------|--------|--------|
 F|--------|--------|--------|--------|--------|--------|--------|--------|--------|
 C|--------|--------|--------|--------|--------|--------|--------|--------|--------|


 C|--------|--------|--------|--------|--------|--------|--------|--------|--------|
 G|--------|--------|--------|--------|--------|--------|--------|--------|--------|
D#|--------|--------|--------|--------|--------|--------|--------|--------|--------|
A#|--------|--------|--------|--------|--------|--------|--------|--------|--------|
 F|--------|--------|--------|--------|--------|--------|--------|--------|--------|
 C|--------|--------|--------|--------|--------|--------|--------|--------|--------|


 C|--------|--------|--------|--------|--------|--------|--------|--------|--------|
 G|--------|--------|--------|--------|--------|--------|--------|--------|--------|
D#|--------|--------|--------|--------|--------|--------|--------|--------|--------|
A#|--------|--------|--------|--------|--------|--------|--------|--------|--------|
 F|--------|--------|--------|--------|--------|--------|--------|--------|--------|
 C|--------|--------|--------|--------|--------|--------|--------|--------|--------|


 C|--------|--------|--------|--------|--------|--------|--------|--------|--------|
 G|--------|--------|--------|--------|--------|--------|--------|--------|--------|
D#|--------|--------|--------|--------|--------|--------|--------|--------|--------|
A#|--------|--------|--------|--------|--------|--------|--------|--------|--------|
 F|--------|--------|--------|--------|--------|--------|--------|--------|--------|
 C|--------|--------|--------|--------|--------|--------|--------|--------|--------|


 C|--------|--------|--------|--------|--------|--------|--------|--------|--------|
 G|--------|--------|--------|--------|--------|--------|--------|--------|--------|
D#|--------|--------|--------|--------|--------|--------|--------|--------|--------|
A#|--------|--------|--------|--------|--------|--------|--------|--------|--------|
 F|--------|--------|--------|--------|--------|--------|--------|--------|--------|
 C|--------|--------|--------|--------|--------|--------|--------|--------|--------|


 C|--------|--------|--------|--------|--------|--------|--------|--------|--------|
 G|--------|--------|--------|--------|--------|--------|--------|--------|--------|
D#|--------|--------|--------|--------|--------|--------|--------|--------|--------|
A#|--------|--------|--------|--------|--------|--------|--------|--------|--------|
 F|--------|--------|--------|--------|--------|--------|--------|--------|--------|
 C|--------|--------|--------|--------|--------|--------|--------|--------|--------|


 C|--------|--------|--------|--------|--------|--------|--------|--------|--------|
 G|--------|--------|--------|--------|--------|--------|--------|--------|--------|
D#|--------|--------|--------|--------|--------|--------|--------|--------|--------|
A#|--------|--------|--------|--------|--------|--------|--------|--------|--------|
 F|--------|--------|--------|--------|--------|--------|--------|--------|--------|
 C|--------|--------|--------|--------|--------|--------|--------|--------|--------|


 C|--------|--------|--------|--------|--------|--------|--------|--------|--------|
 G|--------|--------|--------|--------|--------|--------|--------|--------|--------|
D#|--------|--------|--------|--------|--------|--------|--------|--------|--------|
A#|--------|--------|--------|--------|--------|--------|--------|--------|--------|
 F|--------|--------|--------|--------|--------|--------|--------|--------|--------|
 C|--------|--------|--------|--------|--------|--------|--------|--------|--------|


 C|--------|--------|--------|--------|--------|--------|--------|--------|--------|
 G|--------|--------|--------|--------|--------|--------|--------|--------|--------|
D#|--------|--------|--------|--------|--------|--------|--------|--------|--------|
A#|--------|--------|--------|--------|--------|--------|--------|--------|--------|
 F|--------|--------|--------|--------|--------|--------|--------|--------|--------|
 C|--------|--------|--------|--------|--------|--------|--------|--------|--------|


 C|--------|--------|--------|--------|--------|--------|--------|--------|--------|
 G|--------|--------|--------|--------|--------|--------|--------|--------|--------|
D#|--------|--------|--------|--------|--------|--------|--------|--------|--------|
A#|--------|--------|--------|--------|--------|--------|--------|--------|--------|
 F|--------|--------|--------|--------|--------|--------|--------|--------|--------|
 C|--------|--------|--------|--------|--------|--------|--------|--------|--------|


 C|--------|--------|--------|--------|--------|--------|--------|--------|--------|
 G|--------|--------|--------|--------|--------|--------|--------|--------|--------|
D#|--------|--------|--------|--------|--------|--------|--------|--------|--------|
A#|--------|--------|--------|--------|--------|--------|--------|--------|--------|
 F|--------|--------|--------|--------|--------|--------|--------|--------|--------|
 C|--------|--------|--------|--------|--------|--------|--------|--------|--------|


 C|--------|--------|--------|--------|--------|--------|--------|--------|--------|
 G|--------|--------|--------|--------|--------|--------|--------|--------|--------|
D#|--------|--------|--------|--------|--------|--------|--------|--------|--------|
A#|--------|--------|--------|--------|--------|--------|--------|--------|--------|
 F|--------|--------|--------|--------|--------|--------|--------|--------|--------|
 C|--------|--------|--------|--------|--------|--------|--------|--------|--------|


 C|--------|--------|--------|--------|--------|--------|--------|--------|--------|
 G|--------|--------|--------|--------|--------|--------|--------|--------|--------|
D#|--------|--------|--------|--------|--------|--------|--------|--------|--------|
A#|--------|--------|--------|--------|--------|--------|--------|--------|--------|
 F|--------|--------|--------|--------|--------|--------|--------|--------|--------|
 C|--------|--------|--------|--------|--------|--------|--------|--------|--------|


 C|--------|--------|--------|--------|--------|--------|--------|--------|--------|
 G|--------|--------|--------|--------|--------|--------|--------|--------|--------|
D#|--------|--------|--------|--------|--------|--------|--------|--------|--------|
A#|--------|--------|--------|--------|--------|--------|--------|--------|--------|
 F|--------|--------|--------|--------|--------|--------|--------|--------|--------|
 C|--------|--------|--------|--------|--------|--------|--------|--------|--------|


 C|--------|--------|--------|--------|--------|
 G|--------|--------|--------|--------|--------|
D#|--------|--------|--------|--------|--------|
A#|--------|--------|--------|--------|--------|
 F|--------|--------|--------|--------|--------|
 C|--------|--------|--------|--------|--------|





Track 2: Distortion I

 C|--------|--------|--------|--------|--------|--------|--------|--------|--------|
 G|--------|--------|--------|--------|--------|--------|--------|--------|--------|
D#|--------|--------|--------|--------|--------|--------|--------|--------|--------|
A#|--------|--------|--------|--------|--------|--------|--------|--------|--------|
 F|--------|--------|--------|--------|--------|--------|--------|--------|--------|
 C|--------|--------|--------|--------|--------|--------|--------|--------|--------|


 C|---------------------------------|-------------------------------------|---------------------------------|
 G|---------------------------------|-------------------------------------|---------------------------------|
D#|---------------------------------|-------------------------------------|---------------------------------|
A#|---------------------------------|-------------------------------------|---------------------------------|
 F|-----7---7-------7---7---5---8---|-7---------------------2-------------|-----7---7-------7---7---5---8---|
 C|-0-----------0-------------------|-----0---0---0---4--5------5--4--1---|-0-----------0-------------------|


 C|-------------------------------------|--------------------------------|-------------------------------------|
 G|-------------------------------------|--------------------------------|-------------------------------------|
D#|-------------------------------------|--------------------------------|-------------------------------------|
A#|-------------------------------------|--------------------------------|-------------------------------------|
 F|-7---------------2--3--5---3--2------|-7--------5--7--8---7---5---8---|-7---------------------2-------------|
 C|-----0---0---0-------------------0---|------0-------------------------|-----0---0---0---4--5------5--0--1---|


 C|---------------------------------|-------------------------------------------|---------------------------------|
 G|---------------------------------|-------------------------------------------|---------------------------------|
D#|---------------------------------|-1--2--4---2--1----------------------------|---------------------------------|
A#|---------------------------------|-----------------3---2---------------------|---------------------------------|
 F|-----7---7-------7---7---5---8---|-------------------------5--3--2-----------|-----7---7-------7---7---5---8---|
 C|-0-----------0-------------------|----------------------------------5--4--1--|-0-----------0-------------------|


 C|-------------------------------------|---------------------------------|-------------------------------------|
 G|-------------------------------------|---------------------------------|-------------------------------------|
D#|-------------------------------------|---------------------------------|-------------------------------------|
A#|-------------------------------------|---------------------------------|-------------------------------------|
 F|-7---------------------2-------------|-----7---7-------7---7---5---8---|-7---------------2--3--5---3--2------|
 C|-----0---0---0---4--5------5--4--1---|-0-----------0-------------------|-----0---0---0-------------------0---|


 C|--------------------------------|-------------------------------------|---------------------------------|
 G|--------------------------------|-------------------------------------|---------------------------------|
D#|--------------------------------|-------------------------------------|---------------------------------|
A#|--------------------------------|-------------------------------------|---------------------------------|
 F|-7--------5--7--8---7---5---8---|-7---------------------2-------------|-----7---7-------7---7---5---8---|
 C|------0-------------------------|-----0---0---0---4--5------5--0--1---|-0-----------0-------------------|


 C|------------------------------------------------|-------------------------------------|
 G|---------------------3--5--3--------------------|-------------------------------------|
D#|-1--2--4---2--1---------------5--4--2--1--------|-------------------------------------|
A#|-----------------3------------------------2--3--|-2---2-------------------------------|
 F|------------------------------------------------|-2---2-------2---------3---------3---|
 C|------------------------------------------------|-0---0-------0---3--3--1---3--3--1---|


 C|---------------------------------|-------------------------------------|-----------------------------------|
 G|---------------------------------|-------------------------------------|-----------------------------------|
D#|---------------------7---5---5---|-------------------------------------|-----------------------------------|
A#|---------------------7---5---5---|-2---2-------------------------------|---------------3---0---0---1---1---|
 F|-2---2-------2---5---5---3---3---|-2---2-------2---------3---------3---|-2---2---2--2--1---0---0---1---1---|
 C|-0---0-------0-------------------|-0---0-------0---3--3--1---3--3--1---|-0---0---0--0----------------------|


 C|-------------------------------------|---------------------------------|-------------------------------------|
 G|-------------------------------------|---------------------------------|-------------------------------------|
D#|-------------------------------------|---------------------7---5---5---|-------------------------------------|
A#|-2-----------------------------------|---------------------7---5---5---|-2---2-------------------------------|
 F|-2-----------2---------3---------3---|-2---2-------2---5---5---3---3---|-2---2-------2---------3---------3---|
 C|-----0-------0---3--3--1---3--3--1---|-0---0-------0-------------------|-0---0-------0---3--3--1---3--3--1---|


 C|-----------------------------------|--------|--------|--------|-----------------------|
 G|-----------------------------------|--------|--------|--------|-----------------------|
D#|-----------------------------------|--------|--------|--------|-----------------------|
A#|---------------3---0---0---1---1---|--------|--------|--------|-------0---0---1---1---|
 F|-2---2---2--2--1---0---0---1---1---|--------|--------|--------|-------0---0---1---1---|
 C|-0---0---0--0----------------------|--------|--------|--------|-----------------------|


 C|----------------|--------|--------|---------------------------|---------------------------------|
 G|----------------|--------|--------|---------------------------|---------------------------------|
D#|----------------|--------|--------|---------------------------|---------------------------------|
A#|-2--------------|--------|--------|------5----0---0---1---1---|---------------------------------|
 F|-2--------------|--------|--------|-----------0---0---1---1---|-----7---7-------7---7---5---8---|
 C|-----0----------|--------|--------|---------------------------|-0-----------0-------------------|


 C|-------------------------------------|---------------------------------|-------------------------------------|
 G|-------------------------------------|---------------------------------|-------------------------------------|
D#|-------------------------------------|---------------------------------|-------------------------------------|
A#|-------------------------------------|---------------------------------|-------------------------------------|
 F|-7---------------------2-------------|-----7---7-------7---7---5---8---|-7---------------2--3--5---3--2------|
 C|-----0---0---0---4--5------5--4--1---|-0-----------0-------------------|-----0---0---0-------------------0---|


 C|--------------------------------|-------------------------------------|---------------------------------|
 G|--------------------------------|-------------------------------------|---------------------------------|
D#|--------------------------------|-------------------------------------|---------------------------------|
A#|--------------------------------|-------------------------------------|---------------------------------|
 F|-7--------5--7--8---7---5---8---|-7---------------------2-------------|-----7---7-------7---7---5---8---|
 C|------0-------------------------|-----0---0---0---4--5------5--4--1---|-0-----------0-------------------|


 C|------------------------------------------------|-------------------------------------|
 G|---------------------3--5--3--------------------|-------------------------------------|
D#|-1--2--4---2--1---------------5--4--2--1--------|-------------------------------------|
A#|-----------------3------------------------2--3--|-2---2-------------------------------|
 F|------------------------------------------------|-2---2-------2---------3---------3---|
 C|------------------------------------------------|-0---0-------0---3--3--1---3--3--1---|


 C|---------------------------------|-------------------------------------|-----------------------------------|
 G|---------------------------------|-------------------------------------|-----------------------------------|
D#|---------------------7---5---5---|-------------------------------------|-----------------------------------|
A#|---------------------7---5---5---|-2---2-------------------------------|---------------3---0---0---1---1---|
 F|-2---2-------2---5---5---3---3---|-2---2-------2---------3---------3---|-2---2---2--2--1---0---0---1---1---|
 C|-0---0-------0-------------------|-0---0-------0---3--3--1---3--3--1---|-0---0---0--0----------------------|


 C|-------------------------------------|---------------------------------|-------------------------------------|
 G|-------------------------------------|---------------------------------|-------------------------------------|
D#|-------------------------------------|---------------------7---5---5---|-------------------------------------|
A#|-2-----------------------------------|---------------------7---5---5---|-2---2-------------------------------|
 F|-2-----------2---------3---------3---|-2---2-------2---5---5---3---3---|-2---2-------2---------3---------3---|
 C|-----0-------0---3--3--1---3--3--1---|-0---0-------0-------------------|-0---0-------0---3--3--1---3--3--1---|


 C|-----------------------------------|--------|--------|--------|-----------------|
 G|-----------------------------------|--------|--------|--------|-----------------|
D#|-----------------------------------|--------|--------|--------|-5------5--------|
A#|---------------3---0---0---1---1---|-2------|-2------|--------|-5------5----5---|
 F|-2---2---2--2--1---0---0---1---1---|-0------|-0------|-2------|-3------3----3---|
 C|-0---0---0--0----------------------|--------|--------|--------|-----------------|


 C|--------|-1------|--------3----|-3---3---3----------------0---|---------------------0-----------|
 G|--------|-1------|-3------1----|-0---0---1------------0-------|-0---------------0-------0-------|
D#|--------|--------|-0-----------|------------------4-----------|-----5-------4---------------5---|
A#|--------|--------|-0-----------|------------------------------|---------------------------------|
 F|-3------|--------|-------------|--------------0---------------|---------3-----------------------|
 C|-1------|--------|-3-----------|------------------------------|---------------------------------|


 C|-------------0----------------|-----------------------------0---|---------------------0-----------|
 G|---------0-------0------------|-------------------------0-------|-0---------------0-------0-------|
D#|-----4---------------5---2----|-2---2---------------4-----------|-----5-------4---------------5---|
A#|-------------------------0----|-0---0---------------------------|---------------------------------|
 F|------------------------------|---------3---2---0---------------|---------3-----------------------|
 C|-1----------------------------|---------------------------------|---------------------------------|


 C|-------------0----------------|-----------------------0---|---------------------0-----------|
 G|---------0-------0------------|-------------------0-------|-0---------------0-------0-------|
D#|-----4---------------5--------|---------------4-----------|-----5-------4---------------5---|
A#|------------------------------|---------------------------|---------------------------------|
 F|-------------------------5----|-----------0---------------|---------3-----------------------|
 C|-1-----------------------3----|-----7---------------------|---------------------------------|


 C|-------------0----------------|-----------------------------0---|---------------------0-----------|
 G|---------0-------0------------|-------------------------0-------|-0---------------0-------0-------|
D#|-----4---------------5---2----|-2---2---------------4-----------|-----5-------4---------------5---|
A#|-------------------------0----|-0---0---------------------------|---------------------------------|
 F|------------------------------|---------3---2---0---------------|---------3-----------------------|
 C|-1----------------------------|---------------------------------|---------------------------------|


 C|-------------0----------------|-------------------------------|-------------------------------------------|
 G|---------0-------0------------|-------------------------------|-------------------------------------------|
D#|-----4---------------5--------|-------------------------------|-------------------------------------------|
A#|------------------------------|-------------------------------|-------------------------------------------|
 F|-------------------------5----|-----------3--0---0---0--3--0--|----0---0--3--0---0---0--7--3--6--3--3--5--|
 C|-1-----------------------3----|-----7-------------------------|-------------------------------------------|


 C|---------------------------------------|---------------------------------------------|
 G|---------------------------------------|---------------------------------------------|
D#|---------------------------------------|---------------------------------------------|
A#|---------------------------------------|-------3--1--2--------1----------------------|
 F|-3--0---0---0--3--0---0---0--3--0---0--|----0-----------3--2-----3--0---0---0--3--0--|
 C|---------------------------------------|---------------------------------------------|


 C|-------------------------------------------|---------------------------------------|
 G|-------------------------------------------|---------------------------------------|
D#|-------------------------------------------|---------------------------------------|
A#|-------------------------------------------|---------------------------------------|
 F|----0---0--3--0---0---0--7--3--6--3--3--5--|-3--0---0---0--3--0---0---0--3--0---0--|
 C|-------------------------------------------|---------------------------------------|


 C|-----------------------------------------------|-------------------------------------------|
 G|-----------------------------------------------|-------------------------------------------|
D#|-----------------------------------------------|-------------------------------------------|
A#|-------3--1--2--------1------------------------|-------------------------------------------|
 F|----0-----------3--2-----3--0--0--0---0--3--0--|----0---0--3--0---0---0--7--3--6--3--3--5--|
 C|-----------------------------------------------|-------------------------------------------|


 C|---------------------------------------|---------------------------------------------|
 G|---------------------------------------|---------------------------------------------|
D#|---------------------------------------|---------------------------------------------|
A#|---------------------------------------|-------3--1--2--------1----------------------|
 F|-3--0---0---0--3--0---0---0--3--0---0--|----0-----------3--2-----3--0---0---0--3--0--|
 C|---------------------------------------|---------------------------------------------|


 C|-------------------------------------------|---------------------------------------|
 G|-------------------------------------------|---------------------------------------|
D#|-------------------------------------------|---------------------------------------|
A#|-------------------------------------------|---------------------------------------|
 F|----0---0--3--0---0---0--7--3--6--3--3--5--|-3--0---0---0--3--0---0---0--3--0---0--|
 C|-------------------------------------------|---------------------------------------|


 C|-----------------------------------------------|---------------------------------------------|
 G|-----------------------------------------------|---------------------------------------------|
D#|-----------------------------------------------|---------------------------------------------|
A#|-------3--1--2---------------------------------|---------------------------------------------|
 F|----0-----------3--2--0-----------2---2--------|----2---2-----------2---2-----------------5--|
 C|-------------------------3--0--0--0---0--3--0--|-0--0---0--3--0--0--0---0--3--0--5--6--7-----|


 C|---------------------------------------------|-----------------------------------------------|
 G|---------------------------------------------|-----------------------------------------------|
D#|---------------------------------------------|-----------------------------------------------|
A#|---------------------------------------------|-----------------------------------------------|
 F|----------2---2-----------2---2-----------2--|----2-----------------5-----------2---2--------|
 C|-3--0--0--0---0--3--0--0--0---0--3--0--0--0--|----0--3--0--5--6--7-----3--0--0--0---0--3--0--|


 C|---------------------------------------------|---------------------------------------------|
 G|---------------------------------------------|---------------------------------------------|
D#|---------------------------------------------|---------------------------------------------|
A#|---------------------------------------------|---------------------------------------------|
 F|----2---2-----------2---2-----------------5--|----------2---2-----------2---2-----------2--|
 C|-0--0---0--3--0--0--0---0--3--0--5--6--7-----|-3--0--0--0---0--3--0--0--0---0--3--0--0--0--|


 C|-----------------------------------------------|---------------------------------------------|
 G|-----------------------------------------------|---------------------------------------------|
D#|-----------------------------------------------|---------------------------------------------|
A#|-----------------------------------------------|---------------------------------------------|
 F|----2--------7--5------------------------------|---------------------------------3--2--3--2--|
 C|----0--3--0--------7--6--5--2--2--2---2--5--2--|-2--2---2--5--2--2--2---2--0--2--------------|


 C|---------------------------------------------|---------------------------------------------|
 G|---------------------------------------------|---------------------------------------------|
D#|---------------------------------------------|---------------------------------------------|
A#|---------------------------------------------|-------------4--2----------------------------|
 F|---------------------------------------------|-------------------3--2----------------------|
 C|-5--2--2--2---2--5--2--2--2---2--5--2--2--2--|----2--0--2--------------5--2---2---2--5--2--|


 C|-------------------------------------------|---------------------------------------|
 G|-------------------------------------------|---------------------------------------|
D#|-------------------------------------------|---------------------------------------|
A#|-------------------------------------------|---------------------------------------|
 F|-------------------------------3--2--3--2--|---------------------------------------|
 C|----2---2--5--2---2---2--0--2--------------|-5--2---2---2--5--2---2---2--5--2---2--|


 C|-------------------------------------0---|---------------------0-----------|-------------0----------------|
 G|---------------------------------0-------|-0---------------0-------0-------|---------0-------0------------|
D#|-----------------------------4-----------|-----5-------4---------------5---|-----4---------------5---2----|
A#|-------------4--2------------------------|---------------------------------|-------------------------0----|
 F|-------------------3--2--0---------------|---------3-----------------------|------------------------------|
 C|----2--0--2------------------------------|---------------------------------|-1----------------------------|


 C|-----------------------------0---|---------------------0-----------|-------------0----------------|
 G|-------------------------0-------|-0---------------0-------0-------|---------0-------0------------|
D#|-2---2---------------4-----------|-----5-------4---------------5---|-----4---------------5--------|
A#|-0---0---------------------------|---------------------------------|------------------------------|
 F|---------3---2---0---------------|---------3-----------------------|-------------------------5----|
 C|---------------------------------|---------------------------------|-1-----------------------3----|


 C|-----------------------0---|---------------------0-----------|-------------0----------------|
 G|-------------------0-------|-0---------------0-------0-------|---------0-------0------------|
D#|---------------4-----------|-----5-------4---------------5---|-----4---------------5---2----|
A#|---------------------------|---------------------------------|-------------------------0----|
 F|-----------0---------------|---------3-----------------------|------------------------------|
 C|-----7---------------------|---------------------------------|-1----------------------------|


 C|-----------------------------0---|---------------------0-----------|-------------0----------------|
 G|-------------------------0-------|-0---------------0-------0-------|---------0-------0------------|
D#|-2---2---------------4-----------|-----5-------4---------------5---|-----4---------------5--------|
A#|-0---0---------------------------|---------------------------------|------------------------------|
 F|---------3---2---0---------------|---------3-----------------------|-------------------------5----|
 C|---------------------------------|---------------------------------|-1-----------------------3----|


 C|--------------------0---|-----0------------------------|---------------------------|
 G|-----------5------------|-0----------------5-----------|-6----6--------------------|
D#|-----------4------------|------------------4---2---4---|-5----5---0----------------|
A#|-----------2----2-------|---------2----2---2---0---2---|-3------------3---3--------|
 F|------------------------|------------------------------|----------------------5----|
 C|-----7------------------|------------------------------|---------------------------|


 C|-----------------------0---|-----0------------------------|---------------------------|
 G|--------------5------------|-0----------------5-----------|-6------------0------------|
D#|--------------4------------|------------------4---2---4---|-5--------0-------5--------|
A#|---------3----2----2-------|---------2----2---2---0---2---|-3----3---------------7----|
 F|-3---3---3-----------------|------------------------------|----------------------5----|
 C|-3---3---------------------|------------------------------|---------------------------|


 C|------------------------|------------------|------------------|---------------------|
 G|------------------------|------------------|------------------|---------------------|
D#|--------------2-----2---|------2-----2-----|------------------|---------------------|
A#|-5---5---5----2-----2---|------2-----2-----|-5-----5-----5----|-----5-----3-----3---|
 F|-3---3---2----0-----0---|------0-----0-----|-5-----5-----5----|-----5-----3-----3---|
 C|------------------------|------------------|-3-----3-----3----|-----3-----1-----1---|


 C|---------1-----------------|------------------------|-----------------------0---|
 G|-0---0---1-----------------|------------------------|-------------------0-------|
D#|---------------2-----------|------------------------|---------------4-----------|
A#|-------------------3-------|------------------------|-----6---------------------|
 F|-----------------------5---|-2-----2---2------------|-----------0---------------|
 C|---------------------------|---------------5---4----|---------------------------|


 C|---------------------0-----------|-------------0----------------|-----------------------------0---|
 G|-0---------------0-------0-------|---------0-------0------------|-------------------------0-------|
D#|-----5-------4---------------5---|-----4---------------5---2----|-2---2---------------4-----------|
A#|---------------------------------|-------------------------0----|-0---0---------------------------|
 F|---------3-----------------------|------------------------------|---------3---2---0---------------|
 C|---------------------------------|-1----------------------------|---------------------------------|


 C|---------------------0-----------|-------------0----------------|-----------------------0---|
 G|-0---------------0-------0-------|---------0-------0------------|-------------------0-------|
D#|-----5-------4---------------5---|-----4---------------5--------|---------------4-----------|
A#|---------------------------------|------------------------------|---------------------------|
 F|---------3-----------------------|-------------------------5----|-----------0---------------|
 C|---------------------------------|-1-----------------------3----|-----7---------------------|


 C|---------------------0-----------|-------------0----------------|-----------------------------0---|
 G|-0---------------0-------0-------|---------0-------0------------|-------------------------0-------|
D#|-----5-------4---------------5---|-----4---------------5---2----|-2---2---------------4-----------|
A#|---------------------------------|-------------------------0----|-0---0---------------------------|
 F|---------3-----------------------|------------------------------|---------3---2---0---------------|
 C|---------------------------------|-1----------------------------|---------------------------------|


 C|---------------------0-----------|-------------0----------------|--------|-------------|
 G|-0---------------0-------0-------|---------0-------0------------|--------|-------------|
D#|-----5-------4---------------5---|-----4---------------5--------|--------|-------------|
A#|---------------------------------|------------------------------|--------|------2------|
 F|---------3-----------------------|-------------------------5----|--------|------2------|
 C|---------------------------------|-1-----------------------3----|--------|------0------|


 C|-------------|-------------|-------------|--------|--------|--------|--------|--------|
 G|-------------|-------------|-------------|--------|--------|--------|--------|--------|
D#|-------------|-------------|-------------|--------|--------|--------|--------|--------|
A#|------2------|------2------|-------------|--------|--------|--------|--------|--------|
 F|------2------|------2------|-------------|--------|--------|--------|--------|--------|
 C|------0------|------0------|-------------|--------|--------|--------|--------|--------|


 C|--------|--------|--------|--------|--------|--------|--------|--------|--------|
 G|--------|--------|--------|--------|--------|--------|--------|--------|--------|
D#|--------|--------|--------|--------|--------|--------|--------|--------|--------|
A#|--------|--------|--------|--------|--------|--------|--------|--------|--------|
 F|--------|--------|--------|--------|--------|--------|--------|--------|--------|
 C|--------|--------|--------|--------|--------|--------|--------|--------|--------|


 C|--------|--------|--------|--------|--------|--------|--------------------|-------------|
 G|--------|--------|--------|--------|--------|--------|--------------------|-------------|
D#|--------|--------|--------|--------|--------|--------|--------------------|-------------|
A#|--------|--------|--------|--------|--------|--------|------2---2---------|-------------|
 F|--------|--------|--------|--------|--------|--------|------2---2---------|-------------|
 C|--------|--------|--------|--------|--------|--------|------0---0---------|-------------|


 C|-------------------------|---------------------------|--------------------|-------------|
 G|-------------------------|---------------------------|--------------------|-------------|
D#|-------------------------|---------------------------|--------------------|-------------|
A#|-----------2---2---------|------2---2-------2---0----|-0----2---2---------|-------------|
 F|-----------2---2---------|------2---2-------2---0----|-0----2---2---------|-------------|
 C|--------0--0---0---------|------0---0----------------|------0---0---------|-------------|


 C|-------------------------|---------------------------|------------------------------|
 G|-------------------------|---------------------------|------------------------------|
D#|-------------------------|---------------------------|------------------------------|
A#|-----------2---2---------|----------2-------2---0----|-0----------------------------|
 F|-----------2---2---------|----------2-------2---0----|-0--------7---7-------7---7---|
 C|--------0--0---0---------|----------0----------------|------0-----------0-----------|


 C|---------------------------------|---------------------------------|------------------------------|
 G|---------------------------------|---------------------------------|------------------------------|
D#|---------------------------------|---------------------------------|-------------------------7----|
A#|---------------------------------|---------------------------------|-------------------------7----|
 F|-5---8---7---2-----------2-------|-------------7---7-------7---7---|-5---8---7---2-------2---5----|
 C|-------------0-------0---0-------|------0--0-----------0-----------|-------------0-------0--------|


 C|------------------------------|---------------------------------|---------------------------------|
 G|------------------------------|---------------------------------|---------------------------------|
D#|-7----------------------------|---------------------------------|---------------------------------|
A#|-7----------------------------|---------------------------------|---------------------------------|
 F|-5--------7---7-------7---7---|-5---8---7---2-----------2-------|-------------7---7-------7---7---|
 C|------0-----------0-----------|-------------0-------0---0-------|------0--0-----------0-----------|


 C|------------------------------|------------------------------|---------------------------------|
 G|------------------------------|------------------------------|---------------------------------|
D#|-------------------------7----|-7----------------------------|---------------------------------|
A#|-------------------------7----|-7----------------------------|---------------------------------|
 F|-5---8---7---2-------2---5----|-5--------7---7-------7---7---|-5---8---7---------------7---7---|
 C|-------------0-------0--------|------0-----------0-----------|-------------0---0---0-----------|


 C|---------------------------------|------------------------------|------------------------------|
 G|---------------------------------|------------------------------|------------------------------|
D#|---------------------------------|-------------------------7----|-7----------------------------|
A#|---------------------------------|-------------------------7----|-7----------------------------|
 F|-5---8---7---------------7---7---|-5---8---7---------------5----|-5--------7---7-------7---7---|
 C|-------------0---0---0-----------|-------------0---0---0--------|------0-----------0-----------|


 C|---------------------------------|---------------------------------|------------------------------|
 G|---------------------------------|---------------------------------|------------------------------|
D#|---------------------------------|---------------------------------|-------------------------7----|
A#|---------------------------------|---------------------------------|-------------------------7----|
 F|-5---8---7---------------7---7---|-5---8---7---------------7---7---|-5---8---7---------------5----|
 C|-------------0---0---0-----------|-------------0---0---0-----------|-------------0---0---0--------|


 C|------------------------------|---------------------------------|---------------------------------|
 G|------------------------------|---------------------------------|---------------------------------|
D#|-7----------------------------|---------------------------------|---------------------------------|
A#|-7----------------------------|---------------------------------|---------------------------------|
 F|-5--------7---7-------8---7---|-5---8---7---------------8---7---|-5---8---7---------------8---7---|
 C|------0-----------0-----------|-------------0---0---0-----------|-------------0---0---0-----------|


 C|-------------------------------------|-----------------------------------|---------------------------------|
 G|-------------------------------------|-----------------------------------|---------------------------------|
D#|-------------------------------------|-----------------------------------|---------------------------------|
A#|-------------------------------------|-----------------------------------|---------------------------------|
 F|-5---8---7---------------------------|-2--3--5-------7---7-------8---7---|-5---8---7---------------8---7---|
 C|-------------0---0---0--0--4--5--4---|-----------0-----------0-----------|-------------0---0---0-----------|


 C|---------------------------------|-------------------------------------|-------------------------------------------|
 G|---------------------------------|-------------------------------------|-------------------------------------------|
D#|---------------------------------|-------------------------------------|-------------------------------------------|
A#|---------------------------------|-------------------------------------|---------------------------------7--6--6---|
 F|-5---8---7---------------8---7---|-5---8---7---------------------------|-2--3--5---7--5--8--7--7---7--5------------|
 C|-------------0---0---0-----------|-------------0---0---0--0--4--5--4---|-------------------------------------------|


 C|-----------------------------------------------|---------------------------------------------|
 G|-----------------------------------------------|---------------------------------------------|
D#|-------5--4--4---7--5--9--7--10-7--9--7--------|-7-------------------------------------------|
A#|-7--6------------------------------------10-9--|----10-9--7------------------------7--6--6---|
 F|-----------------------------------------------|-------------7--5--8--7--7---7--5------------|
 C|-----------------------------------------------|---------------------------------------------|


 C|-----------------------------------------------------------|---------------------------------------------------|
 G|-----------------------------------------12-10-9-----------|---------------------------------------------------|
D#|-------5--4--4---7--5--10-9--7--10-9--7-----------10-9--7--|---------------------------------------------------|
A#|-7--6------------------------------------------------------|-10-9--7--6--7--9------------------------7--6--6---|
 F|-----------------------------------------------------------|-------------------7--5--8--7--7---7--5------------|
 C|-----------------------------------------------------------|---------------------------------------------------|


 C|-----------------------------------------------|---------------------------------------------|
 G|-----------------------------------------------|---------------------------------------------|
D#|-------5--4--4---7--5--9--7--10-7--9--7--------|-7-------------------------------------------|
A#|-7--6------------------------------------10-9--|----10-9--7------------------------7--6--6---|
 F|-----------------------------------------------|-------------7--5--8--7--7---7--5------------|
 C|-----------------------------------------------|---------------------------------------------|


 C|-----------------------------------------------------------|---------------------------------------------------|
 G|-----------------------------------------12-10-9-----------|---------------------------------------------------|
D#|-------5--4--4---7--5--10-9--7--10-9--7-----------10-9--7--|---------------------------------------------------|
A#|-7--6------------------------------------------------------|-10-9--7--6--7--9------------------------7--6--6---|
 F|-----------------------------------------------------------|-------------------7--5--8--7--7---7--5------------|
 C|-----------------------------------------------------------|---------------------------------------------------|


 C|-----------------------------------------------|---------------------------------------------|
 G|-----------------------------------------------|---------------------------------------------|
D#|-------5--4--4---7--5--9--7--10-7--9--7--------|-7-------------------------------------------|
A#|-7--6------------------------------------10-9--|----10-9--7------------------------7--6--6---|
 F|-----------------------------------------------|-------------7--5--8--7--7---7--5------------|
 C|-----------------------------------------------|---------------------------------------------|


 C|-----------------------------------------------------------|---------------------------------------------------|
 G|-----------------------------------------12-10-9-----------|---------------------------------------------------|
D#|-------5--4--4---7--5--10-9--7--10-9--7-----------10-9--7--|---------------------------------------------------|
A#|-7--6------------------------------------------------------|-10-9--7--6--7--9------------------------7--6--6---|
 F|-----------------------------------------------------------|-------------------7--5--8--7--7---7--5------------|
 C|-----------------------------------------------------------|---------------------------------------------------|


 C|-----------------------------------------------|---------------------------------------------|
 G|-----------------------------------------------|---------------------------------------------|
D#|-------5--4--4---7--5--9--7--10-7--9--7--------|-7-------------------------------------------|
A#|-7--6------------------------------------10-9--|----10-9--7------------------------7--6--6---|
 F|-----------------------------------------------|-------------7--5--8--7--7---7--5------------|
 C|-----------------------------------------------|---------------------------------------------|


 C|-----------------------------------------------------------|----------10-11-12-13--10--12--10------10--|
 G|--------------------------------------------------9--10-12-|-10-12-13--------------------------13------|
D#|-------5--4--4---7--5--10-9--7--10-9--7--9--10-12----------|-------------------------------------------|
A#|-7--6------------------------------------------------------|-------------------------------------------|
 F|-----------------------------------------------------------|-------------------------------------------|
 C|-----------------------------------------------------------|-------------------------------------------|


 C|-12--10----------10--7---8---7---|-----7---8---7-------------------|---------------------------------|
 G|---------13--12------------------|-10--------------10--9-------9---|-10--9---------------------------|
D#|---------------------------------|-------------------------10------|---------10--9---7---9---10--9---|
A#|---------------------------------|---------------------------------|---------------------------------|
 F|---------------------------------|---------------------------------|---------------------------------|
 C|---------------------------------|---------------------------------|---------------------------------|


 C|-13--10--12--10------10--12--10--|---------10--7---8---7-------7---|-8---7---------------------------|
 G|-----------------13--------------|-13--12------------------10------|---------10--9-------9---10--9---|
D#|---------------------------------|---------------------------------|-----------------10--------------|
A#|---------------------------------|---------------------------------|---------------------------------|
 F|---------------------------------|---------------------------------|---------------------------------|
 C|---------------------------------|---------------------------------|---------------------------------|


 C|-------------------------13--10--|-12--10------10--12--10----------|-10--7---8---7-------7---8---7---|
 G|---------------------------------|---------13--------------13--12--|-----------------10--------------|
D#|-10--9---7---9---10--9-----------|---------------------------------|---------------------------------|
A#|---------------------------------|---------------------------------|---------------------------------|
 F|---------------------------------|---------------------------------|---------------------------------|
 C|---------------------------------|---------------------------------|---------------------------------|


 C|---------------------------------|-----------------13--10--12--10--|-----10--12--10----------10--7---|
 G|-10--9-------9---10--9-----------|---------------------------------|-13--------------13--12----------|
D#|---------10--------------10--9---|-7---9---10--9-------------------|---------------------------------|
A#|---------------------------------|---------------------------------|---------------------------------|
 F|---------------------------------|---------------------------------|---------------------------------|
 C|---------------------------------|---------------------------------|---------------------------------|


 C|-8---7-------7---8---7-----------|---------------------------------|---------17--13--16--13------13--|
 G|---------10--------------10--9---|-----9---10--9-------------------|-------------------------17------|
D#|---------------------------------|-10--------------10--9---7---9---|-10--9---------------------------|
A#|---------------------------------|---------------------------------|---------------------------------|
 F|---------------------------------|---------------------------------|---------------------------------|
 C|---------------------------------|---------------------------------|---------------------------------|


 C|-16--13--------------19--16--17--|---------20--17--19--17--------17--|-13--16--13------13--16--13------|
 G|---------17--15--17--------------|-18--17-----------------18-17------|-------------17--------------17--|
D#|---------------------------------|-----------------------------------|---------------------------------|
A#|---------------------------------|-----------------------------------|---------------------------------|
 F|---------------------------------|-----------------------------------|---------------------------------|
 C|---------------------------------|-----------------------------------|---------------------------------|


 C|---------19--16--17----------20--|-17--19--17--------17--13--16--13--|-----13--16--13--------------19--|
 G|-15--17--------------18--17------|------------18-17------------------|-17--------------17--15--17------|
D#|---------------------------------|-----------------------------------|---------------------------------|
A#|---------------------------------|-----------------------------------|---------------------------------|
 F|---------------------------------|-----------------------------------|---------------------------------|
 C|---------------------------------|-----------------------------------|---------------------------------|


 C|-16--17--16--20--19------19--20--|-22--19--20-19---------24----|--------|--------|
 G|---------------------22----------|---------------22--21--------|--------|--------|
D#|---------------------------------|-----------------------------|--------|--------|
A#|---------------------------------|-----------------------------|--------|--------|
 F|---------------------------------|-----------------------------|--------|--------|
 C|---------------------------------|-----------------------------|--------|--------|


 C|--------|--------|--------|--------|--------|--------|--------|--------|--------|
 G|--------|--------|--------|--------|--------|--------|--------|--------|--------|
D#|--------|--------|--------|--------|--------|--------|--------|--------|--------|
A#|--------|--------|--------|--------|--------|--------|--------|--------|--------|
 F|--------|--------|--------|--------|--------|--------|--------|--------|--------|
 C|--------|--------|--------|--------|--------|--------|--------|--------|--------|


 C|--------|--------|--------|--------|--------|--------|--------|--------|--------|
 G|--------|--------|--------|--------|--------|--------|--------|--------|--------|
D#|--------|--------|--------|--------|--------|--------|--------|--------|--------|
A#|--------|--------|--------|--------|--------|--------|--------|--------|--------|
 F|--------|--------|--------|--------|--------|--------|--------|--------|--------|
 C|--------|--------|--------|--------|--------|--------|--------|--------|--------|


 C|------------|------------|------------|------------|--------|--------|--------|
 G|------------|------------|------------|------------|--------|--------|--------|
D#|-----7------|-----7------|-----7------|-----7------|--------|--------|--------|
A#|-----7------|-----7------|-----7------|-----7------|--------|--------|--------|
 F|-----5------|-----5------|-----5------|-----5------|--------|--------|--------|
 C|------------|------------|------------|------------|--------|--------|--------|


 C|--------|--------|--------|--------|--------|--------|--------|--------|--------|
 G|--------|--------|--------|--------|--------|--------|--------|--------|--------|
D#|--------|--------|--------|--------|--------|--------|--------|--------|--------|
A#|--------|--------|--------|--------|--------|--------|--------|--------|--------|
 F|--------|--------|--------|--------|--------|--------|--------|--------|--------|
 C|--------|--------|--------|--------|--------|--------|--------|--------|--------|


 C|--------|--------|--------|--------|--------|--------|--------|--------|--------|
 G|--------|--------|--------|--------|--------|--------|--------|--------|--------|
D#|--------|--------|--------|--------|--------|--------|--------|--------|--------|
A#|--------|--------|--------|--------|--------|--------|--------|--------|--------|
 F|--------|--------|--------|--------|--------|--------|--------|--------|--------|
 C|--------|--------|--------|--------|--------|--------|--------|--------|--------|


 C|-------------------------------------|---------------------------------|-------------------------------------|
 G|-------------------------------------|---------------------------------|-------------------------------------|
D#|-------------------------------------|-------------------------7---9---|-------------------------------------|
A#|-----2---2---------------------------|-------------------------7-------|-----2---2---------------------------|
 F|-----2---2-------2---------3---------|-3---2---2-------2---5---5-------|-----2---2-------2---------3---------|
 C|-----0---0-------0---3--3--1---3--3--|-1---0---0-------0---------------|-----0---0-------0---3--3--1---3--3--|


 C|---------------------------------|-------------------------------------|-----------------------------------|
 G|---------------------------------|-------------------------------------|-----------------------------------|
D#|-------------------------7---5---|-5-----------------------------------|-----------------------------------|
A#|-------------------------7---5---|-5---2---2---------------------------|-------------------3---0---0---1---|
 F|-3---2---2-------2---5---5---3---|-3---2---2-------2---------3---------|-3---2---2---2--2--1---0---0---1---|
 C|-1---0---0-------0---------------|-----0---0-------0---3--3--1---3--3--|-1---0---0---0--0------------------|


 C|-------------------------------------|---------------------------------|-------------------------------------|
 G|-------------------------------------|---------------------------------|-------------------------------------|
D#|-------------------------------------|-------------------------7---5---|-5-----------------------------------|
A#|-1---2-------------------------------|-------------------------7---5---|-5---2---2---------------------------|
 F|-1---2-----------2---------3---------|-3---2---2-------2---5---5---3---|-3---2---2-------2---------3---------|
 C|---------0-------0---3--3--1---3--3--|-1---0---0-------0---------------|-----0---0-------0---3--3--1---3--3--|


 C|-----------------------------------|------------|-----------------|--------------|
 G|-----------------------------------|------------|-----------------|--------------|
D#|-----------------------------------|------------|-----------------|-------5------|
A#|-------------------3---0---0---1---|-1---2------|-----------------|-------5------|
 F|-3---2---2---2--2--1---0---0---1---|-1---0------|-----------2-----|-------3------|
 C|-1---0---0---0--0------------------|------------|-----------------|--------------|


 C|------------|-----------------|------------------|------------|-----------------|
 G|------------|-----------------|------------------|------------|-----------------|
D#|------------|-----------------|------------------|------------|-----------------|
A#|-----3------|-----------5-----|-------5-----7----|-----2------|-----------5-----|
 F|-----3------|-----------5-----|-------5-----7----|-----0------|-----------5-----|
 C|-----1------|-----------3-----|-------3----------|------------|-----------3-----|


 C|--------|----------------|------------------------|---------------------------|
 G|--------|----------------|------------------------|---------------------------|
D#|--------|----------------|------2-----------------|---------------------------|
A#|--------|-----3------3---|----------3-------------|-------------------6-------|
 F|--------|-----3------3---|--------------5---2-----|-2---2---------------------|
 C|--------|-----1------1---|------------------------|---------5---4-------------|


 C|-----------------0---------------|---------0-----------------------|-0----------------------------|
 G|-------------0-------0-----------|-----0-------0---------------0---|-----0------------------------|
D#|---------4---------------5-------|-4---------------5-------4-------|---------5---2----2---2-------|
A#|---------------------------------|---------------------------------|-------------0----0---0-------|
 F|-----0-----------------------3---|---------------------------------|--------------------------3---|
 C|---------------------------------|---------------------1-----------|------------------------------|


 C|-----------------0---------------|---------0-----------------------|-0----------------------|
 G|-------------0-------0-----------|-----0-------0---------------0---|-----0------------------|
D#|---------4---------------5-------|-4---------------5-------4-------|---------5--------------|
A#|---------------------------------|---------------------------------|------------------------|
 F|-2---0-----------------------3---|---------------------------------|-------------5----------|
 C|---------------------------------|---------------------1-----------|-------------3-----7----|


 C|-----------------0---------------|---------0-----------------------|-0----------------------------|
 G|-------------0-------0-----------|-----0-------0---------------0---|-----0------------------------|
D#|---------4---------------5-------|-4---------------5-------4-------|---------5---2----2---2-------|
A#|---------------------------------|---------------------------------|-------------0----0---0-------|
 F|-----0-----------------------3---|---------------------------------|--------------------------3---|
 C|---------------------------------|---------------------1-----------|------------------------------|


 C|-----------------0---------------|---------0-----------------------|-0----------------------|
 G|-------------0-------0-----------|-----0-------0---------------0---|-----0------------------|
D#|---------4---------------5-------|-4---------------5-------4-------|---------5--------------|
A#|---------------------------------|---------------------------------|------------------------|
 F|-2---0-----------------------3---|---------------------------------|-------------5----------|
 C|---------------------------------|---------------------1-----------|-------------3-----7----|


 C|---------------------------|---------------------|--------|------------|-----------------|
 G|---------------------------|---------------------|--------|------------|-----------------|
D#|-----2--------2--------2---|---------2-----5-----|--------|------------|-----------7-----|
A#|-----2--------2--------2---|---------2-----5-----|--------|-----3------|-----------7-----|
 F|-----0----0--------0-------|-----0---------3-----|--------|-----3------|-----------5-----|
 C|---------------------------|---------------------|--------|-----1------|-----------------|


 C|--------------|---------------------------|---------------------|--------|------------|
 G|--------------|---------------------------|---------------------|--------|------------|
D#|--------------|-----2--------2--------2---|---------2-----5-----|--------|------------|
A#|-------5------|-----2--------2--------2---|---------2-----5-----|--------|-----3------|
 F|-------5------|-----0----0--------0-------|-----0---------3-----|--------|-----3------|
 C|-------3------|---------------------------|---------------------|--------|-----1------|


 C|-----------------|--------------|---------------------------|---------------------|
 G|-----------------|--------------|---------------------------|---------------------|
D#|-----------7-----|--------------|-----2--------2--------2---|---------2-----5-----|
A#|-----------7-----|-------5------|-----2--------2--------2---|---------2-----5-----|
 F|-----------5-----|-------5------|-----0----0--------0-------|-----0---------3-----|
 C|-----------------|-------3------|---------------------------|---------------------|


 C|--------|------------|-----------------|--------------|---------------------------|
 G|--------|------------|-----------------|--------------|---------------------------|
D#|--------|------------|-----------7-----|--------------|-----2--------2--------2---|
A#|--------|-----3------|-----------7-----|-------5------|-----2--------2--------2---|
 F|--------|-----3------|-----------5-----|-------5------|-----0----0--------0-------|
 C|--------|-----1------|-----------------|-------3------|---------------------------|


 C|---------------------|--------|------------|-----------------|--------------|---------------------------|
 G|---------------------|--------|------------|-----------------|--------------|---------------------------|
D#|---------2-----5-----|--------|------------|-----------7-----|--------------|-----2--------2--------2---|
A#|---------2-----5-----|--------|-----3------|-----------7-----|-------5------|-----2--------2--------2---|
 F|-----0---------3-----|--------|-----3------|-----------5-----|-------5------|-----0----0--------0-------|
 C|---------------------|--------|-----1------|-----------------|-------3------|---------------------------|


 C|---------------------|--------|------------|-----------------|--------------|---------------------------|
 G|---------------------|--------|------------|-----------------|--------------|---------------------------|
D#|---------2-----5-----|--------|------------|-----------7-----|--------------|-----2--------2--------2---|
A#|---------2-----5-----|--------|-----3------|-----------7-----|-------5------|-----2--------2--------2---|
 F|-----0---------3-----|--------|-----3------|-----------5-----|-------5------|-----0----0--------0-------|
 C|---------------------|--------|-----1------|-----------------|-------3------|---------------------------|


 C|---------------------|--------|------------|-----------------|--------------|---------------------------|
 G|---------------------|--------|------------|-----------------|--------------|---------------------------|
D#|---------2-----5-----|--------|------------|-----------7-----|--------------|-----2--------2--------2---|
A#|---------2-----5-----|--------|-----3------|-----------7-----|-------5------|-----2--------2--------2---|
 F|-----0---------3-----|--------|-----3------|-----------5-----|-------5------|-----0----0--------0-------|
 C|---------------------|--------|-----1------|-----------------|-------3------|---------------------------|


 C|---------------------|--------|------------|-----------------|--------------|---------------------------|
 G|---------------------|--------|------------|-----------------|--------------|---------------------------|
D#|---------2-----5-----|--------|------------|-----------7-----|--------------|-----2--------2--------2---|
A#|---------2-----5-----|--------|-----3------|-----------7-----|-------5------|-----2--------2--------2---|
 F|-----0---------3-----|--------|-----3------|-----------5-----|-------5------|-----0----0--------0-------|
 C|---------------------|--------|-----1------|-----------------|-------3------|---------------------------|


 C|---------------------|--------|------------|-----------------|--------------|---------------------------|
 G|---------------------|--------|------------|-----------------|--------------|---------------------------|
D#|---------2-----5-----|--------|------------|-----------7-----|--------------|-----2--------2--------2---|
A#|---------2-----5-----|--------|-----3------|-----------7-----|-------5------|-----2--------2--------2---|
 F|-----0---------3-----|--------|-----3------|-----------5-----|-------5------|-----0----0--------0-------|
 C|---------------------|--------|-----1------|-----------------|-------3------|---------------------------|


 C|---------------------|--------|------------|-----------------|--------------|------------|
 G|---------------------|--------|------------|-----------------|--------------|------------|
D#|---------2-----5-----|--------|------------|-----------7-----|--------------|-----2------|
A#|---------2-----5-----|--------|-----3------|-----------7-----|-------5------|-----2------|
 F|-----0---------3-----|--------|-----3------|-----------5-----|-------5------|-----0------|
 C|---------------------|--------|-----1------|-----------------|-------3------|------------|


 C|-----------------|--------|--------|--------|--------|--------|--------|
 G|-----------------|--------|--------|--------|--------|--------|--------|
D#|-----------5-----|--------|--------|--------|--------|--------|--------|
A#|-----------5-----|--------|--------|--------|--------|--------|--------|
 F|-----------3-----|--------|--------|--------|--------|--------|--------|
 C|-----------------|--------|--------|--------|--------|--------|--------|





Track 3: Piano

 F|--------|--------|--------|--------|--------|--------|--------|--------|--------|
 C|--------|--------|--------|--------|--------|--------|--------|--------|--------|
 G|--------|--------|--------|--------|--------|--------|--------|--------|--------|
D#|--------|--------|--------|--------|--------|--------|--------|--------|--------|
A#|--------|--------|--------|--------|--------|--------|--------|--------|--------|
 F|--------|--------|--------|--------|--------|--------|--------|--------|--------|
 C|--------|--------|--------|--------|--------|--------|--------|--------|--------|


 F|--------|--------|--------|--------|--------|--------|--------|--------|--------|
 C|--------|--------|--------|--------|--------|--------|--------|--------|--------|
 G|--------|--------|--------|--------|--------|--------|--------|--------|--------|
D#|--------|--------|--------|--------|--------|--------|--------|--------|--------|
A#|--------|--------|--------|--------|--------|--------|--------|--------|--------|
 F|--------|--------|--------|--------|--------|--------|--------|--------|--------|
 C|--------|--------|--------|--------|--------|--------|--------|--------|--------|


 F|--------|--------|--------|--------|--------|--------|--------|--------|--------|
 C|--------|--------|--------|--------|--------|--------|--------|--------|--------|
 G|--------|--------|--------|--------|--------|--------|--------|--------|--------|
D#|--------|--------|--------|--------|--------|--------|--------|--------|--------|
A#|--------|--------|--------|--------|--------|--------|--------|--------|--------|
 F|--------|--------|--------|--------|--------|--------|--------|--------|--------|
 C|--------|--------|--------|--------|--------|--------|--------|--------|--------|


 F|--------|--------|--------|--------|--------|--------|--------|--------|--------|
 C|--------|--------|--------|--------|--------|--------|--------|--------|--------|
 G|--------|--------|--------|--------|--------|--------|--------|--------|--------|
D#|--------|--------|--------|--------|--------|--------|--------|--------|--------|
A#|--------|--------|--------|--------|--------|--------|--------|--------|--------|
 F|--------|--------|--------|--------|--------|--------|--------|--------|--------|
 C|--------|--------|--------|--------|--------|--------|--------|--------|--------|


 F|--------|--------|--------|--------|--------|--------|--------|--------|--------|
 C|--------|--------|--------|--------|--------|--------|--------|--------|--------|
 G|--------|--------|--------|--------|--------|--------|--------|--------|--------|
D#|--------|--------|--------|--------|--------|--------|--------|--------|--------|
A#|--------|--------|--------|--------|--------|--------|--------|--------|--------|
 F|--------|--------|--------|--------|--------|--------|--------|--------|--------|
 C|--------|--------|--------|--------|--------|--------|--------|--------|--------|


 F|--------|--------|--------|--------|--------|--------|--------|--------|--------|
 C|--------|--------|--------|--------|--------|--------|--------|--------|--------|
 G|--------|--------|--------|--------|--------|--------|--------|--------|--------|
D#|--------|--------|--------|--------|--------|--------|--------|--------|--------|
A#|--------|--------|--------|--------|--------|--------|--------|--------|--------|
 F|--------|--------|--------|--------|--------|--------|--------|--------|--------|
 C|--------|--------|--------|--------|--------|--------|--------|--------|--------|


 F|--------|--------|--------|-----------2---------|-3---------7---------|-----------2---------|
 C|--------|--------|--------|-5-------------------|-----------8---------|-5-------------------|
 G|--------|--------|--------|-5----5----5----5----|-5----5----10---5----|-5----5----5----5----|
D#|--------|--------|--------|-2---------2---------|-2-------------------|-2---------2---------|
A#|--------|--------|--------|------2---------2----|------2---------2----|------2---------2----|
 F|--------|--------|--------|---------------------|---------------------|---------------------|
 C|--------|--------|--------|---------------------|---------------------|---------------------|


 F|-3---------8---------|-----------2---------|-3-----------|-5------3----|-2---2---3----------|
 C|-----------8---------|-5-------------------|-------------|-3------3----|-3---3---3----------|
 G|-5----5----6----5----|-5----5----5----5----|-5----5------|-3------1----|-0---0---1----------|
D#|-2-------------------|-2---------2---------|-2-----------|-------------|--------------------|
A#|------2---------2----|------2---------2----|------2------|-5-----------|--------------------|
 F|---------------------|---------------------|-------------|--------3----|-2---2---3----------|
 C|---------------------|---------------------|-------------|-------------|--------------------|


 F|--------|--------|--------|--------|--------|--------|--------|--------|--------|
 C|--------|--------|--------|--------|--------|--------|--------|--------|--------|
 G|--------|--------|--------|--------|--------|--------|--------|--------|--------|
D#|--------|--------|--------|--------|--------|--------|--------|--------|--------|
A#|--------|--------|--------|--------|--------|--------|--------|--------|--------|
 F|--------|--------|--------|--------|--------|--------|--------|--------|--------|
 C|--------|--------|--------|--------|--------|--------|--------|--------|--------|


 F|--------|--------|--------|--------|--------|--------|--------|--------|--------|
 C|--------|--------|--------|--------|--------|--------|--------|--------|--------|
 G|--------|--------|--------|--------|--------|--------|--------|--------|--------|
D#|--------|--------|--------|--------|--------|--------|--------|--------|--------|
A#|--------|--------|--------|--------|--------|--------|--------|--------|--------|
 F|--------|--------|--------|--------|--------|--------|--------|--------|--------|
 C|--------|--------|--------|--------|--------|--------|--------|--------|--------|


 F|--------|--------|--------|--------|--------|--------|--------|--------|--------|
 C|--------|--------|--------|--------|--------|--------|--------|--------|--------|
 G|--------|--------|--------|--------|--------|--------|--------|--------|--------|
D#|--------|--------|--------|--------|--------|--------|--------|--------|--------|
A#|--------|--------|--------|--------|--------|--------|--------|--------|--------|
 F|--------|--------|--------|--------|--------|--------|--------|--------|--------|
 C|--------|--------|--------|--------|--------|--------|--------|--------|--------|


 F|--------|--------|--------|--------|--------|--------|--------|--------|--------|
 C|--------|--------|--------|--------|--------|--------|--------|--------|--------|
 G|--------|--------|--------|--------|--------|--------|--------|--------|--------|
D#|--------|--------|--------|--------|--------|--------|--------|--------|--------|
A#|--------|--------|--------|--------|--------|--------|--------|--------|--------|
 F|--------|--------|--------|--------|--------|--------|--------|--------|--------|
 C|--------|--------|--------|--------|--------|--------|--------|--------|--------|


 F|--------|--------|--------|--------|--------|--------|--------|--------|--------|
 C|--------|--------|--------|--------|--------|--------|--------|--------|--------|
 G|--------|--------|--------|--------|--------|--------|--------|--------|--------|
D#|--------|--------|--------|--------|--------|--------|--------|--------|--------|
A#|--------|--------|--------|--------|--------|--------|--------|--------|--------|
 F|--------|--------|--------|--------|--------|--------|--------|--------|--------|
 C|--------|--------|--------|--------|--------|--------|--------|--------|--------|


 F|--------|--------|--------|--------|--------|--------|--------|--------|--------|
 C|--------|--------|--------|--------|--------|--------|--------|--------|--------|
 G|--------|--------|--------|--------|--------|--------|--------|--------|--------|
D#|--------|--------|--------|--------|--------|--------|--------|--------|--------|
A#|--------|--------|--------|--------|--------|--------|--------|--------|--------|
 F|--------|--------|--------|--------|--------|--------|--------|--------|--------|
 C|--------|--------|--------|--------|--------|--------|--------|--------|--------|


 F|--------|--------|--------|--------|--------|--------|--------|--------|--------|
 C|--------|--------|--------|--------|--------|--------|--------|--------|--------|
 G|--------|--------|--------|--------|--------|--------|--------|--------|--------|
D#|--------|--------|--------|--------|--------|--------|--------|--------|--------|
A#|--------|--------|--------|--------|--------|--------|--------|--------|--------|
 F|--------|--------|--------|--------|--------|--------|--------|--------|--------|
 C|--------|--------|--------|--------|--------|--------|--------|--------|--------|


 F|--------|--------|--------|--------|--------|--------|--------|--------|--------|
 C|--------|--------|--------|--------|--------|--------|--------|--------|--------|
 G|--------|--------|--------|--------|--------|--------|--------|--------|--------|
D#|--------|--------|--------|--------|--------|--------|--------|--------|--------|
A#|--------|--------|--------|--------|--------|--------|--------|--------|--------|
 F|--------|--------|--------|--------|--------|--------|--------|--------|--------|
 C|--------|--------|--------|--------|--------|--------|--------|--------|--------|


 F|--------|--------|--------|--------|--------|--------|--------|--------|--------|
 C|--------|--------|--------|--------|--------|--------|--------|--------|--------|
 G|--------|--------|--------|--------|--------|--------|--------|--------|--------|
D#|--------|--------|--------|--------|--------|--------|--------|--------|--------|
A#|--------|--------|--------|--------|--------|--------|--------|--------|--------|
 F|--------|--------|--------|--------|--------|--------|--------|--------|--------|
 C|--------|--------|--------|--------|--------|--------|--------|--------|--------|


 F|--------|--------|--------|--------|--------|--------|--------|--------|--------|
 C|--------|--------|--------|--------|--------|--------|--------|--------|--------|
 G|--------|--------|--------|--------|--------|--------|--------|--------|--------|
D#|--------|--------|--------|--------|--------|--------|--------|--------|--------|
A#|--------|--------|--------|--------|--------|--------|--------|--------|--------|
 F|--------|--------|--------|--------|--------|--------|--------|--------|--------|
 C|--------|--------|--------|--------|--------|--------|--------|--------|--------|


 F|--------|--------|--------|--------|--------|--------|--------|--------|--------|
 C|--------|--------|--------|--------|--------|--------|--------|--------|--------|
 G|--------|--------|--------|--------|--------|--------|--------|--------|--------|
D#|--------|--------|--------|--------|--------|--------|--------|--------|--------|
A#|--------|--------|--------|--------|--------|--------|--------|--------|--------|
 F|--------|--------|--------|--------|--------|--------|--------|--------|--------|
 C|--------|--------|--------|--------|--------|--------|--------|--------|--------|


 F|--------|--------|--------|--------|--------|--------|--------|--------|--------|
 C|--------|--------|--------|--------|--------|--------|--------|--------|--------|
 G|--------|--------|--------|--------|--------|--------|--------|--------|--------|
D#|--------|--------|--------|--------|--------|--------|--------|--------|--------|
A#|--------|--------|--------|--------|--------|--------|--------|--------|--------|
 F|--------|--------|--------|--------|--------|--------|--------|--------|--------|
 C|--------|--------|--------|--------|--------|--------|--------|--------|--------|


 F|--------|--------|--------|--------|--------|--------|--------|--------|--------|
 C|--------|--------|--------|--------|--------|--------|--------|--------|--------|
 G|--------|--------|--------|--------|--------|--------|--------|--------|--------|
D#|--------|--------|--------|--------|--------|--------|--------|--------|--------|
A#|--------|--------|--------|--------|--------|--------|--------|--------|--------|
 F|--------|--------|--------|--------|--------|--------|--------|--------|--------|
 C|--------|--------|--------|--------|--------|--------|--------|--------|--------|


 F|--------|--------|--------|--------|--------|--------|--------|--------|--------|
 C|--------|--------|--------|--------|--------|--------|--------|--------|--------|
 G|--------|--------|--------|--------|--------|--------|--------|--------|--------|
D#|--------|--------|--------|--------|--------|--------|--------|--------|--------|
A#|--------|--------|--------|--------|--------|--------|--------|--------|--------|
 F|--------|--------|--------|--------|--------|--------|--------|--------|--------|
 C|--------|--------|--------|--------|--------|--------|--------|--------|--------|


 F|--------|--------|--------|--------|--------|--------|--------|--------|--------|
 C|--------|--------|--------|--------|--------|--------|--------|--------|--------|
 G|--------|--------|--------|--------|--------|--------|--------|--------|--------|
D#|--------|--------|--------|--------|--------|--------|--------|--------|--------|
A#|--------|--------|--------|--------|--------|--------|--------|--------|--------|
 F|--------|--------|--------|--------|--------|--------|--------|--------|--------|
 C|--------|--------|--------|--------|--------|--------|--------|--------|--------|


 F|--------|--------|--------|--------|--------|--------|--------|--------|--------|
 C|--------|--------|--------|--------|--------|--------|--------|--------|--------|
 G|--------|--------|--------|--------|--------|--------|--------|--------|--------|
D#|--------|--------|--------|--------|--------|--------|--------|--------|--------|
A#|--------|--------|--------|--------|--------|--------|--------|--------|--------|
 F|--------|--------|--------|--------|--------|--------|--------|--------|--------|
 C|--------|--------|--------|--------|--------|--------|--------|--------|--------|


 F|--------|--------|--------|--------|--------|--------|--------|--------|--------|
 C|--------|--------|--------|--------|--------|--------|--------|--------|--------|
 G|--------|--------|--------|--------|--------|--------|--------|--------|--------|
D#|--------|--------|--------|--------|--------|--------|--------|--------|--------|
A#|--------|--------|--------|--------|--------|--------|--------|--------|--------|
 F|--------|--------|--------|--------|--------|--------|--------|--------|--------|
 C|--------|--------|--------|--------|--------|--------|--------|--------|--------|


 F|--------|--------|--------|--------|--------|--------|--------|--------|--------|
 C|--------|--------|--------|--------|--------|--------|--------|--------|--------|
 G|--------|--------|--------|--------|--------|--------|--------|--------|--------|
D#|--------|--------|--------|--------|--------|--------|--------|--------|--------|
A#|--------|--------|--------|--------|--------|--------|--------|--------|--------|
 F|--------|--------|--------|--------|--------|--------|--------|--------|--------|
 C|--------|--------|--------|--------|--------|--------|--------|--------|--------|


 F|--------|--------|--------|--------|--------|--------|--------|--------|--------|
 C|--------|--------|--------|--------|--------|--------|--------|--------|--------|
 G|--------|--------|--------|--------|--------|--------|--------|--------|--------|
D#|--------|--------|--------|--------|--------|--------|--------|--------|--------|
A#|--------|--------|--------|--------|--------|--------|--------|--------|--------|
 F|--------|--------|--------|--------|--------|--------|--------|--------|--------|
 C|--------|--------|--------|--------|--------|--------|--------|--------|--------|


 F|--------|--------|--------|--------|--------|--------|--------|--------|--------|
 C|--------|--------|--------|--------|--------|--------|--------|--------|--------|
 G|--------|--------|--------|--------|--------|--------|--------|--------|--------|
D#|--------|--------|--------|--------|--------|--------|--------|--------|--------|
A#|--------|--------|--------|--------|--------|--------|--------|--------|--------|
 F|--------|--------|--------|--------|--------|--------|--------|--------|--------|
 C|--------|--------|--------|--------|--------|--------|--------|--------|--------|


 F|--------|--------|--------|--------|--------|--------|--------|--------|-----0-----2-----|
 C|--------|--------|--------|--------|--------|--------|--------|--------|-----1-----1-----|
 G|--------|--------|--------|--------|--------|--------|--------|--------|-----3-----3-----|
D#|--------|--------|--------|--------|--------|--------|--------|--------|-----2-----2-----|
A#|--------|--------|--------|--------|--------|--------|--------|--------|-----------------|
 F|--------|--------|--------|--------|--------|--------|--------|--------|-----------------|
 C|--------|--------|--------|--------|--------|--------|--------|--------|-----------------|


 F|-----3-----5-----|-----7-----8-----|-----10----12----|--------|--------|--------|
 C|-----1-----5-----|-----5-----5-----|-----10----13----|--------|--------|--------|
 G|-----3-----6-----|-----6-----6-----|-----10----15----|--------|--------|--------|
D#|-----2-----7-----|-----9-----7-----|-----10----14----|--------|--------|--------|
A#|-----------------|-----------------|-----------------|--------|--------|--------|
 F|-----------------|-----------------|-----------------|--------|--------|--------|
 C|-----------------|-----------------|-----------------|--------|--------|--------|


 F|--------|--------|--------|--------|--------|--------|--------|--------|--------|
 C|--------|--------|--------|--------|--------|--------|--------|--------|--------|
 G|--------|--------|--------|--------|--------|--------|--------|--------|--------|
D#|--------|--------|--------|--------|--------|--------|--------|--------|--------|
A#|--------|--------|--------|--------|--------|--------|--------|--------|--------|
 F|--------|--------|--------|--------|--------|--------|--------|--------|--------|
 C|--------|--------|--------|--------|--------|--------|--------|--------|--------|


 F|--------|--------|--------|--------|-----0-----2-----|-----3-----5-----|-----------5-----|
 C|--------|--------|--------|--------|-----1-----1-----|-----1-----5-----|-----5-----5-----|
 G|--------|--------|--------|--------|-----3-----3-----|-----3-----6-----|-----6-----6-----|
D#|--------|--------|--------|--------|-----2-----2-----|-----2-----7-----|-----7-----7-----|
A#|--------|--------|--------|--------|-----------------|-----------------|-----------------|
 F|--------|--------|--------|--------|-----------------|-----------------|-----------------|
 C|--------|--------|--------|--------|-----------------|-----------------|-----------------|


 F|-----20----23----|------------|--------|--------|--------|--------|--------|--------|
 C|-----13----13----|-----12-----|--------|--------|--------|--------|--------|--------|
 G|-----15----15----|-----9------|--------|--------|--------|--------|--------|--------|
D#|-----14----14----|-----9------|--------|--------|--------|--------|--------|--------|
A#|-----15----15----|-----9------|--------|--------|--------|--------|--------|--------|
 F|-----------------|-----7------|--------|--------|--------|--------|--------|--------|
 C|-----------------|-----0------|--------|--------|--------|--------|--------|--------|


 F|--------|--------|--------|--------|--------|--------|--------|--------|--------|
 C|--------|--------|--------|--------|--------|--------|--------|--------|--------|
 G|--------|--------|--------|--------|--------|--------|--------|--------|--------|
D#|--------|--------|--------|--------|--------|--------|--------|--------|--------|
A#|--------|--------|--------|--------|--------|--------|--------|--------|--------|
 F|--------|--------|--------|--------|--------|--------|--------|--------|--------|
 C|--------|--------|--------|--------|--------|--------|--------|--------|--------|


 F|--------|--------|--------|--------|--------|--------|--------|--------|--------|
 C|--------|--------|--------|--------|--------|--------|--------|--------|--------|
 G|--------|--------|--------|--------|--------|--------|--------|--------|--------|
D#|--------|--------|--------|--------|--------|--------|--------|--------|--------|
A#|--------|--------|--------|--------|--------|--------|--------|--------|--------|
 F|--------|--------|--------|--------|--------|--------|--------|--------|--------|
 C|--------|--------|--------|--------|--------|--------|--------|--------|--------|


 F|--------|--------|--------|--------|--------|--------|--------|--------|--------|
 C|--------|--------|--------|--------|--------|--------|--------|--------|--------|
 G|--------|--------|--------|--------|--------|--------|--------|--------|--------|
D#|--------|--------|--------|--------|--------|--------|--------|--------|--------|
A#|--------|--------|--------|--------|--------|--------|--------|--------|--------|
 F|--------|--------|--------|--------|--------|--------|--------|--------|--------|
 C|--------|--------|--------|--------|--------|--------|--------|--------|--------|


 F|--------|--------|--------|--------|--------|--------|--------|--------|--------|
 C|--------|--------|--------|--------|--------|--------|--------|--------|--------|
 G|--------|--------|--------|--------|--------|--------|--------|--------|--------|
D#|--------|--------|--------|--------|--------|--------|--------|--------|--------|
A#|--------|--------|--------|--------|--------|--------|--------|--------|--------|
 F|--------|--------|--------|--------|--------|--------|--------|--------|--------|
 C|--------|--------|--------|--------|--------|--------|--------|--------|--------|


 F|--------|--------|--------|--------|--------|--------|--------|--------|--------|
 C|--------|--------|--------|--------|--------|--------|--------|--------|--------|
 G|--------|--------|--------|--------|--------|--------|--------|--------|--------|
D#|--------|--------|--------|--------|--------|--------|--------|--------|--------|
A#|--------|--------|--------|--------|--------|--------|--------|--------|--------|
 F|--------|--------|--------|--------|--------|--------|--------|--------|--------|
 C|--------|--------|--------|--------|--------|--------|--------|--------|--------|


 F|--------|--------|--------|--------|--------|--------|--------|--------|--------|
 C|--------|--------|--------|--------|--------|--------|--------|--------|--------|
 G|--------|--------|--------|--------|--------|--------|--------|--------|--------|
D#|--------|--------|--------|--------|--------|--------|--------|--------|--------|
A#|--------|--------|--------|--------|--------|--------|--------|--------|--------|
 F|--------|--------|--------|--------|--------|--------|--------|--------|--------|
 C|--------|--------|--------|--------|--------|--------|--------|--------|--------|


 F|--------|--------|--------|--------|--------|--------|--------|--------|--------|
 C|--------|--------|--------|--------|--------|--------|--------|--------|--------|
 G|--------|--------|--------|--------|--------|--------|--------|--------|--------|
D#|--------|--------|--------|--------|--------|--------|--------|--------|--------|
A#|--------|--------|--------|--------|--------|--------|--------|--------|--------|
 F|--------|--------|--------|--------|--------|--------|--------|--------|--------|
 C|--------|--------|--------|--------|--------|--------|--------|--------|--------|


 F|--------|--------|--------|--------|--------|--------|--------|--------|--------|
 C|--------|--------|--------|--------|--------|--------|--------|--------|--------|
 G|--------|--------|--------|--------|--------|--------|--------|--------|--------|
D#|--------|--------|--------|--------|--------|--------|--------|--------|--------|
A#|--------|--------|--------|--------|--------|--------|--------|--------|--------|
 F|--------|--------|--------|--------|--------|--------|--------|--------|--------|
 C|--------|--------|--------|--------|--------|--------|--------|--------|--------|


 F|--------|--------|--------|--------|--------|--------|--------|--------|--------|
 C|--------|--------|--------|--------|--------|--------|--------|--------|--------|
 G|--------|--------|--------|--------|--------|--------|--------|--------|--------|
D#|--------|--------|--------|--------|--------|--------|--------|--------|--------|
A#|--------|--------|--------|--------|--------|--------|--------|--------|--------|
 F|--------|--------|--------|--------|--------|--------|--------|--------|--------|
 C|--------|--------|--------|--------|--------|--------|--------|--------|--------|


 F|--------|-----------14----15--|------19-------------|-14----15---1515----20---|
 C|--------|-----17--------------|------20-------17----|----------------17--20---|
 G|--------|-----17----17----17--|------22-------17----|-17----17---------1722---|
D#|--------|-----14----14----14--|------21-------14----|-14----14-----------22---|
A#|--------|-----2---------------|---------------5-----|-------------------------|
 F|--------|-----0---------------|---------------3-----|-------------------------|
 C|--------|---------------------|---------------------|-------------------------|


 F|-----------7------------24--|-----19------12---------------|----------5-------------|
 C|-----17----8----------1724--|---------8---12-----------7---|-----8----8--------7----|
 G|-----17----10-------17--22--|---------10--13------6--------|-----10---8--------8----|
D#|-----14----9------17--------|---------9---14------7----4---|-----10---7--------7----|
A#|-----------10---19----------|---------10----------7--------|-----12---5--------9----|
 F|-----------12---------------|---------12------0---5--------|-5---12------------10---|
 C|-----1-----12---------------|------------------------------|---------------3--------|


 F|-----------------------------7---|-------------------2323--23---------|
 C|-------------------------8-------|-----------------24-----------------|
 G|---------------------10----------|---------------25-------------------|
D#|-----------------9---------------|-----------2526---------------------|
A#|-------------10------------------|---------26-------------------------|
 F|---------12----------------------|-------27---------------------0-----|
 C|-----5---------------------------|-----29-----------------------------|





Track 4: Distortion 2

 C|--------|--------|--------|--------|--------|--------|--------|--------|--------|
 G|--------|--------|--------|--------|--------|--------|--------|--------|--------|
D#|--------|--------|--------|--------|--------|--------|--------|--------|--------|
A#|--------|--------|--------|--------|--------|--------|--------|--------|--------|
 F|--------|--------|--------|--------|--------|--------|--------|--------|--------|
 C|--------|--------|--------|--------|--------|--------|--------|--------|--------|


 C|--------|--------|--------|--------|--------|--------|--------|--------|--------|
 G|--------|--------|--------|--------|--------|--------|--------|--------|--------|
D#|--------|--------|--------|--------|--------|--------|--------|--------|--------|
A#|--------|--------|--------|--------|--------|--------|--------|--------|--------|
 F|--------|--------|--------|--------|--------|--------|--------|--------|--------|
 C|--------|--------|--------|--------|--------|--------|--------|--------|--------|


 C|--------|--------|--------|--------|--------|--------|--------|--------|--------|
 G|--------|--------|--------|--------|--------|--------|--------|--------|--------|
D#|--------|--------|--------|--------|--------|--------|--------|--------|--------|
A#|--------|--------|--------|--------|--------|--------|--------|--------|--------|
 F|--------|--------|--------|--------|--------|--------|--------|--------|--------|
 C|--------|--------|--------|--------|--------|--------|--------|--------|--------|


 C|--------|--------|--------|--------|--------|--------|--------|--------|--------|
 G|--------|--------|--------|--------|--------|--------|--------|--------|--------|
D#|--------|--------|--------|--------|--------|--------|--------|--------|--------|
A#|--------|--------|--------|--------|--------|--------|--------|--------|--------|
 F|--------|--------|--------|--------|--------|--------|--------|--------|--------|
 C|--------|--------|--------|--------|--------|--------|--------|--------|--------|


 C|--------|--------|--------|--------|--------|--------|--------|--------|--------|
 G|--------|--------|--------|--------|--------|--------|--------|--------|--------|
D#|--------|--------|--------|--------|--------|--------|--------|--------|--------|
A#|--------|--------|--------|--------|--------|--------|--------|--------|--------|
 F|--------|--------|--------|--------|--------|--------|--------|--------|--------|
 C|--------|--------|--------|--------|--------|--------|--------|--------|--------|


 C|--------|--------|--------|--------|--------|--------|--------|--------|--------|
 G|--------|--------|--------|--------|--------|--------|--------|--------|--------|
D#|--------|--------|--------|--------|--------|--------|--------|--------|--------|
A#|--------|--------|--------|--------|--------|--------|--------|--------|--------|
 F|--------|--------|--------|--------|--------|--------|--------|--------|--------|
 C|--------|--------|--------|--------|--------|--------|--------|--------|--------|


 C|--------|--------|--------|--------|--------|--------|--------|--------|--------|
 G|--------|--------|--------|--------|--------|--------|--------|--------|--------|
D#|--------|--------|--------|--------|--------|--------|--------|--------|--------|
A#|--------|--------|--------|--------|--------|--------|--------|--------|--------|
 F|--------|--------|--------|--------|--------|--------|--------|--------|--------|
 C|--------|--------|--------|--------|--------|--------|--------|--------|--------|


 C|--------|--------|--------|--------|--------|--------|--------|--------|--------|
 G|--------|--------|--------|--------|--------|--------|--------|--------|--------|
D#|--------|--------|--------|--------|--------|--------|--------|--------|--------|
A#|--------|--------|--------|--------|--------|--------|--------|--------|--------|
 F|--------|--------|--------|--------|--------|--------|--------|--------|--------|
 C|--------|--------|--------|--------|--------|--------|--------|--------|--------|


 C|--------|--------|--------|--------|--------|--------|--------|--------|--------|
 G|--------|--------|--------|--------|--------|--------|--------|--------|--------|
D#|--------|--------|--------|--------|--------|--------|--------|--------|--------|
A#|--------|--------|--------|--------|--------|--------|--------|--------|--------|
 F|--------|--------|--------|--------|--------|--------|--------|--------|--------|
 C|--------|--------|--------|--------|--------|--------|--------|--------|--------|


 C|--------|--------|--------|--------|--------|--------|--------|--------|--------|
 G|--------|--------|--------|--------|--------|--------|--------|--------|--------|
D#|--------|--------|--------|--------|--------|--------|--------|--------|--------|
A#|--------|--------|--------|--------|--------|--------|--------|--------|--------|
 F|--------|--------|--------|--------|--------|--------|--------|--------|--------|
 C|--------|--------|--------|--------|--------|--------|--------|--------|--------|


 C|--------|--------|--------|--------|--------|--------|--------|--------|--------|
 G|--------|--------|--------|--------|--------|--------|--------|--------|--------|
D#|--------|--------|--------|--------|--------|--------|--------|--------|--------|
A#|--------|--------|--------|--------|--------|--------|--------|--------|--------|
 F|--------|--------|--------|--------|--------|--------|--------|--------|--------|
 C|--------|--------|--------|--------|--------|--------|--------|--------|--------|


 C|--------|--------|--------|--------|--------|--------|--------|--------|--------|
 G|--------|--------|--------|--------|--------|--------|--------|--------|--------|
D#|--------|--------|--------|--------|--------|--------|--------|--------|--------|
A#|--------|--------|--------|--------|--------|--------|--------|--------|--------|
 F|--------|--------|--------|--------|--------|--------|--------|--------|--------|
 C|--------|--------|--------|--------|--------|--------|--------|--------|--------|


 C|--------|--------|--------|--------|--------|--------|--------|--------|--------|
 G|--------|--------|--------|--------|--------|--------|--------|--------|--------|
D#|--------|--------|--------|--------|--------|--------|--------|--------|--------|
A#|--------|--------|--------|--------|--------|--------|--------|--------|--------|
 F|--------|--------|--------|--------|--------|--------|--------|--------|--------|
 C|--------|--------|--------|--------|--------|--------|--------|--------|--------|


 C|--------|--------|--------|--------|--------|--------|--------|--------|--------|
 G|--------|--------|--------|--------|--------|--------|--------|--------|--------|
D#|--------|--------|--------|--------|--------|--------|--------|--------|--------|
A#|--------|--------|--------|--------|--------|--------|--------|--------|--------|
 F|--------|--------|--------|--------|--------|--------|--------|--------|--------|
 C|--------|--------|--------|--------|--------|--------|--------|--------|--------|


 C|--------|--------|--------|--------|--------|--------|--------|--------|--------|
 G|--------|--------|--------|--------|--------|--------|--------|--------|--------|
D#|--------|--------|--------|--------|--------|--------|--------|--------|--------|
A#|--------|--------|--------|--------|--------|--------|--------|--------|--------|
 F|--------|--------|--------|--------|--------|--------|--------|--------|--------|
 C|--------|--------|--------|--------|--------|--------|--------|--------|--------|


 C|--------|--------|--------|--------|--------|--------|--------|--------|--------|
 G|--------|--------|--------|--------|--------|--------|--------|--------|--------|
D#|--------|--------|--------|--------|--------|--------|--------|--------|--------|
A#|--------|--------|--------|--------|--------|--------|--------|--------|--------|
 F|--------|--------|--------|--------|--------|--------|--------|--------|--------|
 C|--------|--------|--------|--------|--------|--------|--------|--------|--------|


 C|--------|--------|--------|--------|--------|--------|--------|--------|--------|
 G|--------|--------|--------|--------|--------|--------|--------|--------|--------|
D#|--------|--------|--------|--------|--------|--------|--------|--------|--------|
A#|--------|--------|--------|--------|--------|--------|--------|--------|--------|
 F|--------|--------|--------|--------|--------|--------|--------|--------|--------|
 C|--------|--------|--------|--------|--------|--------|--------|--------|--------|


 C|--------|--------|--------|--------|--------|--------|--------|--------|--------|
 G|--------|--------|--------|--------|--------|--------|--------|--------|--------|
D#|--------|--------|--------|--------|--------|--------|--------|--------|--------|
A#|--------|--------|--------|--------|--------|--------|--------|--------|--------|
 F|--------|--------|--------|--------|--------|--------|--------|--------|--------|
 C|--------|--------|--------|--------|--------|--------|--------|--------|--------|


 C|--------|--------|--------|--------|--------|--------|--------|--------|--------|
 G|--------|--------|--------|--------|--------|--------|--------|--------|--------|
D#|--------|--------|--------|--------|--------|--------|--------|--------|--------|
A#|--------|--------|--------|--------|--------|--------|--------|--------|--------|
 F|--------|--------|--------|--------|--------|--------|--------|--------|--------|
 C|--------|--------|--------|--------|--------|--------|--------|--------|--------|


 C|--------|--------|--------|--------|--------|--------|--------|--------|--------|
 G|--------|--------|--------|--------|--------|--------|--------|--------|--------|
D#|--------|--------|--------|--------|--------|--------|--------|--------|--------|
A#|--------|--------|--------|--------|--------|--------|--------|--------|--------|
 F|--------|--------|--------|--------|--------|--------|--------|--------|--------|
 C|--------|--------|--------|--------|--------|--------|--------|--------|--------|


 C|--------|--------|--------|--------|--------|------------------------------|---------------------------------|
 G|--------|--------|--------|--------|--------|------------------------------|---------------------------------|
D#|--------|--------|--------|--------|--------|------------------------------|---------------------------------|
A#|--------|--------|--------|--------|--------|----------9---9-------10--9---|-7---10--9---------------10--9---|
 F|--------|--------|--------|--------|--------|------------------------------|---------------------------------|
 C|--------|--------|--------|--------|--------|------7-----------7-----------|-------------7---7---7-----------|


 C|---------------------------------|-------------------------------------|-----------------------------------|
 G|---------------------------------|-------------------------------------|-----------------------------------|
D#|---------------------------------|-------------------------------------|-----------------------------------|
A#|-7---10--9---------------10--9---|-7---10--9---------------------------|-4--5--7-------9---9-------10--9---|
 F|---------------------------------|---------------------------6--7--6---|-----------------------------------|
 C|-------------7---7---7-----------|-------------7---7---7--7------------|-----------7-----------7-----------|


 C|---------------------------------|---------------------------------|-------------------------------------|
 G|---------------------------------|---------------------------------|-------------------------------------|
D#|---------------------------------|---------------------------------|-------------------------------------|
A#|-7---10--9---------------10--9---|-7---10--9---------------10--9---|-7---10--9-----------------6--7--6---|
 F|---------------------------------|---------------------------------|---------------------------6--7--6---|
 C|-------------7---7---7-----------|-------------7---7---7-----------|-------------7---7---7--7------------|


 C|------------------|--------|--------|--------|--------|--------|--------|--------|
 G|------------------|--------|--------|--------|--------|--------|--------|--------|
D#|-4--5--7----------|--------|--------|--------|--------|--------|--------|--------|
A#|-4--5--7----------|--------|--------|--------|--------|--------|--------|--------|
 F|------------------|--------|--------|--------|--------|--------|--------|--------|
 C|------------------|--------|--------|--------|--------|--------|--------|--------|


 C|--------|--------|--------|--------|--------|--------|--------|--------|--------|
 G|--------|--------|--------|--------|--------|--------|--------|--------|--------|
D#|--------|--------|--------|--------|--------|--------|--------|--------|--------|
A#|--------|--------|--------|--------|--------|--------|--------|--------|--------|
 F|--------|--------|--------|--------|--------|--------|--------|--------|--------|
 C|--------|--------|--------|--------|--------|--------|--------|--------|--------|


 C|--------|--------|--------|--------|--------|--------|--------|--------|--------|
 G|--------|--------|--------|--------|--------|--------|--------|--------|--------|
D#|--------|--------|--------|--------|--------|--------|--------|--------|--------|
A#|--------|--------|--------|--------|--------|--------|--------|--------|--------|
 F|--------|--------|--------|--------|--------|--------|--------|--------|--------|
 C|--------|--------|--------|--------|--------|--------|--------|--------|--------|


 C|--------|--------|--------|--------|--------|--------|--------|--------|--------|
 G|--------|--------|--------|--------|--------|--------|--------|--------|--------|
D#|--------|--------|--------|--------|--------|--------|--------|--------|--------|
A#|--------|--------|--------|--------|--------|--------|--------|--------|--------|
 F|--------|--------|--------|--------|--------|--------|--------|--------|--------|
 C|--------|--------|--------|--------|--------|--------|--------|--------|--------|


 C|--------|--------|--------|--------|--------|--------|--------|--------|--------|
 G|--------|--------|--------|--------|--------|--------|--------|--------|--------|
D#|--------|--------|--------|--------|--------|--------|--------|--------|--------|
A#|--------|--------|--------|--------|--------|--------|--------|--------|--------|
 F|--------|--------|--------|--------|--------|--------|--------|--------|--------|
 C|--------|--------|--------|--------|--------|--------|--------|--------|--------|


 C|--------|--------|--------|--------|--------|--------|--------|--------|--------|
 G|--------|--------|--------|--------|--------|--------|--------|--------|--------|
D#|--------|--------|--------|--------|--------|--------|--------|--------|--------|
A#|--------|--------|--------|--------|--------|--------|--------|--------|--------|
 F|--------|--------|--------|--------|--------|--------|--------|--------|--------|
 C|--------|--------|--------|--------|--------|--------|--------|--------|--------|


 C|--------|--------|--------|--------|--------|--------|--------|--------|--------|
 G|--------|--------|--------|--------|--------|--------|--------|--------|--------|
D#|--------|--------|--------|--------|--------|--------|--------|--------|--------|
A#|--------|--------|--------|--------|--------|--------|--------|--------|--------|
 F|--------|--------|--------|--------|--------|--------|--------|--------|--------|
 C|--------|--------|--------|--------|--------|--------|--------|--------|--------|


 C|--------|--------|--------|--------|--------|--------|--------|--------|--------|
 G|--------|--------|--------|--------|--------|--------|--------|--------|--------|
D#|--------|--------|--------|--------|--------|--------|--------|--------|--------|
A#|--------|--------|--------|--------|--------|--------|--------|--------|--------|
 F|--------|--------|--------|--------|--------|--------|--------|--------|--------|
 C|--------|--------|--------|--------|--------|--------|--------|--------|--------|


 C|--------|--------|--------|--------|--------|--------|--------|--------|--------|
 G|--------|--------|--------|--------|--------|--------|--------|--------|--------|
D#|--------|--------|--------|--------|--------|--------|--------|--------|--------|
A#|--------|--------|--------|--------|--------|--------|--------|--------|--------|
 F|--------|--------|--------|--------|--------|--------|--------|--------|--------|
 C|--------|--------|--------|--------|--------|--------|--------|--------|--------|


 C|--------|--------|--------|--------|--------|-------------------------------------|
 G|--------|--------|--------|--------|--------|-------------------------------------|
D#|--------|--------|--------|--------|--------|-------------------------------------|
A#|--------|--------|--------|--------|--------|-----2---2---------------------------|
 F|--------|--------|--------|--------|--------|-----2---2-------2---------3---------|
 C|--------|--------|--------|--------|--------|-----0---0-------0---3--3--1---3--3--|


 C|---------------------------------|--------|--------|--------|--------|--------|
 G|-----------------------------9---|--------|--------|--------|--------|--------|
D#|-------------------------7-------|--------|--------|--------|--------|--------|
A#|-------------------------7-------|--------|--------|--------|--------|--------|
 F|-3---2---2-------2---5---5-------|--------|--------|--------|--------|--------|
 C|-1---0---0-------0---------------|--------|--------|--------|--------|--------|


 C|--------|--------|--------|--------|--------|--------|--------|--------|--------|
 G|--------|--------|--------|--------|--------|--------|--------|--------|--------|
D#|--------|--------|--------|--------|--------|--------|--------|--------|--------|
A#|--------|--------|--------|--------|--------|--------|--------|--------|--------|
 F|--------|--------|--------|--------|--------|--------|--------|--------|--------|
 C|--------|--------|--------|--------|--------|--------|--------|--------|--------|


 C|--------|--------|--------|--------|--------|--------|--------|--------|--------|
 G|--------|--------|--------|--------|--------|--------|--------|--------|--------|
D#|--------|--------|--------|--------|--------|--------|--------|--------|--------|
A#|--------|--------|--------|--------|--------|--------|--------|--------|--------|
 F|--------|--------|--------|--------|--------|--------|--------|--------|--------|
 C|--------|--------|--------|--------|--------|--------|--------|--------|--------|


 C|--------|--------|--------|--------|--------|--------|--------|--------|--------|
 G|--------|--------|--------|--------|--------|--------|--------|--------|--------|
D#|--------|--------|--------|--------|--------|--------|--------|--------|--------|
A#|--------|--------|--------|--------|--------|--------|--------|--------|--------|
 F|--------|--------|--------|--------|--------|--------|--------|--------|--------|
 C|--------|--------|--------|--------|--------|--------|--------|--------|--------|


 C|--------|--------|--------|--------|--------|--------|--------|--------|--------|
 G|--------|--------|--------|--------|--------|--------|--------|--------|--------|
D#|--------|--------|--------|--------|--------|--------|--------|--------|--------|
A#|--------|--------|--------|--------|--------|--------|--------|--------|--------|
 F|--------|--------|--------|--------|--------|--------|--------|--------|--------|
 C|--------|--------|--------|--------|--------|--------|--------|--------|--------|


 C|--------|--------|--------|--------|--------|--------|--------|--------|--------|
 G|--------|--------|--------|--------|--------|--------|--------|--------|--------|
D#|--------|--------|--------|--------|--------|--------|--------|--------|--------|
A#|--------|--------|--------|--------|--------|--------|--------|--------|--------|
 F|--------|--------|--------|--------|--------|--------|--------|--------|--------|
 C|--------|--------|--------|--------|--------|--------|--------|--------|--------|


 C|--------|--------|--------|--------|--------|--------|--------|--------|--------|
 G|--------|--------|--------|--------|--------|--------|--------|--------|--------|
D#|--------|--------|--------|--------|--------|--------|--------|--------|--------|
A#|--------|--------|--------|--------|--------|--------|--------|--------|--------|
 F|--------|--------|--------|--------|--------|--------|--------|--------|--------|
 C|--------|--------|--------|--------|--------|--------|--------|--------|--------|


 C|--------|--------|--------|--------|--------|--------|--------|--------|--------|
 G|--------|--------|--------|--------|--------|--------|--------|--------|--------|
D#|--------|--------|--------|--------|--------|--------|--------|--------|--------|
A#|--------|--------|--------|--------|--------|--------|--------|--------|--------|
 F|--------|--------|--------|--------|--------|--------|--------|--------|--------|
 C|--------|--------|--------|--------|--------|--------|--------|--------|--------|


 C|--------|--------|--------|--------|--------|--------|--------|--------|--------|
 G|--------|--------|--------|--------|--------|--------|--------|--------|--------|
D#|--------|--------|--------|--------|--------|--------|--------|--------|--------|
A#|--------|--------|--------|--------|--------|--------|--------|--------|--------|
 F|--------|--------|--------|--------|--------|--------|--------|--------|--------|
 C|--------|--------|--------|--------|--------|--------|--------|--------|--------|


 C|--------|--------|--------|--------|--------|--------|--------|--------|--------|
 G|--------|--------|--------|--------|--------|--------|--------|--------|--------|
D#|--------|--------|--------|--------|--------|--------|--------|--------|--------|
A#|--------|--------|--------|--------|--------|--------|--------|--------|--------|
 F|--------|--------|--------|--------|--------|--------|--------|--------|--------|
 C|--------|--------|--------|--------|--------|--------|--------|--------|--------|


 C|--------|--------|--------|--------|--------|--------|--------|--------|
 G|--------|--------|--------|--------|--------|--------|--------|--------|
D#|--------|--------|--------|--------|--------|--------|--------|--------|
A#|--------|--------|--------|--------|--------|--------|--------|--------|
 F|--------|--------|--------|--------|--------|--------|--------|--------|
 C|--------|--------|--------|--------|--------|--------|--------|--------|





Track 5: Lead

 C|--------|--------|--------|--------|--------|--------|--------|--------|--------|
 G|--------|--------|--------|--------|--------|--------|--------|--------|--------|
D#|--------|--------|--------|--------|--------|--------|--------|--------|--------|
A#|--------|--------|--------|--------|--------|--------|--------|--------|--------|
 F|--------|--------|--------|--------|--------|--------|--------|--------|--------|
 C|--------|--------|--------|--------|--------|--------|--------|--------|--------|


 C|--------|--------|--------|--------|--------|--------|--------|--------|--------|
 G|--------|--------|--------|--------|--------|--------|--------|--------|--------|
D#|--------|--------|--------|--------|--------|--------|--------|--------|--------|
A#|--------|--------|--------|--------|--------|--------|--------|--------|--------|
 F|--------|--------|--------|--------|--------|--------|--------|--------|--------|
 C|--------|--------|--------|--------|--------|--------|--------|--------|--------|


 C|--------|--------|--------|--------|--------|--------|--------|--------|--------|
 G|--------|--------|--------|--------|--------|--------|--------|--------|--------|
D#|--------|--------|--------|--------|--------|--------|--------|--------|--------|
A#|--------|--------|--------|--------|--------|--------|--------|--------|--------|
 F|--------|--------|--------|--------|--------|--------|--------|--------|--------|
 C|--------|--------|--------|--------|--------|--------|--------|--------|--------|


 C|--------|--------|--------|--------|--------|--------|--------|--------|--------|
 G|--------|--------|--------|--------|--------|--------|--------|--------|--------|
D#|--------|--------|--------|--------|--------|--------|--------|--------|--------|
A#|--------|--------|--------|--------|--------|--------|--------|--------|--------|
 F|--------|--------|--------|--------|--------|--------|--------|--------|--------|
 C|--------|--------|--------|--------|--------|--------|--------|--------|--------|


 C|--------|--------|--------|--------|--------|--------|--------|--------|--------|
 G|--------|--------|--------|--------|--------|--------|--------|--------|--------|
D#|--------|--------|--------|--------|--------|--------|--------|--------|--------|
A#|--------|--------|--------|--------|--------|--------|--------|--------|--------|
 F|--------|--------|--------|--------|--------|--------|--------|--------|--------|
 C|--------|--------|--------|--------|--------|--------|--------|--------|--------|


 C|--------|--------|--------|--------|--------|--------|--------|--------|--------|
 G|--------|--------|--------|--------|--------|--------|--------|--------|--------|
D#|--------|--------|--------|--------|--------|--------|--------|--------|--------|
A#|--------|--------|--------|--------|--------|--------|--------|--------|--------|
 F|--------|--------|--------|--------|--------|--------|--------|--------|--------|
 C|--------|--------|--------|--------|--------|--------|--------|--------|--------|


 C|--------|--------|--------|--------|--------|--------|--------|--------|--------|
 G|--------|--------|--------|--------|--------|--------|--------|--------|--------|
D#|--------|--------|--------|--------|--------|--------|--------|--------|--------|
A#|--------|--------|--------|--------|--------|--------|--------|--------|--------|
 F|--------|--------|--------|--------|--------|--------|--------|--------|--------|
 C|--------|--------|--------|--------|--------|--------|--------|--------|--------|


 C|--------|--------|--------|--------|--------|--------|--------|--------|--------|
 G|--------|--------|--------|--------|--------|--------|--------|--------|--------|
D#|--------|--------|--------|--------|--------|--------|--------|--------|--------|
A#|--------|--------|--------|--------|--------|--------|--------|--------|--------|
 F|--------|--------|--------|--------|--------|--------|--------|--------|--------|
 C|--------|--------|--------|--------|--------|--------|--------|--------|--------|


 C|--------|--------|--------|--------|--------|--------|--------|--------|--------|
 G|--------|--------|--------|--------|--------|--------|--------|--------|--------|
D#|--------|--------|--------|--------|--------|--------|--------|--------|--------|
A#|--------|--------|--------|--------|--------|--------|--------|--------|--------|
 F|--------|--------|--------|--------|--------|--------|--------|--------|--------|
 C|--------|--------|--------|--------|--------|--------|--------|--------|--------|


 C|--------|--------|--------|--------|--------|--------|--------|--------|--------|
 G|--------|--------|--------|--------|--------|--------|--------|--------|--------|
D#|--------|--------|--------|--------|--------|--------|--------|--------|--------|
A#|--------|--------|--------|--------|--------|--------|--------|--------|--------|
 F|--------|--------|--------|--------|--------|--------|--------|--------|--------|
 C|--------|--------|--------|--------|--------|--------|--------|--------|--------|


 C|--------|--------|--------|--------|--------|--------|--------|--------|--------|
 G|--------|--------|--------|--------|--------|--------|--------|--------|--------|
D#|--------|--------|--------|--------|--------|--------|--------|--------|--------|
A#|--------|--------|--------|--------|--------|--------|--------|--------|--------|
 F|--------|--------|--------|--------|--------|--------|--------|--------|--------|
 C|--------|--------|--------|--------|--------|--------|--------|--------|--------|


 C|--------|--------|--------|--------|--------|--------|--------|--------|--------|
 G|--------|--------|--------|--------|--------|--------|--------|--------|--------|
D#|--------|--------|--------|--------|--------|--------|--------|--------|--------|
A#|--------|--------|--------|--------|--------|--------|--------|--------|--------|
 F|--------|--------|--------|--------|--------|--------|--------|--------|--------|
 C|--------|--------|--------|--------|--------|--------|--------|--------|--------|


 C|--------|--------|--------|--------|--------|--------|--------|--------|--------|
 G|--------|--------|--------|--------|--------|--------|--------|--------|--------|
D#|--------|--------|--------|--------|--------|--------|--------|--------|--------|
A#|--------|--------|--------|--------|--------|--------|--------|--------|--------|
 F|--------|--------|--------|--------|--------|--------|--------|--------|--------|
 C|--------|--------|--------|--------|--------|--------|--------|--------|--------|


 C|--------|--------|--------|--------|--------|--------|--------|--------|--------|
 G|--------|--------|--------|--------|--------|--------|--------|--------|--------|
D#|--------|--------|--------|--------|--------|--------|--------|--------|--------|
A#|--------|--------|--------|--------|--------|--------|--------|--------|--------|
 F|--------|--------|--------|--------|--------|--------|--------|--------|--------|
 C|--------|--------|--------|--------|--------|--------|--------|--------|--------|


 C|--------|--------|--------|--------|--------|--------|--------|--------|--------|
 G|--------|--------|--------|--------|--------|--------|--------|--------|--------|
D#|--------|--------|--------|--------|--------|--------|--------|--------|--------|
A#|--------|--------|--------|--------|--------|--------|--------|--------|--------|
 F|--------|--------|--------|--------|--------|--------|--------|--------|--------|
 C|--------|--------|--------|--------|--------|--------|--------|--------|--------|


 C|--------|--------|--------|--------|--------|--------|--------|--------|--------|
 G|--------|--------|--------|--------|--------|--------|--------|--------|--------|
D#|--------|--------|--------|--------|--------|--------|--------|--------|--------|
A#|--------|--------|--------|--------|--------|--------|--------|--------|--------|
 F|--------|--------|--------|--------|--------|--------|--------|--------|--------|
 C|--------|--------|--------|--------|--------|--------|--------|--------|--------|


 C|--------|--------|--------|--------|--------|--------|--------|--------|--------|
 G|--------|--------|--------|--------|--------|--------|--------|--------|--------|
D#|--------|--------|--------|--------|--------|--------|--------|--------|--------|
A#|--------|--------|--------|--------|--------|--------|--------|--------|--------|
 F|--------|--------|--------|--------|--------|--------|--------|--------|--------|
 C|--------|--------|--------|--------|--------|--------|--------|--------|--------|


 C|--------|--------|--------|--------|--------|--------|--------|--------|--------|
 G|--------|--------|--------|--------|--------|--------|--------|--------|--------|
D#|--------|--------|--------|--------|--------|--------|--------|--------|--------|
A#|--------|--------|--------|--------|--------|--------|--------|--------|--------|
 F|--------|--------|--------|--------|--------|--------|--------|--------|--------|
 C|--------|--------|--------|--------|--------|--------|--------|--------|--------|


 C|--------|--------|--------|--------|--------|--------|--------|--------|--------|
 G|--------|--------|--------|--------|--------|--------|--------|--------|--------|
D#|--------|--------|--------|--------|--------|--------|--------|--------|--------|
A#|--------|--------|--------|--------|--------|--------|--------|--------|--------|
 F|--------|--------|--------|--------|--------|--------|--------|--------|--------|
 C|--------|--------|--------|--------|--------|--------|--------|--------|--------|


 C|--------|--------|--------|--------|--------|--------|--------|--------|--------|
 G|--------|--------|--------|--------|--------|--------|--------|--------|--------|
D#|--------|--------|--------|--------|--------|--------|--------|--------|--------|
A#|--------|--------|--------|--------|--------|--------|--------|--------|--------|
 F|--------|--------|--------|--------|--------|--------|--------|--------|--------|
 C|--------|--------|--------|--------|--------|--------|--------|--------|--------|


 C|--------|--------|--------|--------|--------|--------|--------|--------|--------|
 G|--------|--------|--------|--------|--------|--------|--------|--------|--------|
D#|--------|--------|--------|--------|--------|--------|--------|--------|--------|
A#|--------|--------|--------|--------|--------|--------|--------|--------|--------|
 F|--------|--------|--------|--------|--------|--------|--------|--------|--------|
 C|--------|--------|--------|--------|--------|--------|--------|--------|--------|


 C|--------|--------|--------|--------|--------|--------|--------|--------|--------|
 G|--------|--------|--------|--------|--------|--------|--------|--------|--------|
D#|--------|--------|--------|--------|--------|--------|--------|--------|--------|
A#|--------|--------|--------|--------|--------|--------|--------|--------|--------|
 F|--------|--------|--------|--------|--------|--------|--------|--------|--------|
 C|--------|--------|--------|--------|--------|--------|--------|--------|--------|


 C|--------|--------|--------|--------|--------|--------|--------|--------|--------|
 G|--------|--------|--------|--------|--------|--------|--------|--------|--------|
D#|--------|--------|--------|--------|--------|--------|--------|--------|--------|
A#|--------|--------|--------|--------|--------|--------|--------|--------|--------|
 F|--------|--------|--------|--------|--------|--------|--------|--------|--------|
 C|--------|--------|--------|--------|--------|--------|--------|--------|--------|


 C|--------|--------|--------|--------|--------|--------|--------|--------|--------|
 G|--------|--------|--------|--------|--------|--------|--------|--------|--------|
D#|--------|--------|--------|--------|--------|--------|--------|--------|--------|
A#|--------|--------|--------|--------|--------|--------|--------|--------|--------|
 F|--------|--------|--------|--------|--------|--------|--------|--------|--------|
 C|--------|--------|--------|--------|--------|--------|--------|--------|--------|


 C|--------|--------|--------|--------|--------|--------|--------|--------|--------|
 G|--------|--------|--------|--------|--------|--------|--------|--------|--------|
D#|--------|--------|--------|--------|--------|--------|--------|--------|--------|
A#|--------|--------|--------|--------|--------|--------|--------|--------|--------|
 F|--------|--------|--------|--------|--------|--------|--------|--------|--------|
 C|--------|--------|--------|--------|--------|--------|--------|--------|--------|


 C|--------|--------|--------|--------|--------|--------|--------|--------|-----19-20-22-------------------------------------------------------|
 G|--------|--------|--------|--------|--------|--------|--------|--------|--------------21-22-24-18-21-22-21-18----18-21-22-17-18-21-15-17-18-|
D#|--------|--------|--------|--------|--------|--------|--------|--------|--------------------------------------21----------------------------|
A#|--------|--------|--------|--------|--------|--------|--------|--------|--------------------------------------------------------------------|
 F|--------|--------|--------|--------|--------|--------|--------|--------|--------------------------------------------------------------------|
 C|--------|--------|--------|--------|--------|--------|--------|--------|--------------------------------------------------------------------|


 C|-------------------------------------------------------------------------|-------------------------------------------------------------------------|
 G|-17-15----13-15-17-15-13-------------------------------------------------|-------------------------------------------------------------------------|
D#|-------17----------------16-14-13----13-14-16-14-13-------------9--10-9--|-7--------------------------------------------13-14-16-14-13----13-14-16-|
A#|----------------------------------15----------------15-14-12-------------|----10-9--------------10-12-14-12-10-12-14-15----------------15----------|
 F|-------------------------------------------------------------15----------|----------12-11-12-14----------------------------------------------------|
 C|-------------------------------------------------------------------------|-------------------------------------------------------------------------|


 C|----------------------------13-16-17-16-13----16-17-19-17-16----17-19-20-|-19-17----19-20-22-------------------------------------------------------|
 G|-13-15-17-15-13----13-15-17----------------17----------------18----------|-------21----------21-22-24-18-21-22-21-18----18-21-22-17-18-21-15-17-18-|
D#|----------------16-------------------------------------------------------|-------------------------------------------21----------------------------|
A#|-------------------------------------------------------------------------|-------------------------------------------------------------------------|
 F|-------------------------------------------------------------------------|-------------------------------------------------------------------------|
 C|-------------------------------------------------------------------------|-------------------------------------------------------------------------|


 C|-------------------------------------------------------------------------|-------------------------------------------------------------------------|
 G|-17-15----13-15-17-15-13-------------------------------------------------|-------------------------------------------------------------------------|
D#|-------17----------------16-14-13----13-14-16-14-13-------------9--10-9--|-7--------------------------------------------13-14-16-14-13----13-14-16-|
A#|----------------------------------15----------------15-14-12-------------|----10-9--------------10-12-14-12-10-12-14-15----------------15----------|
 F|-------------------------------------------------------------15----------|----------12-11-12-14----------------------------------------------------|
 C|-------------------------------------------------------------------------|-------------------------------------------------------------------------|


 C|----------------------------13-16-17-16-13----16-17-19-17-16----17-19-20-|-19-20-22-2422201922-20-19-20-19-17-16-17-19-20-19-17-19-17-16-17-16----|
 G|-13-15-17-15-13----13-15-17----------------17----------------18----------|---------------------------------------------------------------------18-|
D#|----------------16-------------------------------------------------------|------------------------------------------------------------------------|
A#|-------------------------------------------------------------------------|------------------------------------------------------------------------|
 F|-------------------------------------------------------------------------|------------------------------------------------------------------------|
 C|-------------------------------------------------------------------------|------------------------------------------------------------------------|


 C|-------16-17-16-13-16-13-12-13-12----------12-13-12-10-12-10-8--10-8-----|-------8--108-7-5-8-7-5-4-7--5--4-----4--5--7--5--4--------------------|
 G|-17-18----------------------------15-13-15----------------------------12-|-10-12-----------------------------6-----------------6--5--3--5--6--5--|
D#|-------------------------------------------------------------------------|-----------------------------------------------------------------------|
A#|-------------------------------------------------------------------------|-----------------------------------------------------------------------|
 F|-------------------------------------------------------------------------|-----------------------------------------------------------------------|
 C|-------------------------------------------------------------------------|-----------------------------------------------------------------------|


 C|----------------------------4--5--7--5--4-----5--7-5-4-5-7-8-7-6-7-8-108-7-5-|-7-8-7-6-7-8-107-1012108-8-8-108-7-7-8-10121010121312101012108-1213121012|
 G|-3-----------------3--5--6-----------------6---------------------------------|-------------------------------------------------------------------------|
D#|----5--4--2--4--5------------------------------------------------------------|-------------------------------------------------------------------------|
A#|-----------------------------------------------------------------------------|-------------------------------------------------------------------------|
 F|-----------------------------------------------------------------------------|-------------------------------------------------------------------------|
 C|-----------------------------------------------------------------------------|-------------------------------------------------------------------------|


 C|-13161312131413121314151413141516151413141514131415161514151617161514151615141516|
 G|---------------------------------------------------------------------------------|
D#|---------------------------------------------------------------------------------|
A#|---------------------------------------------------------------------------------|
 F|---------------------------------------------------------------------------------|
 C|---------------------------------------------------------------------------------|


 C|-171615161718171615161716151618171617191817161718171617191817182019181717|-1918171920191819212018192019181921201920222120192120192022212021|
 G|-------------------------------------------------------------------------|-----------------------------------------------------------------|
D#|-------------------------------------------------------------------------|-----------------------------------------------------------------|
A#|-------------------------------------------------------------------------|-----------------------------------------------------------------|
 F|-------------------------------------------------------------------------|-----------------------------------------------------------------|
 C|-------------------------------------------------------------------------|-----------------------------------------------------------------|


 C|-2322212224232223242322232423222324232223242322232423222324232223|-2423222324232223242322232423222324232223242322232423222324232223|
 G|-----------------------------------------------------------------|-----------------------------------------------------------------|
D#|-----------------------------------------------------------------|-----------------------------------------------------------------|
A#|-----------------------------------------------------------------|-----------------------------------------------------------------|
 F|-----------------------------------------------------------------|-----------------------------------------------------------------|
 C|-----------------------------------------------------------------|-----------------------------------------------------------------|


 C|-2423222324232223242322232423222324232223242322232423222324232223|-2423222324232223242322232423222324232223242322232423222324232223|
 G|-----------------------------------------------------------------|-----------------------------------------------------------------|
D#|-----------------------------------------------------------------|-----------------------------------------------------------------|
A#|-----------------------------------------------------------------|-----------------------------------------------------------------|
 F|-----------------------------------------------------------------|-----------------------------------------------------------------|
 C|-----------------------------------------------------------------|-----------------------------------------------------------------|


 C|-24232223-----------|--------|--------|--------|--------|--------|--------|--------|
 G|--------------------|--------|--------|--------|--------|--------|--------|--------|
D#|--------------------|--------|--------|--------|--------|--------|--------|--------|
A#|--------------------|--------|--------|--------|--------|--------|--------|--------|
 F|--------------------|--------|--------|--------|--------|--------|--------|--------|
 C|--------------------|--------|--------|--------|--------|--------|--------|--------|


 C|--------|--------|--------|--------|-----------16-19-------------16-19-------------16-19-------------16-|
 G|--------|--------|--------|--------|--------17-------17-------17-------17-------17-------17-------17----|
D#|--------|--------|--------|--------|-----19-------------16-19-------------16-19-------------16-19-------|
A#|--------|--------|--------|--------|--------------------------------------------------------------------|
 F|--------|--------|--------|--------|--------------------------------------------------------------------|
 C|--------|--------|--------|--------|--------------------------------------------------------------------|


 C|-19-------------1010-------------101214121010-----------------121612-----|-----------------16-19-------------16-19-------------16-19-------------16-|
 G|----17--------12----12---------12------------12-------------12-----------|--------------17-------17-------17-------17-------17-------17-------17----|
D#|-------16---13--------13-----13----------------13---------13-------------|----------1319------------16-19-------------16-19-------------16-19-------|
A#|----------14------------14-14--------------------14------------------18--|--------14----------------------------------------------------------------|
 F|-----------------------------------------------------------------------14|------14------------------------------------------------------------------|
 C|---------------------------------------------------12-1212---------------|-12-12--------------------------------------------------------------------|


 C|-19-------22-19----------19-22-19----------19-16-------------16-13---------|--------------------------------------------161716171617161716171617|
 G|----17----------21----21----------21----21-------18-------18-------15------|---------15-9-109-109-109-109-109-109-109-10------------------------|
D#|-------16----------22----------------22-------------19-19-------------16---|------16------------------------------------------------------------|
A#|-------------------------------------------------------------------------18|---18---------------------------------------------------------------|
 F|---------------------------------------------------------------------------|--------------------------------------------------------------------|
 C|---------------------------------------------------------------------------|--------------------------------------------------------------------|


 C|-16171617161719191716---------------------------------------------|--------------------------12----14----15----18-|
 G|---------------------12-109-101112-10-9---------------------------|--------------12----13-------------------------|
D#|-----------------------------------------12-10-9------------------|--------9--------------9-----11----12----15----|
A#|--------------------------------------------------12-10-9--10-----|-----------9-----10----------------------------|
 F|--------------------------------------------------------------7---|-7---7-----------------------------------------|
 C|------------------------------------------------------------------|-----------------------------------------------|


 C|----19-------16-19----------------17-20------------------1821--------------19|---22------22-24-22-20-22-20----20-------------19-20-19-17-19-17----17----|
 G|----------17-------17----------18-------19-------------20----20----------21--|-----21----------------------24----24-22-24-22-------------------20----20-|
D#|-16----16-------------16----19-------------18--------20--------19------21----|-------20-----------------------------------------------------------------|
A#|-------------------------16-------------------17---21------------18--22------|---------19---------------------------------------------------------------|
 F|-------------------------------------------------22----------------23--------|--------------------------------------------------------------------------|
 C|-----------------------------------------------------------------------------|--------------------------------------------------------------------------|


 C|----------15-17-15-13-15-13----13----------------------------------------|----------------------------------10----10-12----------------12----12-13-|
 G|-18-20-18-------------------17----17-15-17-15-17-18-17-15-17-15----15----|-------------------10-12-13-12-13----13----------10-12-13-15----15-------|
D#|----------------------------------------------------------------17----17-|-16-17-16-10-10-12----------------------------10-------------------------|
A#|-------------------------------------------------------------------------|-------------------------------------------------------------------------|
 F|-------------------------------------------------------------------------|-------------------------------------------------------------------------|
 C|-------------------------------------------------------------------------|-------------------------------------------------------------------------|


 C|-12-13-15-------------------------17----17-19-------------------------20-|----20-22-24---24---24---24--|
 G|-------------------17-18-20-18-20----20----------------20-22-24-22-24----|-24--------------------------|
D#|----------16-17-19----------------------------19-21-22-------------------|-----------------------------|
A#|-------------------------------------------------------------------------|-----------------------------|
 F|-------------------------------------------------------------------------|-----------------------------|
 C|-------------------------------------------------------------------------|-----------------------------|


 C|--------|--------|--------|--------|--------|--------|--------|--------|--------|
 G|--------|--------|--------|--------|--------|--------|--------|--------|--------|
D#|--------|--------|--------|--------|--------|--------|--------|--------|--------|
A#|--------|--------|--------|--------|--------|--------|--------|--------|--------|
 F|--------|--------|--------|--------|--------|--------|--------|--------|--------|
 C|--------|--------|--------|--------|--------|--------|--------|--------|--------|


 C|--------|--------|--------|--------|--------|--------|--------|--------|--------|
 G|--------|--------|--------|--------|--------|--------|--------|--------|--------|
D#|--------|--------|--------|--------|--------|--------|--------|--------|--------|
A#|--------|--------|--------|--------|--------|--------|--------|--------|--------|
 F|--------|--------|--------|--------|--------|--------|--------|--------|--------|
 C|--------|--------|--------|--------|--------|--------|--------|--------|--------|


 C|--------|--------|--------|--------|--------|--------|--------|--------|--------|
 G|--------|--------|--------|--------|--------|--------|--------|--------|--------|
D#|--------|--------|--------|--------|--------|--------|--------|--------|--------|
A#|--------|--------|--------|--------|--------|--------|--------|--------|--------|
 F|--------|--------|--------|--------|--------|--------|--------|--------|--------|
 C|--------|--------|--------|--------|--------|--------|--------|--------|--------|


 C|--------|--------|--------|--------|--------|--------|--------|--------|--------|
 G|--------|--------|--------|--------|--------|--------|--------|--------|--------|
D#|--------|--------|--------|--------|--------|--------|--------|--------|--------|
A#|--------|--------|--------|--------|--------|--------|--------|--------|--------|
 F|--------|--------|--------|--------|--------|--------|--------|--------|--------|
 C|--------|--------|--------|--------|--------|--------|--------|--------|--------|


 C|--------|--------|--------|--------|--------|--------|--------|--------|--------|
 G|--------|--------|--------|--------|--------|--------|--------|--------|--------|
D#|--------|--------|--------|--------|--------|--------|--------|--------|--------|
A#|--------|--------|--------|--------|--------|--------|--------|--------|--------|
 F|--------|--------|--------|--------|--------|--------|--------|--------|--------|
 C|--------|--------|--------|--------|--------|--------|--------|--------|--------|


 C|--------|--------|--------|--------|--------|--------|--------|--------|--------|
 G|--------|--------|--------|--------|--------|--------|--------|--------|--------|
D#|--------|--------|--------|--------|--------|--------|--------|--------|--------|
A#|--------|--------|--------|--------|--------|--------|--------|--------|--------|
 F|--------|--------|--------|--------|--------|--------|--------|--------|--------|
 C|--------|--------|--------|--------|--------|--------|--------|--------|--------|


 C|--------|--------|--------|--------|--------|--------|--------|--------|--------|
 G|--------|--------|--------|--------|--------|--------|--------|--------|--------|
D#|--------|--------|--------|--------|--------|--------|--------|--------|--------|
A#|--------|--------|--------|--------|--------|--------|--------|--------|--------|
 F|--------|--------|--------|--------|--------|--------|--------|--------|--------|
 C|--------|--------|--------|--------|--------|--------|--------|--------|--------|


 C|--------|--------|--------|--------|--------|--------|--------|--------|--------|
 G|--------|--------|--------|--------|--------|--------|--------|--------|--------|
D#|--------|--------|--------|--------|--------|--------|--------|--------|--------|
A#|--------|--------|--------|--------|--------|--------|--------|--------|--------|
 F|--------|--------|--------|--------|--------|--------|--------|--------|--------|
 C|--------|--------|--------|--------|--------|--------|--------|--------|--------|


 C|--------|--------|--------|--------|--------|--------|--------|--------|--------|
 G|--------|--------|--------|--------|--------|--------|--------|--------|--------|
D#|--------|--------|--------|--------|--------|--------|--------|--------|--------|
A#|--------|--------|--------|--------|--------|--------|--------|--------|--------|
 F|--------|--------|--------|--------|--------|--------|--------|--------|--------|
 C|--------|--------|--------|--------|--------|--------|--------|--------|--------|


 C|--------|--------|--------|--------|--------|--------|--------|--------|--------|
 G|--------|--------|--------|--------|--------|--------|--------|--------|--------|
D#|--------|--------|--------|--------|--------|--------|--------|--------|--------|
A#|--------|--------|--------|--------|--------|--------|--------|--------|--------|
 F|--------|--------|--------|--------|--------|--------|--------|--------|--------|
 C|--------|--------|--------|--------|--------|--------|--------|--------|--------|


 C|--------|--------|--------|--------|--------|--------|
 G|--------|--------|--------|--------|--------|--------|
D#|--------|--------|--------|--------|--------|--------|
A#|--------|--------|--------|--------|--------|--------|
 F|--------|--------|--------|--------|--------|--------|
 C|--------|--------|--------|--------|--------|--------|





Track 6: Bass

 B|--------|--------|--------|--------|--------|--------|--------|-------------|-----------------|
 G|--------|--------|--------|--------|--------|--------|--------|-------------|-----------------|
 D|--------|--------|--------|--------|--------|--------|--------|-------------|-----------------|
A#|--------|--------|--------|--------|--------|--------|--------|-------------|-----------------|
 F|--------|--------|--------|--------|--------|--------|--------|-------------|-----------------|
 C|--------|--------|--------|--------|--------|--------|--------|-------------|-----------------|


 B|---------------------------------|-------------------------------------|---------------------------------|
 G|---------------------------------|-------------------------------------|---------------------------------|
 D|---------------------------------|-------------------------------------|---------------------------------|
A#|---------------------------------|-------------------------------------|---------------------------------|
 F|-----7---7-------8---7---5---8---|-7---------------------2-------------|-----7---7-------8---7---5---8---|
 C|-0-----------0-------------------|-----0---0---0---4--5------4--5--1---|-0-----------0-------------------|


 B|-------------------------------------|--------------------------------|-------------------------------------|
 G|-------------------------------------|--------------------------------|-------------------------------------|
 D|-------------------------------------|--------------------------------|-------------------------------------|
A#|-------------------------------------|--------------------------------|-------------------------------------|
 F|-7---------------2--3--5---3--2------|-7--------5--7--8---7---5---8---|-7---------------------2-------------|
 C|-----0---0---0-------------------0---|------0-------------------------|-----0---0---0---4--5------5--4--1---|


 B|---------------------------------|-------------------------------------------|---------------------------------|
 G|---------------------------------|-9--10-12--10-9----------------------------|---------------------------------|
 D|---------------------------------|-----------------11--10--8-----------------|---------------------------------|
A#|---------------------------------|----------------------------10-9--7--6-----|---------------------------------|
 F|-----7---7-------8---7---5---8---|----------------------------------------8--|-----7---7-------8---7---5---8---|
 C|-0-----------0-------------------|-------------------------------------------|-0-----------0-------------------|


 B|-------------------------------------|---------------------------------|-------------------------------------|
 G|-------------------------------------|---------------------------------|-------------------------------------|
 D|-------------------------------------|---------------------------------|-------------------------------------|
A#|-------------------------------------|---------------------------------|-------------------------------------|
 F|-7---------------------2-------------|-----7---7-------8---7---5---8---|-7---------------2--3--5---3--2------|
 C|-----0---0---0---4--5------4--5--1---|-0-----------0-------------------|-----0---0---0-------------------0---|


 B|--------------------------------|-------------------------------------|---------------------------------|
 G|--------------------------------|-------------------------------------|---------------------------------|
 D|--------------------------------|-------------------------------------|---------------------------------|
A#|--------------------------------|-------------------------------------|---------------------------------|
 F|-7--------5--7--8---7---5---8---|-7---------------------2-------------|-----7---7-------8---7---5---8---|
 C|------0-------------------------|-----0---0---0---4--5------5--4--1---|-0-----------0-------------------|


 B|------------------------------------------------|-------------------------------------|
 G|-9--10-12--10-9------3--5--3--------------------|-------------------------------------|
 D|-----------------11-----------6--5--3--2--------|-------------------------------------|
A#|------------------------------------------2--3--|-------------------------------------|
 F|------------------------------------------------|-------------------------------------|
 C|------------------------------------------------|-0---0-------0---3--3--1---3--3--1---|


 B|---------------------------------|-------------------------------------|---------------------------------|
 G|---------------------------------|-------------------------------------|---------------------------------|
 D|---------------------------------|-------------------------------------|---------------------------------|
A#|-----------------0---0-----------|-------------------------------------|-----------------0---0---1---1---|
 F|-------------------------3---3---|-------------------------------------|-------------1-------------------|
 C|-0---0-------0-------------------|-0---0-------0---3--3--1---3--3--1---|-0---0---------------------------|


 B|-------------------------------------|---------------------------------|-------------------------------------|
 G|-------------------------------------|---------------------------------|-------------------------------------|
 D|-------------------------------------|---------------------------------|-------------------------------------|
A#|-------------------------------------|-----------------0---0-----------|-------------------------------------|
 F|-------------------------------------|-------------------------3---3---|-------------------------------------|
 C|-0---0-------0---3--3--1---3--3--1---|-0---0-------0-------------------|-0---0-------0---3--3--1---3--3--1---|


 B|---------------------------------|-------------------------------------|---------------------------------|
 G|---------------------------------|-------------------------------------|---------------------------------|
 D|---------------------------------|-------------------------------------|---------------------------------|
A#|-----------------0---0---1---1---|-------------------------------------|-----------------0---0-----------|
 F|-------------1-------------------|-------------------------------------|-------------------------3---3---|
 C|-0---0---------------------------|-0---0-------0---3--3--1---3--3--1---|-0---0-------0-------------------|


 B|-------------------------------------|-----------------------------------|-------------------------------------|
 G|-------------------------------------|-----------------------------------|-------------------------------------|
 D|-------------------------------------|-----------------------------------|-------------------------------------|
A#|-------------------------------------|-------------------0---0---1---1---|-------------------------------------|
 F|-------------------------------------|---------3--3--1-------------------|-------------------------------------|
 C|-0---0-------0---3--3--1---3--3--1---|-0---0-----------------------------|-0---0-------0---3--3--1---3--3--1---|


 B|---------------------------------|-------------------------------------|-----------------------------------|
 G|---------------------------------|-------------------------------------|-----------------------------------|
 D|---------------------------------|-------------------------------------|-----------------------------------|
A#|-----------------0---0-----------|-------------------------------------|-------------------0---0---1---1---|
 F|-------------------------3---3---|-------------------------------------|---------3--3--1-------------------|
 C|-0---0-------0-------------------|-0---0-------0---3--3--1---3--3--1---|-0---0-----------------------------|


 B|---------------------------------|-------------------------------------|---------------------------------|
 G|---------------------------------|-------------------------------------|---------------------------------|
 D|---------------------------------|-------------------------------------|---------------------------------|
A#|---------------------------------|-------------------------------------|---------------------------------|
 F|-----7---7-------8---7---5---8---|-7---------------------2-------------|-----7---7-------8---7---5---8---|
 C|-0-----------0-------------------|-----0---0---0---4--5------4--5--1---|-0-----------0-------------------|


 B|-------------------------------------|--------------------------------|-------------------------------------|
 G|-------------------------------------|--------------------------------|-------------------------------------|
 D|-------------------------------------|--------------------------------|-------------------------------------|
A#|-------------------------------------|--------------------------------|-------------------------------------|
 F|-7---------------2--3--5---3--2------|-7--------5--7--8---7---5---8---|-7---------------------2-------------|
 C|-----0---0---0-------------------0---|------0-------------------------|-----0---0---0---4--5------4--5--1---|


 B|---------------------------------|------------------------------------------------|
 G|---------------------------------|-9--10-12--10-9------3--5--3--------------------|
 D|---------------------------------|-----------------11-----------6--5--3--2--------|
A#|---------------------------------|------------------------------------------2--3--|
 F|-----7---7-------8---7---5---8---|------------------------------------------------|
 C|-0-----------0-------------------|------------------------------------------------|


 B|-------------------------------------|---------------------------------|-------------------------------------|
 G|-------------------------------------|---------------------------------|-------------------------------------|
 D|-------------------------------------|---------------------------------|-------------------------------------|
A#|-------------------------------------|-----------------0---0-----------|-------------------------------------|
 F|-------------------------------------|-------------------------3---3---|-------------------------------------|
 C|-0---0-------0---3--3--1---3--3--1---|-0---0-------0-------------------|-0---0-------0---3--3--1---3--3--1---|


 B|---------------------------------|-------------------------------------|---------------------------------|
 G|---------------------------------|-------------------------------------|---------------------------------|
 D|---------------------------------|-------------------------------------|---------------------------------|
A#|-----------------0---0---1---1---|-------------------------------------|-----------------0---0-----------|
 F|-------------1-------------------|-------------------------------------|-------------------------3---3---|
 C|-0---0---------------------------|-0---0-------0---3--3--1---3--3--1---|-0---0-------0-------------------|


 B|-------------------------------------|---------------------------------|--------|
 G|-------------------------------------|---------------------------------|--------|
 D|-------------------------------------|---------------------------------|--------|
A#|-------------------------------------|-----------------0---0---1---1---|--------|
 F|-------------------------------------|-------------1-------------------|-0------|
 C|-0---0-------0---3--3--1---3--3--1---|-0---0---------------------------|--------|


 B|--------|--------|--------|--------|--------|-------------|-----------------------------|
 G|--------|--------|--------|--------|--------|-------------|-----------------------------|
 D|--------|--------|--------|--------|--------|-------------|-----------------------------|
A#|--------|--------|--------|--------|--------|-------------|-----------------------------|
 F|-0------|-2------|-3------|--------|--------|--------3----|-2---2---3----0----0--0--0---|
 C|--------|--------|--------|-1------|-1------|-3-----------|-----------------------------|


 B|---------------------------------|------------------------------|---------------------------------|
 G|---------------------------------|------------------------------|---------------------------------|
 D|---------------------------------|------------------------------|---------------------------------|
A#|---------------------------------|------------------------------|---------------------------------|
 F|-0---0---3----3---3--3---3---3---|-------------------------5----|-5---5---3---2---0----0---0--0---|
 C|---------------------------------|-1----1---1--1---1---1--------|---------------------------------|


 B|---------------------------------|---------------------------------|----------------------------------|
 G|---------------------------------|---------------------------------|----------------------------------|
 D|---------------------------------|---------------------------------|----------------------------------|
A#|---------------------------------|---------------------------------|----------------------------------|
 F|-0---0---3----3---3--3---3---3---|---------------------------------|-------2---2---2---0----0--0--0---|
 C|---------------------------------|-1----1---1--1---1---1---3----3--|----3-----------------------------|


 B|---------------------------------|------------------------------|---------------------------------|
 G|---------------------------------|------------------------------|---------------------------------|
 D|---------------------------------|------------------------------|---------------------------------|
A#|---------------------------------|------------------------------|---------------------------------|
 F|-0---0---3----3---3--3---3---3---|-------------------------5----|-5---5---3---2---0----0---0--0---|
 C|---------------------------------|-1----1---1--1---1---1--------|---------------------------------|


 B|---------------------------------|---------------------------------|---------------------------------------|
 G|---------------------------------|---------------------------------|---------------------------------------|
 D|---------------------------------|---------------------------------|---------------------------------------|
A#|---------------------------------|---------------------------------|---------------------------------------|
 F|-0---0---3----3---3--3---3---3---|---------------------------------|-------2---2---2---3--0---0---0--3--0--|
 C|---------------------------------|-1----1---1--1---1---1---3----3--|----3----------------------------------|


 B|-------------------------------------------|---------------------------------------|
 G|-------------------------------------------|---------------------------------------|
 D|-------------------------------------------|---------------------------------------|
A#|-------------------------------------------|---------------------------------------|
 F|----0---0--3--0---0---0--7--3--6--3--3--5--|-3--0---0---0--3--0---0---0--3--0---0--|
 C|-------------------------------------------|---------------------------------------|


 B|---------------------------------------------|-------------------------------------------|
 G|---------------------------------------------|-------------------------------------------|
 D|---------------------------------------------|-------------------------------------------|
A#|-------3--1--2--------1----------------------|-------------------------------------------|
 F|----0-----------3--2-----3--0---0---0--3--0--|----0---0--3--0---0---0--7--3--6--3--3--5--|
 C|---------------------------------------------|-------------------------------------------|


 B|---------------------------------------|-----------------------------------------------|
 G|---------------------------------------|-----------------------------------------------|
 D|---------------------------------------|-----------------------------------------------|
A#|---------------------------------------|-------3--1--2--------1------------------------|
 F|-3--0---0---0--3--0---0---0--3--0---0--|----0-----------3--2-----3--0--0--0---0--3--0--|
 C|---------------------------------------|-----------------------------------------------|


 B|-------------------------------------------|---------------------------------------|
 G|-------------------------------------------|---------------------------------------|
 D|-------------------------------------------|---------------------------------------|
A#|-------------------------------------------|---------------------------------------|
 F|----0---0--3--0---0---0--7--3--6--3--3--5--|-3--0---0---0--3--0---0---0--3--0---0--|
 C|-------------------------------------------|---------------------------------------|


 B|---------------------------------------------|-------------------------------------------|
 G|---------------------------------------------|-------------------------------------------|
 D|---------------------------------------------|-------------------------------------------|
A#|-------3--1--2--------1----------------------|-------------------------------------------|
 F|----0-----------3--2-----3--0---0---0--3--0--|----0---0--3--0---0---0--7--3--6--3--3--5--|
 C|---------------------------------------------|-------------------------------------------|


 B|---------------------------------------|-----------------------------------------------|
 G|---------------------------------------|-----------------------------------------------|
 D|---------------------------------------|-----------------------------------------------|
A#|---------------------------------------|-------3--1--2---------------------------------|
 F|-3--0---0---0--3--0---0---0--3--0---0--|----0-----------3--2--0------------------------|
 C|---------------------------------------|-------------------------3--0--0--0---0--3--0--|


 B|---------------------------------------------|---------------------------------------------|
 G|---------------------------------------------|---------------------------------------------|
 D|---------------------------------------------|---------------------------------------------|
A#|---------------------------------------------|---------------------------------------------|
 F|------------------------------------------5--|---------------------------------------------|
 C|-0--0---0--3--0--0--0---0--3--0--5--6--7-----|-3--0--0--0---0--3--0--0--0---0--3--0--0--0--|


 B|-----------------------------------------------|---------------------------------------------|
 G|-----------------------------------------------|---------------------------------------------|
 D|-----------------------------------------------|---------------------------------------------|
A#|-----------------------------------------------|---------------------------------------------|
 F|----------------------5------------------------|------------------------------------------5--|
 C|----0--3--0--5--6--7-----3--0--0--0---0--3--0--|-0--0---0--3--0--0--0---0--3--0--5--6--7-----|


 B|---------------------------------------------|-----------------------------------------------|
 G|---------------------------------------------|-----------------------------------------------|
 D|---------------------------------------------|-----------------------------------------------|
A#|---------------------------------------------|-----------------------------------------------|
 F|---------------------------------------------|-------------7--5------------------------------|
 C|-3--0--0--0---0--3--0--0--0---0--3--0--0--0--|----0--3--0--------7--6--5--2--2--2---2--5--2--|


 B|---------------------------------------------|---------------------------------------------|
 G|---------------------------------------------|---------------------------------------------|
 D|---------------------------------------------|---------------------------------------------|
A#|---------------------------------------------|---------------------------------------------|
 F|---------------------------------3--2--3--2--|---------------------------------------------|
 C|-2--2---2--5--2--2--2---2--0--2--------------|-5--2--2--2---2--5--2--2--2---2--5--2--2--2--|


 B|---------------------------------------------|-------------------------------------------|
 G|---------------------------------------------|-------------------------------------------|
 D|---------------------------------------------|-------------------------------------------|
A#|-------------4--2----------------------------|-------------------------------------------|
 F|-------------------3--2----------------------|-------------------------------3--2--3--2--|
 C|----2--0--2--------------5--2---2---2--5--2--|----2---2--5--2---2---2--0--2--------------|


 B|---------------------------------------|----------------------------------------|
 G|---------------------------------------|----------------------------------------|
 D|---------------------------------------|----------------------------------------|
A#|---------------------------------------|-------------4--2-----------------------|
 F|---------------------------------------|-------------------3--2--0----0--0--0---|
 C|-5--2---2---2--5--2---2---2--5--2---2--|----2--0--2-----------------------------|


 B|---------------------------------|------------------------------|---------------------------------|
 G|---------------------------------|------------------------------|---------------------------------|
 D|---------------------------------|------------------------------|---------------------------------|
A#|---------------------------------|------------------------------|---------------------------------|
 F|-0---0---3----3---3--3---3---3---|-------------------------5----|-5---5---3---2---0----0---0--0---|
 C|---------------------------------|-1----1---1--1---1---1--------|---------------------------------|


 B|---------------------------------|---------------------------------|----------------------------------|
 G|---------------------------------|---------------------------------|----------------------------------|
 D|---------------------------------|---------------------------------|----------------------------------|
A#|---------------------------------|---------------------------------|----------------------------------|
 F|-0---0---3----3---3--3---3---3---|---------------------------------|-------2---2---2---0----0--0--0---|
 C|---------------------------------|-1----1---1--1---1---1---3----3--|----3-----------------------------|


 B|---------------------------------|------------------------------|---------------------------------|
 G|---------------------------------|------------------------------|---------------------------------|
 D|---------------------------------|------------------------------|---------------------------------|
A#|---------------------------------|------------------------------|---------------------------------|
 F|-0---0---3----3---3--3---3---3---|-------------------------5----|-5---5---3---2---0----0---0--0---|
 C|---------------------------------|-1----1---1--1---1---1--------|---------------------------------|


 B|---------------------------------|---------------------------------|-----------------------------------|
 G|---------------------------------|---------------------------------|-----------------------------------|
 D|---------------------------------|---------------------------------|-----------------------------------|
A#|---------------------------------|---------------------------------|-------------------2---2---2---2---|
 F|-0---0---3----3---3--3---3---3---|---------------------------------|-------2---2---2-------------------|
 C|---------------------------------|-1----1---1--1---1---1---3----3--|----3------------------------------|


 B|------------------------------|------------------------------|------------------------------|
 G|------------------------------|------------------------------|------------------------------|
 D|------------------------------|------------------------------|------------------------------|
A#|-----2---2---0---2---3----3---|-3---3---3----------------3---|-----3----3---3---3---3-------|
 F|------------------------------|-------------5----3---3-------|--------------------------5---|
 C|------------------------------|------------------------------|------------------------------|


 B|---------------------------|------------------------|---------------------------|
 G|---------------------------|------------------------|---------------------------|
 D|---------------------------|------------------------|---------------------------|
A#|---------------------------|------------------------|---------------------------|
 F|-----3---3---2----0----0---|-0----0---0----0---0----|---------------------------|
 C|---------------------------|------------------------|-----3----3---3----3---3---|


 B|------------------------|---------------------------|---------------------------|
 G|------------------------|---------------------------|---------------------------|
 D|------------------------|-------------------3-------|---------------------------|
A#|------------------------|-----------------------3---|---------------------------|
 F|------------------------|---------------------------|-5---2-----2---2-----------|
 C|-----3---3-----1----1---|-1----1---1----1-----------|-------------------5---4---|


 B|--------------------------|---------------------------------|---------------------------------|
 G|--------------------------|---------------------------------|---------------------------------|
 D|--------------------------|---------------------------------|---------------------------------|
A#|--------------------------|---------------------------------|---------------------------------|
 F|---------------0----0--0--|-0---0---0---3----3---3--3---3---|-3---------------------------5---|
 C|-----4---4----------------|---------------------------------|-----1----1---1--1---1---1-------|


 B|---------------------------------|---------------------------------|---------------------------------|
 G|---------------------------------|---------------------------------|---------------------------------|
 D|---------------------------------|---------------------------------|---------------------------------|
A#|---------------------------------|---------------------------------|---------------------------------|
 F|-----5---5---3---2---0----0---0--|-0---0---0---3----3---3--3---3---|-3-------------------------------|
 C|---------------------------------|---------------------------------|-----1----1---1--1---1---1---3---|


 B|----------------------------------|---------------------------------|---------------------------------|
 G|----------------------------------|---------------------------------|---------------------------------|
 D|----------------------------------|---------------------------------|---------------------------------|
A#|----------------------------------|---------------------------------|---------------------------------|
 F|-----------2---2---2---0----0--0--|-0---0---0---3----3---3--3---3---|-3---------------------------5---|
 C|----3---3-------------------------|---------------------------------|-----1----1---1--1---1---1-------|


 B|---------------------------------|---------------------------------|---------------------------------|
 G|---------------------------------|---------------------------------|---------------------------------|
 D|---------------------------------|---------------------------------|---------------------------------|
A#|---------------------------------|---------------------------------|---------------------------------|
 F|-----5---5---3---2---0----0---0--|-0---0---0---3----3---3--3---3---|-3-------------------------------|
 C|---------------------------------|---------------------------------|-----1----1---1--1---1---1---3---|


 B|--------|---------------------------|---------------------------------|---------------------------------|
 G|--------|---------------------------|---------------------------------|---------------------------------|
 D|--------|---------------------------|---------------------------------|---------------------------------|
A#|--------|---------------------------|---------------------------------|---------------------------------|
 F|--------|-----------7---7-------8---|-7---5---8---7---------------8---|-7---5---8---7---------------8---|
 C|--------|-------0-----------0-------|-----------------0---1---0-------|-----------------0---1---0-------|


 B|---------------------------------|------------------------------|---------------------------------|
 G|---------------------------------|------------------------------|---------------------------------|
 D|---------------------------------|------------------------------|---------------------------------|
A#|---------------------------------|------------------------------|---------------------------------|
 F|-7---5---8---7---------------5---|-----5--------7---7-------8---|-7---5---8---7---------------8---|
 C|-----------------0---1---0-------|----------0-----------0-------|-----------------0---1---0-------|


 B|---------------------------------|---------------------------------|------------------------------|
 G|---------------------------------|---------------------------------|------------------------------|
 D|---------------------------------|---------------------------------|------------------------------|
A#|---------------------------------|---------------------------------|------------------------------|
 F|-7---5---8---7---------------8---|-7---5---8---7---------------5---|-----5--------7---7-------8---|
 C|-----------------0---1---0-------|-----------------0---1---0-------|----------0-----------0-------|


 B|---------------------------------|---------------------------------|---------------------------------|
 G|---------------------------------|---------------------------------|---------------------------------|
 D|---------------------------------|---------------------------------|---------------------------------|
A#|---------------------------------|---------------------------------|---------------------------------|
 F|-7---5---8---7---------------8---|-7---5---8---7---------------8---|-7---5---8---7---------------5---|
 C|-----------------0---1---0-------|-----------------0---1---0-------|-----------------0---1---0-------|


 B|------------------------------|---------------------------------|---------------------------------|
 G|------------------------------|---------------------------------|---------------------------------|
 D|------------------------------|---------------------------------|---------------------------------|
A#|------------------------------|---------------------------------|---------------------------------|
 F|-----5--------7---7-------8---|-7---5---8---7---------------8---|-7---5---8---7---------------8---|
 C|----------0-----------0-------|-----------------0---1---0-------|-----------------0---1---0-------|


 B|---------------------------------|------------------------------|---------------------------------|
 G|---------------------------------|------------------------------|---------------------------------|
 D|---------------------------------|------------------------------|---------------------------------|
A#|---------------------------------|------------------------------|---------------------------------|
 F|-7---5---8---7---------------5---|-----5--------7---7-------8---|-7---5---8---7---------------8---|
 C|-----------------0---1---0-------|----------0-----------0-------|-----------------0---1---0-------|


 B|---------------------------------|---------------------------------|------------------------------|
 G|---------------------------------|---------------------------------|------------------------------|
 D|---------------------------------|---------------------------------|------------------------------|
A#|---------------------------------|---------------------------------|------------------------------|
 F|-7---5---8---7---------------8---|-7---5---8---7---------------5---|-----5--------7---7-------8---|
 C|-----------------0---1---0-------|-----------------0---1---0-------|----------0-----------0-------|


 B|---------------------------------|---------------------------------|---------------------------------|
 G|---------------------------------|---------------------------------|---------------------------------|
 D|---------------------------------|---------------------------------|---------------------------------|
A#|---------------------------------|---------------------------------|---------------------------------|
 F|-7---5---8---7---------------8---|-7---5---8---7---------------8---|-7---5---8---7---------------5---|
 C|-----------------0---1---0-------|-----------------0---1---0-------|-----------------0---1---0-------|


 B|------------------------------|---------------------------------|---------------------------------|
 G|------------------------------|---------------------------------|---------------------------------|
 D|------------------------------|---------------------------------|---------------------------------|
A#|------------------------------|---------------------------------|---------------------------------|
 F|-----5--------7---7-------8---|-7---5---8---7---------------8---|-7---5---8---7---------------8---|
 C|----------0-----------0-------|-----------------0---1---0-------|-----------------0---1---0-------|


 B|---------------------------------|------------------------------|---------------------------------|
 G|---------------------------------|------------------------------|---------------------------------|
 D|---------------------------------|------------------------------|---------------------------------|
A#|---------------------------------|------------------------------|---------------------------------|
 F|-7---5---8---7---------------5---|-----5--------7---7-------8---|-7---5---8---7---------------8---|
 C|-----------------0---1---0-------|----------0-----------0-------|-----------------0---1---0-------|


 B|---------------------------------|---------------------------------|------------------------------|
 G|---------------------------------|---------------------------------|------------------------------|
 D|---------------------------------|---------------------------------|------------------------------|
A#|---------------------------------|---------------------------------|------------------------------|
 F|-7---5---8---7---------------8---|-7---5---8---7---------------5---|-----5--------7---7-------8---|
 C|-----------------0---1---0-------|-----------------0---1---0-------|----------0-----------0-------|


 B|---------------------------------|---------------------------------|---------------------------------|
 G|---------------------------------|---------------------------------|---------------------------------|
 D|---------------------------------|---------------------------------|---------------------------------|
A#|---------------------------------|---------------------------------|---------------------------------|
 F|-7---5---8---7-------------------|-----------------7---7-------8---|-7---5---8---7---------------5---|
 C|-----------------0-------0---0---|----------0--0-----------0-------|-----------------0-------0-------|


 B|------------------------------|---------------------------------|---------------------------------|
 G|------------------------------|---------------------------------|---------------------------------|
 D|------------------------------|---------------------------------|---------------------------------|
A#|------------------------------|---------------------------------|---------------------------------|
 F|-----5--------7---7-------8---|-7---5---8---7-------------------|-----------------7---7-------8---|
 C|----------0-----------0-------|-----------------0-------0---0---|----------0--0-----------0-------|


 B|---------------------------------|------------------------------|---------------------------------|
 G|---------------------------------|------------------------------|---------------------------------|
 D|---------------------------------|------------------------------|---------------------------------|
A#|---------------------------------|------------------------------|---------------------------------|
 F|-7---5---8---7---------------5---|-5---5--------7---7-------8---|-7---5---8---7---------------8---|
 C|-----------------0-------0-------|----------0-----------0-------|-----------------0---0---0-------|


 B|---------------------------------|---------------------------------|------------------------------|
 G|---------------------------------|---------------------------------|------------------------------|
 D|---------------------------------|---------------------------------|------------------------------|
A#|---------------------------------|---------------------------------|------------------------------|
 F|-7---5---8---7---------------8---|-7---5---8---7---------------5---|-----5--------7---7-------8---|
 C|-----------------0---0---0-------|-----------------0---0---0-------|----------0-----------0-------|


 B|---------------------------------|---------------------------------|---------------------------------|
 G|---------------------------------|---------------------------------|---------------------------------|
 D|---------------------------------|---------------------------------|---------------------------------|
A#|---------------------------------|---------------------------------|---------------------------------|
 F|-7---5---8---7---------------8---|-7---5---8---7---------------8---|-7---5---8---7---------------5---|
 C|-----------------0---0---0-------|-----------------0---0---0-------|-----------------0---0---0-------|


 B|------------------------------|---------------------------------|---------------------------------|
 G|------------------------------|---------------------------------|---------------------------------|
 D|------------------------------|---------------------------------|---------------------------------|
A#|------------------------------|---------------------------------|---------------------------------|
 F|-----5--------7---7-------8---|-7---5---8---7---------------8---|-7---5---8---7---------------8---|
 C|----------0-----------0-------|-----------------0---0---0-------|-----------------0---0---0-------|


 B|-------------------------------------|-----------------------------------|---------------------------------|
 G|-------------------------------------|-----------------------------------|---------------------------------|
 D|-------------------------------------|-----------------------------------|---------------------------------|
A#|-------------------------------------|-----------------------------------|---------------------------------|
 F|-7---5---8---7-----------------------|-----2--3--5-------7---7-------8---|-7---5---8---7---------------8---|
 C|-----------------0---0---0--0--4--5--|-4-------------0-----------0-------|-----------------0---0---0-------|


 B|---------------------------------|-----------------------------------|-----------------------------------|
 G|---------------------------------|-----------------------------------|-----------------------------------|
 D|---------------------------------|-----------------------------------|-----------------------------------|
A#|---------------------------------|-----------------------------------|-----------------------------------|
 F|-7---5---8---7---------------8---|-7---5---8---7---------------------|-----2--3--5-------7---7-------8---|
 C|-----------------0---0---0-------|-----------------0---0---0---4--5--|-4-------------0-----------0-------|


 B|---------------------------------|---------------------------------|---------------------------------|
 G|---------------------------------|---------------------------------|---------------------------------|
 D|---------------------------------|---------------------------------|---------------------------------|
A#|---------------------------------|---------------------------------|---------------------------------|
 F|-7---5---8---7---------------8---|-7---5---8---7---------------8---|-7---5---8---7---------------5---|
 C|-----------------0---0---0-------|-----------------0---0---0-------|-----------------0---0---0-------|


 B|------------------------------|---------------------------------|---------------------------------|
 G|------------------------------|---------------------------------|---------------------------------|
 D|------------------------------|---------------------------------|---------------------------------|
A#|------------------------------|---------------------------------|---------------------------------|
 F|-----5--------7---7-------8---|-7---5---8---7---------------8---|-7---5---8---7---------------8---|
 C|----------0-----------0-------|-----------------0---0---0-------|-----------------0---0---0-------|


 B|---------------------------------|--------------------------------------|---------------------------------------------|
 G|---------------------------------|--------------------------------------|---------------------------------------------|
 D|---------------------------------|--------------------------------------|-----------6--5--5---8--6--10-8--11-8--10-8--|
A#|---------------------------------|--------------------------------7--6--|-6---7--6------------------------------------|
 F|-7---5---8---7---------------5---|-----5----7--5--8--7--7---7--5--------|---------------------------------------------|
 C|-----------------0---0---0-------|--------------------------------------|---------------------------------------------|


 B|-----------------------------------------------|------------------------------------------------------|
 G|-----------------------------------------------|---------------------------------------------12-10-9--|
 D|-------8---------------------------------------|-----------6--5--5---8--6--11-10-8--11-10-8-----------|
A#|-10-9-----10-9--7------------------------7--6--|-6---7--6---------------------------------------------|
 F|-------------------7--5--8--7--7---7--5--------|------------------------------------------------------|
 C|-----------------------------------------------|------------------------------------------------------|


 B|--------------------------------------------------------|---------------------------------------------|
 G|--------------------------------------------------------|---------------------------------------------|
 D|-11-10-8------------------------------------------------|-----------6--5--5---8--6--10-8--11-8--10-8--|
A#|----------10-9--7--6--7--9------------------------7--6--|-6---7--6------------------------------------|
 F|----------------------------7--5--8--7--7---7--5--------|---------------------------------------------|
 C|--------------------------------------------------------|---------------------------------------------|


 B|-----------------------------------------------|------------------------------------------------------|
 G|-----------------------------------------------|------------------------------------------------------|
 D|-------8---------------------------------------|-----------6--5--5---8--6--11-10-8--11-10-8--10-11-13-|
A#|-10-9-----10-9--7------------------------7--6--|-6---7--6---------------------------------------------|
 F|-------------------7--5--8--7--7---7--5--------|------------------------------------------------------|
 C|-----------------------------------------------|------------------------------------------------------|


 B|-------------------11-12-13-----------|--------------------|------------------------|
 G|-9--10-12-10-12-13--------------------|--------------------|------------------------|
 D|--------------------------------------|--------------------|------------------------|
A#|--------------------------------------|--------------------|------------------------|
 F|--------------------------------------|--------------------|------------------------|
 C|----------------------------4---------|-0---------0--------|------0--------0--------|


 B|---------------------------|-----------------------|-----------------|-8---9---8-----------------------|
 G|---------------------------|-----------------------|-----------------|-------------10--9-------9---10--|
 D|---------------------------|-----------------------|-----------------|---------------------11----------|
A#|---------------------------|-----------------------|-------2---2-----|---------------------------------|
 F|---------------------------|---------------2-------|-----------------|---------------------------------|
 C|-0--------0--------0---0---|-----0-----------------|-----------------|---------------------------------|


 B|---------------------------------|---------------------|----------------8---9---|
 G|-9-------------------------------|---------------------|------------------------|
 D|-----11--10--8---10--11--10------|---------------------|------------------------|
A#|-----------------------------0---|-----0---------------|-----3----3-------------|
 F|---------------------------------|-----------2----2----|------------------------|
 C|---------------------------------|---------------------|------------------------|


 B|-8-------------------------------|------------------------------|---------------------|
 G|-----10--9-------9---10--9-------|------------------------------|---------------------|
 D|-------------11--------------11--|-10--8---10--11--10-----------|-----------------2---|
A#|---------------------------------|---------------------3----3---|------0----0---------|
 F|---------------------------------|------------------------------|---------------------|
 C|---------------------------------|------------------------------|---------------------|


 B|---------------------|------------------|-----------------|---------------------------|
 G|---------------------|------------------|-----------------|---------------------------|
 D|-----2---------------|------------------|-----------------|---------------------------|
A#|-----------3-----0---|------------------|-----------------|---------------------------|
 F|---------------------|------2-----------|-----------------|---------------------------|
 C|---------------------|------------1-----|-0-----0---------|-0---0---0---------0-------|


 B|------------------------|-----------------------|-----------------|-----------------------------------|
 G|------------------------|-----------------------|-----------------|-5-------5-------------------------|
 D|------------------------|-----------------------|-----------------|-----------------------------------|
A#|------------------------|-----------------------|-----------------|-----2-------2--2--2---7---3---6---|
 F|------------------------|-----------------------|-----------------|-----------------------------------|
 C|-------0-------0--------|-0---------0---0---0---|-------0---------|-----------------------------------|


 B|---------------------------------|---------------------------------|--------------------------------|
 G|---------------------------------|---------------------------------|--------------------------------|
 D|---------------------------------|-5---2---3---2---6---5-------5---|-6---8---5---6--5---------------|
A#|-3-------3---6---3---------------|-------------------------7-------|-------------------7---6--------|
 F|-----7---------------7---5---7---|---------------------------------|--------------------------------|
 C|---------------------------------|---------------------------------|---------------------------0----|


 B|-----------------------------|--------------------------------|--------------------------------|
 G|-----------0-----5---5---0---|-0---5--------0-----6---6---0---|-0---6--------0-----5---5---0---|
 D|-----------------------------|--------------------------------|--------------------------------|
A#|-----------------------------|--------------------------------|--------------------------------|
 F|------7----------------------|---------7----------------------|---------7----------------------|
 C|-----------------------------|--------------------------------|--------------------------------|


 B|--------------------------------|--------------------------------|--------------------------------|
 G|-0---5--------0-----6---6---3---|-0------------0-----5---5---0---|-0---5--------0-----6---6---0---|
 D|--------------------------------|--------------------------------|--------------------------------|
A#|--------------------------------|-----3--------------------------|--------------------------------|
 F|---------7----------------------|---------7----------------------|---------7----------------------|
 C|--------------------------------|--------------------------------|--------------------------------|


 B|--------------------------------|--------------------------------|--------------------------------|
 G|-0---6--------0-----5---5---0---|-0---5--------0-----6---6---3---|-0------------0-----5---5---0---|
 D|--------------------------------|--------------------------------|--------------------------------|
A#|--------------------------------|--------------------------------|-----3--------------------------|
 F|---------7----------------------|---------7----------------------|---------7----------------------|
 C|--------------------------------|--------------------------------|--------------------------------|


 B|--------------------------------|--------------------------------|--------------------------------|
 G|-0---5--------0-----6---6---0---|-0---6--------0-----5---5---0---|-0---5--------0-----6---6---3---|
 D|--------------------------------|--------------------------------|--------------------------------|
A#|--------------------------------|--------------------------------|--------------------------------|
 F|---------7----------------------|---------7----------------------|---------7----------------------|
 C|--------------------------------|--------------------------------|--------------------------------|


 B|--------------------------------|--------------------------------|--------------------------------|
 G|-0------------0-----5---5---0---|-0---5--------0-----6---6---0---|-0---6--------0-----5---5---0---|
 D|--------------------------------|--------------------------------|--------------------------------|
A#|-----3--------------------------|--------------------------------|--------------------------------|
 F|---------7----------------------|---------7----------------------|---------7----------------------|
 C|--------------------------------|--------------------------------|--------------------------------|


 B|--------------------------------|--------------------------------|--------------------------------|
 G|-0---5--------0-----6---6---3---|-0------------0-----5---5---0---|-0---5--------0-----6---6---0---|
 D|--------------------------------|--------------------------------|--------------------------------|
A#|--------------------------------|-----3--------------------------|--------------------------------|
 F|---------7----------------------|---------7----------------------|---------7----------------------|
 C|--------------------------------|--------------------------------|--------------------------------|


 B|--------------------------------|--------------------------------|-----------------------------------|
 G|-0---6--------0-----5---5---0---|-0---5--------0-----6---6---3---|-0---------------------------------|
 D|--------------------------------|--------------------------------|-----------------------------------|
A#|--------------------------------|--------------------------------|-----3-----------------------------|
 F|---------7----------------------|---------7----------------------|---------5----5--5--5--5---5---5---|
 C|--------------------------------|--------------------------------|-----------------------------------|


 B|-----------------------------------|---------------------------------------|-----------------------------------|
 G|-----------------------------------|---------------------------------------|-----------------------------------|
 D|-----------------------------------|---------------------------------------|-----------------------------------|
A#|-----------------------------------|---------------------------------------|-----------------------------------|
 F|-5---5---5----5--5--5--5---5---5---|-5--5--5---5----5--5--5--5---5---5--5--|-5---5---5----5--5--5--5---5---5---|
 C|-----------------------------------|---------------------------------------|-----------------------------------|


 B|-----------------------------------------------|-------------------------------------------------|
 G|-----------------0-----5--5-----5-----5-----5--|-0-----5-----------0-----6--6-----6-----6-----6--|
 D|-----------------------------------------------|-------------------------------------------------|
A#|-----------2-----------------------------------|-------------2-----------------------------------|
 F|-5--5--5---------------------------------------|-------------------------------------------------|
 C|-----------------------------------------------|-------------------------------------------------|


 B|-------------------------------------------------|-------------------------------------------------|
 G|-0-----6-----------0-----5--5-----5-----5-----5--|-0-----5-----------0-----6--6-----6-----6--3-----|
 D|-------------------------------------------------|-------------------------------------------------|
A#|-------------------------------------------------|-------------------------------------------------|
 F|-------------7-----------------------------------|-------------7-----------------------------------|
 C|-------------------------------------------------|-------------------------------------------------|


 B|-------------------------------------------------|-------------------------------------------------|
 G|-0-----------------0-----5--5-----5-----5-----5--|-0-----5-----------0-----6--6-----6-----6-----6--|
 D|-------------------------------------------------|-------------------------------------------------|
A#|-------3-----2-----------------------------------|-------------2-----------------------------------|
 F|-------------------------------------------------|-------------------------------------------------|
 C|-------------------------------------------------|-------------------------------------------------|


 B|-------------------------------------------------|-------------------------------------------------|
 G|-0-----6-----------0-----5--5-----5-----5-----5--|-0-----5-----------0-----6--6-----6-----6--3-----|
 D|-------------------------------------------------|-------------------------------------------------|
A#|-------------------------------------------------|-------------------------------------------------|
 F|-------------7-----------------------------------|-------------7-----------------------------------|
 C|-------------------------------------------------|-------------------------------------------------|


 B|------------------------------------|--------------------------------|--------------------------------|
 G|-0----------------0-----5---5---0---|-0---5--------0-----6---6---0---|-0---6--------0-----5---5---0---|
 D|------------------------------------|--------------------------------|--------------------------------|
A#|-------3----------------------------|--------------------------------|--------------------------------|
 F|-------------7----------------------|---------7----------------------|---------7----------------------|
 C|------------------------------------|--------------------------------|--------------------------------|


 B|--------------------------------|--------------------------------|--------------------------------|
 G|-0---5--------0-----6---6---3---|-0------------0-----5---5---0---|-0---5--------0-----6---6---0---|
 D|--------------------------------|--------------------------------|--------------------------------|
A#|--------------------------------|-----3--------------------------|--------------------------------|
 F|---------7----------------------|---------7----------------------|---------7----------------------|
 C|--------------------------------|--------------------------------|--------------------------------|


 B|--------------------------------|--------------------------------|-----------------------------------|
 G|-0---6--------0-----5---5---5---|-0---5--------0-----6---6---6---|-0---------------------------------|
 D|--------------------------------|--------------------------------|-----------------------------------|
A#|--------------------------------|--------------------------------|-----3-----------------------------|
 F|---------7----------------------|---------7----------------------|---------5----5--5--5--5---5---5---|
 C|--------------------------------|--------------------------------|-----------------------------------|


 B|-----------------------------------|---------------------------------------|-------------------------------------|
 G|-----------------------------------|---------------------------------------|-------------------------------------|
 D|-----------------------------------|---------------------------------------|-------------------------------------|
A#|-----------------------------------|---------------------------------------|-------------------------------------|
 F|-5---5---5----5--5--5--5---5---5---|-5--5--5---2----2--2--2--2---2---2--2--|-2---2-------------------------------|
 C|-----------------------------------|---------------------------------------|---------1----1--1--1--1---1---1--1--|


 B|----------------|--------------------|--------------------|--------------------------------|
 G|----------------|--------------------|--------------------|--------------------------------|
 D|----------------|--------------------|--------------------|--------------------------------|
A#|----------------|--------------------|--------------------|--------------------------------|
 F|----------------|--------------------|--------------------|--------------------------------|
 C|-1---1---0------|------0---0---------|------0---0---------|------0---0-------0---3--3--1---|


 B|-----------------------------------|-----------------------------------|-----------------------------------|
 G|-----------------------------------|-----------------------------------|-----------------------------------|
 D|-----------------------------------|-----------------------------------|-----------------------------------|
A#|---------------------------0---0---|-----------------------------------|---------------------------0---0---|
 F|-----------------------------------|-3---3-----------------------------|-----------------------1-----------|
 C|-3--3--1---0---0-------0-----------|---------0---0-------0---3--3--1---|-3--3--1---0---0-------------------|


 B|-----------------------------------|-----------------------------------|-----------------------------------|
 G|-----------------------------------|-----------------------------------|-----------------------------------|
 D|-----------------------------------|-----------------------------------|-----------------------------------|
A#|-1---1-----------------------------|---------------------------0---0---|-----------------------------------|
 F|-----------------------------------|-----------------------------------|-3---3-----------------------------|
 C|---------0---0-------0---3--3--1---|-3--3--1---0---0-------0-----------|---------0---0-------0---3--3--1---|


 B|-----------------------------------|----------------|-------------|-------------|
 G|-----------------------------------|----------------|-------------|-------------|
 D|-----------------------------------|----------------|-------------|-------------|
A#|---------------------------0---0---|-1---1----------|-------------|-------------|
 F|-----------------------1-----------|---------0------|--------2----|-------3-----|
 C|-3--3--1---0---0-------------------|----------------|-------------|-------------|


 B|-------------|-------------|--------|-------------|-------------|--------|-------------|
 G|-------------|-------------|--------|-------------|-------------|--------|-------------|
 D|-------------|-------------|--------|-------------|-------------|--------|-------------|
A#|-------------|-------------|--------|-------------|-------------|--------|-------------|
 F|-------------|-------------|--------|------0------|-------------|--------|-------------|
 C|------1------|--------3----|--------|-------------|--------3----|--------|------1------|


 B|------------------------|-----------------------|-----------------------------|
 G|------------------------|-----------------------|-----------------------------|
 D|-------3----------------|-----------------------|-----------------------------|
A#|-----------3------------|-----------------------|-----------------------------|
 F|---------------5---2----|-----2---2-------------|------0----0--0--0---0---0---|
 C|-1----------------------|-------------5---4-----|-----------------------------|


 B|---------------------------------|--------------------------------|---------------------------------|
 G|---------------------------------|--------------------------------|---------------------------------|
 D|---------------------------------|--------------------------------|---------------------------------|
A#|---------------------------------|--------------------------------|---------------------------------|
 F|-3----3---3--3---3---3-----------|-------------------5----5---5---|-3---2---0----0---0--0---0---0---|
 C|-------------------------1----1--|----1--1---1---1----------------|---------------------------------|


 B|---------------------------------|-----------------------------------|--------------------------------|
 G|---------------------------------|-----------------------------------|--------------------------------|
 D|---------------------------------|-----------------------------------|--------------------------------|
A#|---------------------------------|-----------------------------------|--------------------------------|
 F|-3----3---3--3---3---3-----------|-------------------------------2---|-2---2---0----0--0--0---0---0---|
 C|-------------------------1----1--|----1--1---1---1---3----3---3------|--------------------------------|


 B|---------------------------------|--------------------------------|---------------------------------|
 G|---------------------------------|--------------------------------|---------------------------------|
 D|---------------------------------|--------------------------------|---------------------------------|
A#|---------------------------------|--------------------------------|---------------------------------|
 F|-3----3---3--3---3---3-----------|-------------------5----5---5---|-3---2---0----0---0--0---0---0---|
 C|-------------------------1----1--|----1--1---1---1----------------|---------------------------------|


 B|---------------------------------|-----------------------------------|---------------------|
 G|---------------------------------|-----------------------------------|---------------------|
 D|---------------------------------|-----------------------------------|---------------------|
A#|---------------------------------|-----------------------------------|---------------7-----|
 F|-3----3---3--3---3---3-----------|-------------------------------2---|-2---2---0-----------|
 C|-------------------------1----1--|----1--1---1---1---3----3---3------|---------------------|


 B|-------------|---------------------------|---------------------|-------------|-------------|
 G|-------------|---------------------------|---------------------|-------------|-------------|
 D|-------------|-----6----6---6----6---6---|---------------------|-------------|-------------|
A#|-------------|---------------------------|------------3----3---|-3-----------|-------------|
 F|-0------3----|---------------------------|---------------------|--------5----|-------------|
 C|-------------|---------------------------|------1--------------|-------------|-------3-----|


 B|------------------|-------------|-------------------------|---------------------|
 G|------------------|-------------|-------------------------|---------------------|
 D|------------------|-------------|-----6---6--8--6---6-----|---------------------|
A#|------------7-----|-------------|-------------------------|---------------------|
 F|------0-----------|-0------3----|-3-----------------------|---------------------|
 C|------------------|-------------|-------------------------|------1-----1----1---|


 B|-------------|-------------|------------------|-------------|---------------------------|
 G|-------------|-------------|------------------|-------------|---------------------------|
 D|-------------|-------------|------------------|-------------|-----6----6---6----6---6---|
A#|-------------|-------------|------------7-----|-------------|---------------------------|
 F|--------5----|-------------|------0-----------|-0------3----|---------------------------|
 C|-1-----------|-------3-----|------------------|-------------|---------------------------|


 B|---------------------|-------------|-------------|------------------|-------------|
 G|---------------------|-------------|-------------|------------------|-------------|
 D|---------------------|-------------|-------------|------------------|-------------|
A#|------------3----3---|-3-----------|-------------|------------7-----|-------------|
 F|---------------------|--------5----|-------------|------0-----------|-0------3----|
 C|------1--------------|-------------|-------3-----|------------------|-------------|


 B|-------------------------|---------------------|-------------|-------------|-----------------------------|
 G|-------------------------|---------------------|-------------|-------------|-----------------------------|
 D|-----6---6--8--6---6-----|---------------------|-------------|-------------|-----------------------------|
A#|-------------------------|---------------------|-------------|-------------|-----------------------------|
 F|-3-----------------------|---------------------|--------5----|-------------|------0----0--0--0--0----0---|
 C|-------------------------|------1-----1----1---|-1-----------|-------3-----|-----------------------------|


 B|-----------------------------------|-------------------------------------------|
 G|-----------------------------------|-------5-----------------------------6-----|
 D|--------------------------------6--|-6--8---------6--6--6--6----6--6--8-----8--|
A#|-----------------------------------|-------------------------------------------|
 F|-0----0--0--0--0---0---0---3-------|-------------------------------------------|
 C|-----------------------------------|-------------------------------------------|


 B|--------------------------------|-----------------------------------|---------------------------------|
 G|--------------------------------|-----------------------------------|---------------------------------|
 D|-6------------------------------|-----------------------------------|---------------------------------|
A#|-----5---3----3--3--3--3--------|---------------3---3---2-----------|---------------------------------|
 F|----------------------------3---|---------------------------5---5---|-5---5---5---5-------------------|
 C|--------------------------------|-1----1--1--1----------------------|-----------------3---3---3---3---|


 B|--------------------------------|-----------------------------------|----------------------------------|
 G|--------------------------------|-----------------------------------|----------------------------------|
 D|--------------------------------|-----------------------------------|----------------------------------|
A#|--------------------------------|-----------------------------------|----------------------------------|
 F|---------0----0--0--0--0----0---|-0----0--0--0--0---0---0---3----3--|-3--3--3----3---3----3--3--3--3---|
 C|-3---3--------------------------|-----------------------------------|----------------------------------|


 B|---------------------------------------|------------------------------|-------------|
 G|---------------------------------------|------------------------------|-------------|
 D|---------------------------------------|------------------------------|-------------|
A#|------------3---3--2-------------------|------------------------------|-------------|
 F|-3---3---3------------5--3-------------|-------------------------5----|-------------|
 C|----------------------------1--3---0---|-1---1---1---1---1---1--------|-------3-----|


 B|-----------------------------|-----------------------------------|------------------------------------|
 G|-----------------------------|-----------------------------------|------------------------------------|
 D|-----------------------------|-----------------------------------|------------------------------------|
A#|-----------------------------|-----------------------------------|------------------------------3-----|
 F|------0----0--0--0--0----0---|-0----0--0--0--0---0---0---3----3--|-3--3--3----3---3----3--3--3-----5--|
 C|-----------------------------|-----------------------------------|------------------------------------|


 B|---------13-11----------------------------------------|-----------------------------------13-11-------|
 G|------------------13-13-13-12-12-12-10-10-10----------|--------------------------------------------13-|
 D|---------------------------------------------13-13-13-|-11-----10-------------------------------------|
A#|------------------------------------------------------|----12-----12-10-10-10-9--9--7--7--------------|
 F|-3----------------------------------------------------|-----------------------------------------------|
 C|-----3------------------------------------------------|-----------------------------------------------|


 B|--------------------------------------------|-----------------------------|-----------------------------------|
 G|-13-13-10-10-10-----------------------------|-----------------------------|-----------------------------------|
 D|----------------13-13-13-11-11-11-----------|-----------------------------|-----------------------------------|
A#|--------------------------------------------|-----------------------------|-----------------------------------|
 F|--------------------------------------------|------0----0--0--0--0----0---|-0----0--0--0--0---0---0---3----3--|
 C|----------------------------------3-----3---|-----------------------------|-----------------------------------|


 B|------------------------------------|--------------------------------|---------------------------------------|
 G|------------------------------------|--------------------------------|------------------------------------6--|
 D|------------------------------------|--------------------------------|---------------------------8--8--8-----|
A#|------------------------------3-----|--------------------------------|---------------------------------------|
 F|-3--3--3----3---3----3--3--3-----5--|-3------------------------------|---------------------------------------|
 C|------------------------------------|-----3---1----1--1--1--1----1---|-1----1--1--1--1---1---1---------------|


 B|-----------9---11------------|----------------------------------|---------------------------------|
 G|-6--8--10--------------------|----------------------------------|---------------------------------|
 D|-----------------------------|-------------------------6--5--3--|-3---5---6---8---6---5---6----10-|
A#|-----------------------------|----------------------------------|---------------------------------|
 F|-----------------------------|------0----0--0--0--0-------------|---------------------------------|
 C|-------------------3-----3---|----------------------------------|---------------------------------|


 B|---------------------------------------|------------------------------------------------------|
 G|---------------------------------------|---------5--3-----------------------------------------|
 D|-8--6--6----10-8--6--6----10-8--6--6---|-6---6------------6--6--6--5--5--5--3--3--3-----------|
A#|---------------------------------------|---------------------------------------------5--5--5--|
 F|---------------------------------------|------------------------------------------------------|
 C|---------------------------------------|------------------------------------------------------|


 B|---------------------------------|---------------------------------|----------------|
 G|---------------------------------|---------------------------------|----------------|
 D|---------------------------------|---------------------------------|----------------|
A#|---------------------------------|---------------------------------|----------------|
 F|-------------------------5---5---|-5---5---5---5-------------------|---------0------|
 C|-1---1---1---1---1---1-----------|-----------------3---3---3---3---|-3---3----------|


 B|-------------|--------|-------------|-------------|-------------|-------------|
 G|-------------|--------|-------------|-------------|-------------|-------------|
 D|-------------|--------|-------------|-------------|-------------|-------------|
A#|-------------|--------|-------------|-------------|-------------|-------------|
 F|--------3----|--------|-------------|-------------|-------------|-------------|
 C|-------------|--------|-------------|-------------|-------------|-------------|


 B|--------------------|--------|--------|
 G|--------------------|--------|--------|
 D|--------------------|--------|--------|
A#|--------------------|--------|--------|
 F|--------------------|--------|--------|
 C|--------------------|--------|--------|