Menu:

 

Search:

 

dream theater - i walk beside you:

 



Title: I Walk Beside You
Artist: 
Album: Octavarium
Author: Dream Theater


Track 1: Electr. Gtr. I

D|---------------------------------|---------------------------------|---------------------------------|
A|-5---5---5---5---5---5---5---5---|-5---4---4---4---4---4---4---4---|-5---5---5---5---5---5---5---5---|
F|-6---6---6---6---6---6---6---6---|-6---6---6---6---6---6---6---6---|-6---6---6---6---6---6---6---6---|
C|---------------------------------|---------------------------------|---------------------------------|
G|---------------------------------|---------------------------------|---------------------------------|
D|---------------------------------|---------------------------------|---------------------------------|


D|---------------------------------|---------------------------------|---------------------------------|
A|-5---4---4---4---4---4---4---4---|-5---5---5---5---5---5---5---5---|-5---4---4---4---4---4---4---4---|
F|-6---6---6---6---6---6---6---6---|-6---6---6---6---6---6---6---6---|-6---6---6---6---6---6---6---6---|
C|---------------------------------|---------------------------------|---------------------------------|
G|---------------------------------|---------------------------------|---------------------------------|
D|---------------------------------|---------------------------------|---------------------------------|


D|---------------------------------|---------------------------------|---------------------------------|
A|-5---5---5---5---5---5---5---5---|-5---4---4---4---4---4---4---4---|-5---5---5---5---5---5---5---5---|
F|-6---6---6---6---6---6---6---6---|-6---6---6---6---6---6---6---6---|-6---6---6---6---6---6---6---6---|
C|---------------------------------|---------------------------------|---------------------------------|
G|---------------------------------|---------------------------------|---------------------------------|
D|---------------------------------|---------------------------------|---------------------------------|


D|---------------------------------|---------------------------------|---------------------------------|
A|-5---4---4---4---4---4---4---4---|-5---5---5---5---5---5---5---5---|-5---4---4---4---4---4---4---4---|
F|-6---6---6---6---6---6---6---6---|-6---6---6---6---6---6---6---6---|-6---6---6---6---6---6---6---6---|
C|---------------------------------|---------------------------------|---------------------------------|
G|---------------------------------|---------------------------------|---------------------------------|
D|---------------------------------|---------------------------------|---------------------------------|


D|---------------------------------|---------------------------------|---------------------------------|
A|-5---5---5---5---5---5---5---5---|-5---4---4---4---4---4---4---4---|-5---5---5---5---5---5---5---5---|
F|-6---6---6---6---6---6---6---6---|-6---6---6---6---6---6---6---6---|-6---6---6---6---6---6---6---6---|
C|---------------------------------|---------------------------------|---------------------------------|
G|---------------------------------|---------------------------------|---------------------------------|
D|---------------------------------|---------------------------------|---------------------------------|


D|---------------------------------|---------------------------------|---------------------------------|
A|-5---4---4---4---4---4---4---4---|-5---5---5---5---5---5---5---5---|-5---4---4---4---4---4---4---4---|
F|-6---6---6---6---6---6---6---6---|-6---6---6---6---6---6---6---6---|-6---6---6---6---6---6---6---6---|
C|---------------------------------|---------------------------------|---------------------------------|
G|---------------------------------|---------------------------------|---------------------------------|
D|---------------------------------|---------------------------------|---------------------------------|


D|---------------------------------|---------------------------------|---------------------------------|
A|-5---5---5---5---5---5---5---5---|-5---4---4---4---4---4---4---4---|-5---5---5---5---5---5---5---5---|
F|-6---6---6---6---6---6---6---6---|-6---6---6---6---6---6---6---6---|-6---6---6---6---6---6---6---6---|
C|---------------------------------|---------------------------------|---------------------------------|
G|---------------------------------|---------------------------------|---------------------------------|
D|---------------------------------|---------------------------------|---------------------------------|


D|---------------------------------|---------------------------------|---------------------------------|
A|-5---4---4---4---4---4---4---4---|-5---5---5---5---5---5---5---5---|-5---4---4---4---4---4---4---4---|
F|-6---6---6---6---6---6---6---6---|-6---6---6---6---6---6---6---6---|-6---6---6---6---6---6---6---6---|
C|---------------------------------|---------------------------------|---------------------------------|
G|---------------------------------|---------------------------------|---------------------------------|
D|---------------------------------|---------------------------------|---------------------------------|


D|---------------------------------|---------------------------------|---------------------------------|
A|-5---5---5---5---5---5---5---5---|-5---4---4---4---4---4---4---4---|-5---5---5---5---5---5---5---5---|
F|-6---6---6---6---6---6---6---6---|-6---6---6---6---6---6---6---6---|-6---6---6---6---6---6---6---6---|
C|---------------------------------|---------------------------------|---------------------------------|
G|---------------------------------|---------------------------------|---------------------------------|
D|---------------------------------|---------------------------------|---------------------------------|


D|---------------------------------|---------------------------------|---------------------------------|
A|-5---4---4---4---4---4---4---4---|-5-----------5-----------5-------|-4-----------4-----------4-------|
F|-6---6---6---6---6---6---6---6---|---------6-----------6-----------|---------6-----------6-----------|
C|---------------------------------|-----7-----------7-----------7---|-----7-----------7-----------7---|
G|---------------------------------|---------------------------------|---------------------------------|
D|---------------------------------|---------------------------------|---------------------------------|


D|---------------------------------|---------------------------------|---------------------------------|
A|-4-----------4-----------4-------|-5-----------5-----------5-------|-5-----------5-----------5-------|
F|---------6-----------6-----------|---------6-----------6-----------|---------6-----------6-----------|
C|-----6-----------6-----------6---|-----6-----------6-----------6---|-----7-----------7-----------7---|
G|---------------------------------|---------------------------------|---------------------------------|
D|---------------------------------|---------------------------------|---------------------------------|


D|---------------------------------|---------------------------------|---------------------------------|
A|-4-----------4-----------4-------|-5-----------5-----------5-------|-7-----------7-----------7-------|
F|---------4-----------4-----------|-----4---4-------4---4-------4---|-----4---4-------4---4-------4---|
C|-----6-----------6-----------6---|---------------------------------|---------------------------------|
G|---------------------------------|---------------------------------|---------------------------------|
D|---------------------------------|---------------------------------|---------------------------------|


D|-4-------4---4---------4---|-4-------4---4---------4---|-4-------4---4---------4---|
A|-----5-----------5---------|-----5-----------5---------|-----5-----------5---------|
F|---------------------------|---------------------------|---------------------------|
C|---------------------------|---------------------------|---------------------------|
G|---------------------------|---------------------------|---------------------------|
D|---------------------------|---------------------------|---------------------------|


D|-4-------4---4---------4---|-4-------4---4---------4---|-4-------4---4---------4---|
A|-----5-----------5---------|-----5-----------5---------|-----5-----------5---------|
F|---------------------------|---------------------------|---------------------------|
C|---------------------------|---------------------------|---------------------------|
G|---------------------------|---------------------------|---------------------------|
D|---------------------------|---------------------------|---------------------------|


D|-4-------4---4---------4---|-7---7---7---7---7-----------4---|-4-------4-------------|
A|-----5-----------5---------|---------------------------------|-----5-----------------|
F|---------------------------|---------------------2---4-------|-------------4---4-----|
C|---------------------------|---------------------------------|-----------------------|
G|---------------------------|---------------------------------|-----------------------|
D|---------------------------|---------------------------------|-----------------------|


D|------------5----4---|-4-------4-------------|------------5----4---|-4-------4-------------|
A|-------5-------------|-----5-----------------|-------5-------------|-----5-----------------|
F|-4-------------------|-------------5---5-----|-5-------------------|-------------6---6-----|
C|---------------------|-----------------------|---------------------|-----------------------|
G|---------------------|-----------------------|---------------------|-----------------------|
D|---------------------|-----------------------|---------------------|-----------------------|


D|----------4----------|---------7---9------------12--|-12------------------------------|
A|------5--------5-----|-----10-----------10----------|-------------10--10----------10--|
F|-6-------------------|-9--------------------9-------|-----9---9-----------9---9-------|
C|---------------------|------------------------------|---------------------------------|
G|---------------------|------------------------------|---------------------------------|
D|---------------------|------------------------------|---------------------------------|


D|-4------|-4------|-4------|-4------|---------------------------------|---------------------------------|
A|-5------|-5------|-5------|-5------|-5---5---5---5---5---5---5---5---|-5---4---4---4---4---4---4---4---|
F|-6------|-6------|-6------|-6------|-6---6---6---6---6---6---6---6---|-6---6---6---6---6---6---6---6---|
C|--------|--------|--------|--------|---------------------------------|---------------------------------|
G|--------|--------|--------|--------|---------------------------------|---------------------------------|
D|--------|--------|--------|--------|---------------------------------|---------------------------------|


D|---------------------------------|---------------------------------|---------------------------------|
A|-5---5---5---5---5---5---5---5---|-5---4---4---4---4---4---4---4---|-5---5---5---5---5---5---5---5---|
F|-6---6---6---6---6---6---6---6---|-6---6---6---6---6---6---6---6---|-6---6---6---6---6---6---6---6---|
C|---------------------------------|---------------------------------|---------------------------------|
G|---------------------------------|---------------------------------|---------------------------------|
D|---------------------------------|---------------------------------|---------------------------------|


D|---------------------------------|---------------------------------|---------------------------------|
A|-5---4---4---4---4---4---4---4---|-5---5---5---5---5---5---5---5---|-5---4---4---4---4---4---4---4---|
F|-6---6---6---6---6---6---6---6---|-6---6---6---6---6---6---6---6---|-6---6---6---6---6---6---6---6---|
C|---------------------------------|---------------------------------|---------------------------------|
G|---------------------------------|---------------------------------|---------------------------------|
D|---------------------------------|---------------------------------|---------------------------------|


D|---------------------------------|---------------------------------|---------------------------------|
A|-5---5---5---5---5---5---5---5---|-5---4---4---4---4---4---4---4---|-5---5---5---5---5---5---5---5---|
F|-6---6---6---6---6---6---6---6---|-6---6---6---6---6---6---6---6---|-6---6---6---6---6---6---6---6---|
C|---------------------------------|---------------------------------|---------------------------------|
G|---------------------------------|---------------------------------|---------------------------------|
D|---------------------------------|---------------------------------|---------------------------------|


D|---------------------------------|---------------------------------|---------------------------------|
A|-5---4---4---4---4---4---4---4---|-5---5---5---5---5---5---5---5---|-5---4---4---4---4---4---4---4---|
F|-6---6---6---6---6---6---6---6---|-6---6---6---6---6---6---6---6---|-6---6---6---6---6---6---6---6---|
C|---------------------------------|---------------------------------|---------------------------------|
G|---------------------------------|---------------------------------|---------------------------------|
D|---------------------------------|---------------------------------|---------------------------------|


D|---------------------------------|---------------------------------|---------------------------------|
A|-5---5---5---5---5---5---5---5---|-5---4---4---4---4---4---4---4---|-5-----------5-----------5-------|
F|-6---6---6---6---6---6---6---6---|-6---6---6---6---6---6---6---6---|---------6-----------6-----------|
C|---------------------------------|---------------------------------|-----7-----------7-----------7---|
G|---------------------------------|---------------------------------|---------------------------------|
D|---------------------------------|---------------------------------|---------------------------------|


D|---------------------------------|---------------------------------|---------------------------------|
A|-4-----------4-----------4-------|-4-----------4-----------4-------|-5-----------5-----------5-------|
F|---------6-----------6-----------|---------6-----------6-----------|---------6-----------6-----------|
C|-----7-----------7-----------7---|-----6-----------6-----------6---|-----6-----------6-----------6---|
G|---------------------------------|---------------------------------|---------------------------------|
D|---------------------------------|---------------------------------|---------------------------------|


D|---------------------------------|---------------------------------|---------------------------------|
A|-5-----------5-----------5-------|-4-----------4-----------4-------|-5-----------5-----------5-------|
F|---------6-----------6-----------|---------4-----------4-----------|-----4---4-------4---4-------4---|
C|-----7-----------7-----------7---|-----6-----------6-----------6---|---------------------------------|
G|---------------------------------|---------------------------------|---------------------------------|
D|---------------------------------|---------------------------------|---------------------------------|


D|---------------------------------|-4-------4---4---------4---|-4-------4---4---------4---|
A|-7-----------7-----------7-------|-----5-----------5---------|-----5-----------5---------|
F|-----4---4-------4---4-------4---|---------------------------|---------------------------|
C|---------------------------------|---------------------------|---------------------------|
G|---------------------------------|---------------------------|---------------------------|
D|---------------------------------|---------------------------|---------------------------|


D|-4-------4---4---------4---|-4-------4---4---------4---|-4-------4---4---------4---|
A|-----5-----------5---------|-----5-----------5---------|-----5-----------5---------|
F|---------------------------|---------------------------|---------------------------|
C|---------------------------|---------------------------|---------------------------|
G|---------------------------|---------------------------|---------------------------|
D|---------------------------|---------------------------|---------------------------|


D|-4-------4---4---------4---|-4-------4---4---------4---|-7---7---7---7---7-----------4---|
A|-----5-----------5---------|-----5-----------5---------|---------------------------------|
F|---------------------------|---------------------------|---------------------2---4-------|
C|---------------------------|---------------------------|---------------------------------|
G|---------------------------|---------------------------|---------------------------------|
D|---------------------------|---------------------------|---------------------------------|


D|-4-------4-------------|------------5----4---|-4-------4-------------|------------5----4---|
A|-----5-----------------|-------5-------------|-----5-----------------|-------5-------------|
F|-------------4---4-----|-4-------------------|-------------5---5-----|-5-------------------|
C|-----------------------|---------------------|-----------------------|---------------------|
G|-----------------------|---------------------|-----------------------|---------------------|
D|-----------------------|---------------------|-----------------------|---------------------|


D|-4-------4-------------|----------4----------|---------7---9------------12--|-12------------------------------|
A|-----5-----------------|------5--------5-----|-----10-----------10----------|-------------10--10----------10--|
F|-------------6---6-----|-6-------------------|-9--------------------9-------|-----9---9-----------9---9-------|
C|-----------------------|---------------------|------------------------------|---------------------------------|
G|-----------------------|---------------------|------------------------------|---------------------------------|
D|-----------------------|---------------------|------------------------------|---------------------------------|


D|-----------2-----|-2------|-----------2-----|-2------|-----------2-----|-2------|
A|-----------2-----|-2------|-----------2-----|-2------|-----------2-----|-2------|
F|-----------4-----|-4------|-----------4-----|-4------|-----------4-----|-4------|
C|------4----4-----|-4------|------2----2-----|-2------|------2----2-----|-2------|
G|-2----2----2-----|-2------|-0----0----0-----|-0------|-----------------|--------|
D|-----------------|--------|-----------------|--------|-4----4----4-----|-4------|


D|-------------|--------|-----------2-----|-2------|-----------2-----|-2------|-----------2-----|
A|-------------|--------|-----------2-----|-2------|-----------2-----|-2------|-----------2-----|
F|-------------|--------|-----------4-----|-4------|-----------4-----|-4------|-----------4-----|
C|-------2-----|-2------|------4----4-----|-4------|------2----2-----|-2------|------2----2-----|
G|-------2-----|-2------|-2----2----2-----|-2------|-0----0----0-----|-0------|-----------------|
D|-0-----0-----|-0------|-----------------|--------|-----------------|--------|-4----4----4-----|


D|-2------|-----------2-----|-------------|---------------------------------|---------------------------------|
A|-2------|-----------2-----|-------------|---------------------------------|---------------------------------|
F|-4------|-----------4-----|-------------|---------------------------------|---------------------------------|
C|-2------|------2----2-----|-------------|---------------------------------|---------------------------------|
G|--------|-----------------|-------------|-0---0---0---0---0---0---0---0---|-0---0---0---0---0---0---0---0---|
D|-4------|-3----3----3-----|-2-----0-----|---------------------------------|---------------------------------|


D|---------------------------------|---------------------------------|-6-------6---6---------6---|
A|---------------------------------|---------------------------------|-----7-----------7---------|
F|---------------------------------|---------------------------------|---------------------------|
C|---------------------------------|---------------------------------|---------------------------|
G|-0---0---0---0---0---0---0---0---|-0---0---0---0---0---0---0---0---|---------------------------|
D|---------------------------------|---------------------------------|---------------------------|


D|-6-------6---6-------7----6---|-6-------6---6-------7----6---|-6-------6---6-------7----6---|
A|-----7-----------7------------|-----7-----------7------------|-----7-----------7------------|
F|------------------------------|------------------------------|------------------------------|
C|------------------------------|------------------------------|------------------------------|
G|------------------------------|------------------------------|------------------------------|
D|------------------------------|------------------------------|------------------------------|


D|-6-------6---6-------7----6---|-6-------6---6-------7----6---|-6-------6---6-------7----6---|
A|-----7-----------7------------|-----7-----------7------------|-----7-----------7------------|
F|------------------------------|------------------------------|------------------------------|
C|------------------------------|------------------------------|------------------------------|
G|------------------------------|------------------------------|------------------------------|
D|------------------------------|------------------------------|------------------------------|


D|-6-------6---6---------------6---|-6-------6-------------|------------7----6---|
A|-----7-----------7---------------|-----7-----------------|-------7-------------|
F|---------------------4---6-------|-------------6---6-----|-6-------------------|
C|---------------------------------|-----------------------|---------------------|
G|---------------------------------|-----------------------|---------------------|
D|---------------------------------|-----------------------|---------------------|


D|-6-------6-------------|------------7----6---|-6-------6-------------|-------6---6-----|
A|-----7-----------------|-------7-------------|-----7-----------------|-----------------|
F|-------------7---7-----|-7-------------------|-------------8---8-----|-8---------------|
C|-----------------------|---------------------|-----------------------|-----------------|
G|-----------------------|---------------------|-----------------------|-----------------|
D|-----------------------|---------------------|-----------------------|-----------------|


D|---------9---11-----------14--|-14------------------------------|----------6------------6---|
A|-----12-----------12----------|-------------12--12----------12--|------4--------4---4-------|
F|-11-------------------11------|-----11--11----------11--11------|---------------------------|
C|------------------------------|---------------------------------|---------------------------|
G|------------------------------|---------------------------------|-6-------------------------|
D|------------------------------|---------------------------------|---------------------------|


D|-6-----------6------------6---|----------6------------6---|-6-----------6------------6---|
A|---------4------------4-------|------4--------4---4-------|---------4------------4-------|
F|------------------------------|---------------------------|------------------------------|
C|-----3------------4-----------|---------------------------|------------------------------|
G|------------------------------|-6-------------------------|------------------4-----------|
D|------------------------------|---------------------------|-----6------------------------|


D|----------6------------6---|-6-----------6------------6---|----------6------------6---|
A|------4--------4---4-------|---------4------------4-------|------4--------4---4-------|
F|---------------------------|------------------------------|---------------------------|
C|---------------------------|-----3------------4-----------|---------------------------|
G|-6-------------------------|------------------------------|-6-------------------------|
D|---------------------------|------------------------------|---------------------------|


D|-6-----------6------------6---|-6------|-6------|-6------|-6------|-6------|-6------|
A|---------4------------4-------|-7------|-7------|-7------|-7------|-7------|-7------|
F|------------------------------|-8------|-8------|-8------|-8------|-8------|-8------|
C|------------------------------|-8------|-8------|-8------|-8------|-8------|-8------|
G|------------------4-----------|-6------|-6------|-6------|-6------|-6------|-6------|
D|-----6------------------------|--------|--------|--------|--------|--------|--------|





Track 2: Electr. Gtr. II

D|--------|--------|--------|--------|----------4------------4---|-4-----------4------------4---|
A|--------|--------|--------|--------|------2--------2---2-------|---------2------------2-------|
F|--------|--------|--------|--------|---------------------------|------------------------------|
C|--------|--------|--------|--------|---------------------------|-----1------------2-----------|
G|--------|--------|--------|--------|-4-------------------------|------------------------------|
D|--------|--------|--------|--------|---------------------------|------------------------------|


D|----------4------------4---|-4-----------4------------4---|----------4------------4---|
A|------2--------2---2-------|---------2------------2-------|------2--------2---2-------|
F|---------------------------|------------------------------|---------------------------|
C|---------------------------|-----1------------2-----------|---------------------------|
G|-4-------------------------|------------------------------|-4-------------------------|
D|---------------------------|------------------------------|---------------------------|


D|-4-----------4------------4---|----------4------------4---|-4-----------4------------4---|
A|---------2------------2-------|------2--------2---2-------|---------2------------2-------|
F|------------------------------|---------------------------|------------------------------|
C|-----1------------2-----------|---------------------------|-----1------------2-----------|
G|------------------------------|-4-------------------------|------------------------------|
D|------------------------------|---------------------------|------------------------------|


D|-4------|-4------|--------|--------|--------|--------|--------|--------|--------|
A|-2------|-2------|--------|--------|--------|--------|--------|--------|--------|
F|--------|--------|--------|--------|--------|--------|--------|--------|--------|
C|--------|--------|--------|--------|--------|--------|--------|--------|--------|
G|--------|--------|--------|--------|--------|--------|--------|--------|--------|
D|--------|--------|--------|--------|--------|--------|--------|--------|--------|


D|--------|--------|--------|--------|--------|--------|--------|--------|--------|
A|--------|--------|--------|--------|--------|--------|--------|--------|--------|
F|--------|--------|--------|--------|--------|--------|--------|--------|--------|
C|--------|--------|--------|--------|--------|--------|--------|--------|--------|
G|--------|--------|--------|--------|--------|--------|--------|--------|--------|
D|--------|--------|--------|--------|--------|--------|--------|--------|--------|


D|--------|--------|--------|--------|--------|--------|--------|--------|--------|
A|--------|--------|--------|--------|--------|--------|--------|--------|--------|
F|--------|--------|--------|--------|--------|--------|--------|--------|--------|
C|--------|--------|--------|--------|--------|--------|--------|--------|--------|
G|--------|--------|--------|--------|--------|--------|--------|--------|--------|
D|--------|--------|--------|--------|--------|--------|--------|--------|--------|


D|--------|--------|--------|--------|--------|--------|--------|--------|--------|
A|--------|--------|--------|--------|--------|--------|--------|--------|--------|
F|--------|--------|--------|--------|--------|--------|--------|--------|--------|
C|--------|--------|--------|--------|--------|--------|--------|--------|--------|
G|--------|--------|--------|--------|--------|--------|--------|--------|--------|
D|--------|--------|--------|--------|--------|--------|--------|--------|--------|


D|--------|--------|--------|--------|--------|--------|--------|--------|--------|
A|--------|--------|--------|--------|--------|--------|--------|--------|--------|
F|--------|--------|--------|--------|--------|--------|--------|--------|--------|
C|--------|--------|--------|--------|--------|--------|--------|--------|--------|
G|--------|--------|--------|--------|--------|--------|--------|--------|--------|
D|--------|--------|--------|--------|--------|--------|--------|--------|--------|


D|--------|--------|--------|--------|--------|--------|--------|-9----9------------7----|
A|--------|--------|--------|--------|--------|--------|--------|----------9---9---------|
F|--------|--------|--------|--------|--------|--------|--------|------------------------|
C|--------|--------|--------|--------|--------|--------|--------|------------------------|
G|--------|--------|--------|--------|--------|--------|--------|------------------------|
D|--------|--------|--------|--------|--------|--------|--------|------------------------|


D|-7---------11----|-9----9------------7----|-7---------12----|-9----9------------7----|
A|-----9-----------|----------9---9---------|-----9-----------|----------9---9---------|
F|-----------------|------------------------|-----------------|------------------------|
C|-----------------|------------------------|-----------------|------------------------|
G|-----------------|------------------------|-----------------|------------------------|
D|-----------------|------------------------|-----------------|------------------------|


D|-7---------11----|-9----9------------7----|-7---------12----|--------|--------|--------|
A|-----9-----------|----------9---9---------|-----9-----------|--------|--------|--------|
F|-----------------|------------------------|-----------------|--------|--------|--------|
C|-----------------|------------------------|-----------------|--------|--------|--------|
G|-----------------|------------------------|-----------------|--------|--------|--------|
D|-----------------|------------------------|-----------------|--------|--------|--------|


D|--------|--------|--------|--------|--------|--------|--------|--------|--------|
A|--------|--------|--------|--------|--------|--------|--------|--------|--------|
F|--------|--------|--------|--------|--------|--------|--------|--------|--------|
C|--------|--------|--------|--------|--------|--------|--------|--------|--------|
G|--------|--------|--------|--------|--------|--------|--------|--------|--------|
D|--------|--------|--------|--------|--------|--------|--------|--------|--------|


D|--------|--------|--------|--------|--------|--------|--------|--------|--------|
A|--------|--------|--------|--------|--------|--------|--------|--------|--------|
F|--------|--------|--------|--------|--------|--------|--------|--------|--------|
C|--------|--------|--------|--------|--------|--------|--------|--------|--------|
G|--------|--------|--------|--------|--------|--------|--------|--------|--------|
D|--------|--------|--------|--------|--------|--------|--------|--------|--------|


D|--------|--------|--------|--------|--------|--------|--------|--------|--------|
A|--------|--------|--------|--------|--------|--------|--------|--------|--------|
F|--------|--------|--------|--------|--------|--------|--------|--------|--------|
C|--------|--------|--------|--------|--------|--------|--------|--------|--------|
G|--------|--------|--------|--------|--------|--------|--------|--------|--------|
D|--------|--------|--------|--------|--------|--------|--------|--------|--------|


D|--------|--------|--------|--------|--------|--------|--------|--------|--------|
A|--------|--------|--------|--------|--------|--------|--------|--------|--------|
F|--------|--------|--------|--------|--------|--------|--------|--------|--------|
C|--------|--------|--------|--------|--------|--------|--------|--------|--------|
G|--------|--------|--------|--------|--------|--------|--------|--------|--------|
D|--------|--------|--------|--------|--------|--------|--------|--------|--------|


D|--------|--------|--------|--------|--------|--------|--------|--------|--------|
A|--------|--------|--------|--------|--------|--------|--------|--------|--------|
F|--------|--------|--------|--------|--------|--------|--------|--------|--------|
C|--------|--------|--------|--------|--------|--------|--------|--------|--------|
G|--------|--------|--------|--------|--------|--------|--------|--------|--------|
D|--------|--------|--------|--------|--------|--------|--------|--------|--------|


D|--------|--------|--------|--------|--------|--------|--------|--------|--------|
A|--------|--------|--------|--------|--------|--------|--------|--------|--------|
F|--------|--------|--------|--------|--------|--------|--------|--------|--------|
C|--------|--------|--------|--------|--------|--------|--------|--------|--------|
G|--------|--------|--------|--------|--------|--------|--------|--------|--------|
D|--------|--------|--------|--------|--------|--------|--------|--------|--------|


D|--------|--------|--------|--------|--------|--------|--------|--------|--------|
A|--------|--------|--------|--------|--------|--------|--------|--------|--------|
F|--------|--------|--------|--------|--------|--------|--------|--------|--------|
C|--------|--------|--------|--------|--------|--------|--------|--------|--------|
G|--------|--------|--------|--------|--------|--------|--------|--------|--------|
D|--------|--------|--------|--------|--------|--------|--------|--------|--------|


D|--------|--------|--------|--------|--------|--------|--------|--------|
A|--------|--------|--------|--------|--------|--------|--------|--------|
F|--------|--------|--------|--------|--------|--------|--------|--------|
C|--------|--------|--------|--------|--------|--------|--------|--------|
G|--------|--------|--------|--------|--------|--------|--------|--------|
D|--------|--------|--------|--------|--------|--------|--------|--------|





Track 3: Bass

C#|--------|--------|--------|--------|---------------------------------|---------------------------------|
 G|--------|--------|--------|--------|---------------------------------|---------------------------------|
 D|--------|--------|--------|--------|---------------------------------|---------------------0---0---2---|
 A|--------|--------|--------|--------|-2---2---2---2---2---2---2---2---|-2---4---4---4---4---------------|
 E|--------|--------|--------|--------|---------------------------------|---------------------------------|
 B|--------|--------|--------|--------|---------------------------------|---------------------------------|


C#|---------------------------------|---------------------------------|---------------------------------|
 G|---------------------------------|---------------------------------|---------------------------------|
 D|---------------------------------|---------------------------------|---------------------------------|
 A|-2---2---2---2---2---2---2---2---|-2---------------------------0---|-2---2---2---2---2---2---2---2---|
 E|---------------------------------|-----2---2---2---2---3---3-------|---------------------------------|
 B|---------------------------------|---------------------------------|---------------------------------|


C#|---------------------------------|---------------------------------|---------------------------------|
 G|---------------------------------|---------------------------------|---------------------------------|
 D|---------------------0---0---2---|---------------------------------|---------------------------------|
 A|-2---4---4---4---4---------------|-2---2---2---2---2---2---2---2---|-2---------------------------0---|
 E|---------------------------------|---------------------------------|-----2---2---2---2---3---3-------|
 B|---------------------------------|---------------------------------|---------------------------------|


C#|---------------------------------|---------------------------------|---------------------------------|
 G|---------------------------------|---------------------------------|---------------------------------|
 D|---------------------------------|---------------------0---0---2---|---------------------------------|
 A|-2---2---2---2---2---2---2---2---|-2---4---4---4---4---------------|-2---2---2---2---2---2---2---2---|
 E|---------------------------------|---------------------------------|---------------------------------|
 B|---------------------------------|---------------------------------|---------------------------------|


C#|---------------------------------|---------------------------------|---------------------------------|
 G|---------------------------------|---------------------------------|---------------------------------|
 D|---------------------------------|---------------------------------|---------------------0---0---2---|
 A|-2---------------------------0---|-2---2---2---2---2---2---2---2---|-2---4---4---4---4---------------|
 E|-----2---2---2---2---3---3-------|---------------------------------|---------------------------------|
 B|---------------------------------|---------------------------------|---------------------------------|


C#|---------------------------------|---------------------------------|---------------------------------|
 G|---------------------------------|---------------------------------|---------------------------------|
 D|---------------------------------|---------------------------------|---------------------------------|
 A|-2---2---2---2---2---2---2---2---|-2---------------------------0---|-2---2---2---2---2---2---2---2---|
 E|---------------------------------|-----2---2---2---2---3---3-------|---------------------------------|
 B|---------------------------------|---------------------------------|---------------------------------|


C#|---------------------------------|---------------------------------|---------------------------------|
 G|---------------------------------|---------------------------------|---------------------------------|
 D|---------------------0---0---2---|---------------------------------|---------------------------------|
 A|-2---4---4---4---4---------------|-2---2---2---2---2---2---2---2---|-2---------------------------0---|
 E|---------------------------------|---------------------------------|-----2---2---2---2---3---3-------|
 B|---------------------------------|---------------------------------|---------------------------------|


C#|---------------------------------|---------------------------------|---------------------------------|
 G|---------------------------------|---------------------------------|---------------------------------|
 D|---------------------------------|---------------------0---0---2---|---------------------------------|
 A|-2---2---2---2---2---2---2---2---|-2---4---4---4---4---------------|-2---2---2---2---2---2---2---2---|
 E|---------------------------------|---------------------------------|---------------------------------|
 B|---------------------------------|---------------------------------|---------------------------------|


C#|---------------------------------|---------------------------------|---------------------------------|
 G|---------------------------------|---------------------------------|---------------------------------|
 D|---------------------------------|---------------------------------|---------------------------------|
 A|-2---------------------------0---|---------------------------------|---------------------------------|
 E|-----2---2---2---2---3---3-------|-3---3---3---3---3---3---3---3---|---------------------------------|
 B|---------------------------------|---------------------------------|-5---5---5---5---5---5---5---5---|


C#|---------------------------------|---------------------------------|---------------------------------|
 G|---------------------------------|---------------------------------|---------------------------------|
 D|---------------------------------|---------------------------------|---------------------------------|
 A|-2---2---2---2---2---2---2---2---|-2---2---2---2---2---2---2---2---|---------------------------------|
 E|---------------------------------|---------------------------------|-3---3---3---3---3---3---3---3---|
 B|---------------------------------|---------------------------------|---------------------------------|


C#|---------------------------------|---------------------------------|---------------------------------|
 G|---------------------------------|---------------------------------|---------------------------------|
 D|---------------------------------|---------------------------------|---------------------------------|
 A|---------------------------------|-5---5---5---5---5---5---5---5---|-5---5---5---5---5---5---5---5---|
 E|-2---2---2---2---2---2---2---2---|---------------------------------|---------------------------------|
 B|---------------------------------|---------------------------------|---------------------------------|


C#|---------------------------------|---------------------------------|---------------------------------|
 G|---------------------------------|---------------------------------|---------------------------------|
 D|---------------------------------|---------------------------------|---------------------------------|
 A|-5---5---5---5---5---5---5---5---|-5---5---5---5---5---5---5---5---|---------------------------------|
 E|---------------------------------|---------------------------------|-5---5---5---5---5---5---5---5---|
 B|---------------------------------|---------------------------------|---------------------------------|


C#|---------------------------------|---------------------------------|---------------------------------|
 G|---------------------------------|---------------------------------|---------------------------------|
 D|---------------------------------|---------------------------------|---------------------------------|
 A|---------------------------------|-2---2---2---2---2---2---2---2---|-2---2---2---2---2---2---2---2---|
 E|-5---5---5---5---5---5---5---5---|---------------------------------|---------------------------------|
 B|---------------------------------|---------------------------------|---------------------------------|


C#|---------------------------------|---------------------------------|---------------------------------|
 G|---------------------------------|---------------------------------|---------------------------------|
 D|---------------------------------|---------------------------------|---------------------------------|
 A|---------------------------------|---------------------------------|---------------------------------|
 E|-3---3---3---3---3---3---3---3---|-3---3---3---3---3---3---3---3---|---------------------------------|
 B|---------------------------------|---------------------------------|-3---3---3---3---3---3---3---3---|


C#|---------------------------------|---------------------------------|---------------------------------|
 G|---------------------------------|---------------------------------|---------------------------------|
 D|---------------------------------|---------------------------------|---------------------------------|
 A|---------------------------------|-1---1---1---1---1---1---1---1---|-1---1---1---1---1---1---1---1---|
 E|---------------------------------|---------------------------------|---------------------------------|
 B|-3---3---3---3---3---3---3---3---|---------------------------------|---------------------------------|


C#|---------------------------------|---------------------------------|---------------------------------|
 G|---------------------------------|---------------------------------|---------------------------------|
 D|---------------------------------|---------------------------------|---------------------------------|
 A|-2---2---2---2---2---2---2---2---|-2---2---2---2---2---2---2---2---|---------------------------------|
 E|---------------------------------|---------------------------------|-3---3---3---3---3---3---3---3---|
 B|---------------------------------|---------------------------------|---------------------------------|


C#|---------------------------------|---------------------------------|---------------------------------|
 G|---------------------------------|---------------------------------|---------------------------------|
 D|---------------------------------|---------------------------------|---------------------0---0---2---|
 A|---------------------------------|-2---2---2---2---2---2---2---2---|-2---4---4---4---4---------------|
 E|-3---3---3---3---3---3---3---3---|---------------------------------|---------------------------------|
 B|---------------------------------|---------------------------------|---------------------------------|


C#|---------------------------------|---------------------------------|---------------------------------|
 G|---------------------------------|---------------------------------|---------------------------------|
 D|---------------------------------|---------------------------------|---------------------------------|
 A|-2---2---2---2---2---2---2---2---|-2---------------------------0---|-2---2---2---2---2---2---2---2---|
 E|---------------------------------|-----2---2---2---2---3---3-------|---------------------------------|
 B|---------------------------------|---------------------------------|---------------------------------|


C#|---------------------------------|---------------------------------|---------------------------------|
 G|---------------------------------|---------------------------------|---------------------------------|
 D|---------------------0---0---2---|---------------------------------|---------------------------------|
 A|-2---4---4---4---4---------------|-2---2---2---2---2---2---2---2---|-2---------------------------0---|
 E|---------------------------------|---------------------------------|-----2---2---2---2---3---3-------|
 B|---------------------------------|---------------------------------|---------------------------------|


C#|---------------------------------|---------------------------------|---------------------------------|
 G|---------------------------------|---------------------------------|---------------------------------|
 D|---------------------------------|---------------------0---0---2---|---------------------------------|
 A|-2---2---2---2---2---2---2---2---|-2---4---4---4---4---------------|-2---2---2---2---2---2---2---2---|
 E|---------------------------------|---------------------------------|---------------------------------|
 B|---------------------------------|---------------------------------|---------------------------------|


C#|---------------------------------|---------------------------------|---------------------------------|
 G|---------------------------------|---------------------------------|---------------------------------|
 D|---------------------------------|---------------------------------|---------------------0---0---2---|
 A|-2---------------------------0---|-2---2---2---2---2---2---2---2---|-2---4---4---4---4---------------|
 E|-----2---2---2---2---3---3-------|---------------------------------|---------------------------------|
 B|---------------------------------|---------------------------------|---------------------------------|


C#|---------------------------------|---------------------------------|---------------------------------|
 G|---------------------------------|---------------------------------|---------------------------------|
 D|---------------------------------|---------------------------------|---------------------------------|
 A|-2---2---2---2---2---2---2---2---|-2---------------------------0---|-2---2---2---2---2---2---2---2---|
 E|---------------------------------|-----2---2---2---2---3---3-------|---------------------------------|
 B|---------------------------------|---------------------------------|---------------------------------|


C#|---------------------------------|---------------------------------|---------------------------------|
 G|---------------------------------|---------------------------------|---------------------------------|
 D|---------------------0---0---2---|---------------------------------|---------------------------------|
 A|-2---4---4---4---4---------------|-2---2---2---2---2---2---2---2---|-2---------------------------0---|
 E|---------------------------------|---------------------------------|-----2---2---2---2---3---3-------|
 B|---------------------------------|---------------------------------|---------------------------------|


C#|---------------------------------|---------------------------------|---------------------------------|
 G|---------------------------------|---------------------------------|---------------------------------|
 D|---------------------------------|---------------------------------|---------------------------------|
 A|---------------------------------|---------------------------------|-2---2---2---2---2---2---2---2---|
 E|-3---3---3---3---3---3---3---3---|---------------------------------|---------------------------------|
 B|---------------------------------|-5---5---5---5---5---5---5---5---|---------------------------------|


C#|---------------------------------|---------------------------------|---------------------------------|
 G|---------------------------------|---------------------------------|---------------------------------|
 D|---------------------------------|---------------------------------|---------------------------------|
 A|-2---2---2---2---2---2---2---2---|---------------------------------|---------------------------------|
 E|---------------------------------|-3---3---3---3---3---3---3---3---|-2---2---2---2---2---2---2---2---|
 B|---------------------------------|---------------------------------|---------------------------------|


C#|---------------------------------|---------------------------------|---------------------------------|
 G|---------------------------------|---------------------------------|---------------------------------|
 D|---------------------------------|---------------------------------|---------------------------------|
 A|-5---5---5---5---5---5---5---5---|-5---5---5---5---5---5---5---5---|-5---5---5---5---5---5---5---5---|
 E|---------------------------------|---------------------------------|---------------------------------|
 B|---------------------------------|---------------------------------|---------------------------------|


C#|---------------------------------|---------------------------------|---------------------------------|
 G|---------------------------------|---------------------------------|---------------------------------|
 D|---------------------------------|---------------------------------|---------------------------------|
 A|-5---5---5---5---5---5---5---5---|---------------------------------|---------------------------------|
 E|---------------------------------|-5---5---5---5---5---5---5---5---|-5---5---5---5---5---5---5---5---|
 B|---------------------------------|---------------------------------|---------------------------------|


C#|---------------------------------|---------------------------------|---------------------------------|
 G|---------------------------------|---------------------------------|---------------------------------|
 D|---------------------------------|---------------------------------|---------------------------------|
 A|-2---2---2---2---2---2---2---2---|-2---2---2---2---2---2---2---2---|---------------------------------|
 E|---------------------------------|---------------------------------|-3---3---3---3---3---3---3---3---|
 B|---------------------------------|---------------------------------|---------------------------------|


C#|---------------------------------|---------------------------------|---------------------------------|
 G|---------------------------------|---------------------------------|---------------------------------|
 D|---------------------------------|---------------------------------|---------------------------------|
 A|---------------------------------|---------------------------------|---------------------------------|
 E|-3---3---3---3---3---3---3---3---|---------------------------------|---------------------------------|
 B|---------------------------------|-3---3---3---3---3---3---3---3---|-3---3---3---3---3---3---3---3---|


C#|---------------------------------|---------------------------------|---------------------------------|
 G|---------------------------------|---------------------------------|---------------------------------|
 D|---------------------------------|---------------------------------|---------------------------------|
 A|-1---1---1---1---1---1---1---1---|-1---1---1---1---1---1---1---1---|-2---2---2---2---2---2---2---2---|
 E|---------------------------------|---------------------------------|---------------------------------|
 B|---------------------------------|---------------------------------|---------------------------------|


C#|---------------------------------|---------------------------------|---------------------------------------------|
 G|---------------------------------|---------------------------------|---------------------------------------------|
 D|---------------------------------|---------5-----------------------|-----5-------5---5-------5---5-------5-------|
 A|-2---2---2---2---2---2---2---2---|---------------------------------|---------5-----------5-----------5-----------|
 E|---------------------------------|-3---3-------3---3---3---3---3---|-3---------------------------------------3---|
 B|---------------------------------|---------------------------------|---------------------------------------------|


C#|-------------|---------------------------|-----------------|------------------------------|
 G|-------------|---------------------------|-----------------|------------------------------|
 D|-------7-----|--------------7-------7----|-----------5-----|-----------------5-------5----|
 A|-0-----------|-0---0----0-------0--------|-----------------|------------------------------|
 E|-------------|---------------------------|-3-----3---------|-3---3---3---3-------3--------|
 B|-------------|---------------------------|-----------------|------------------------------|


C#|-------------|--------------------|-----------------|---------------------------------|
 G|-------------|--------------------|-----------------|---------------------------------|
 D|-------4-----|-------4-------4----|-----------------|---------------------------------|
 A|-------------|--------------------|-----------5-----|-----5---5-------5-------5-------|
 E|-2-----------|-2---------2--------|-----------------|---------------------------------|
 B|-------------|--------------------|-3-----3---------|-3-----------3-------3-------3---|


C#|-----------------|---------------------------|-----------------|---------------------------|
 G|-----------2-----|--------------2-------2----|-----------------|---------------------------|
 D|-------2---------|----------2-------2--------|-----------5-----|-----------------5---------|
 A|-0---------------|-0---0---------------------|-----------------|---------------------------|
 E|-----------------|---------------------------|-3-----3---------|-3---3---3---3--------3----|
 B|-----------------|---------------------------|-----------------|---------------------------|


C#|-------------|------------------------|-----------------|-----------------|---------------------------------|
 G|-------------|------------------------|-----------------|-----------------|---------------------------------|
 D|-------4-----|-----------4-------4----|-----------------|-----------------|---------------------------------|
 A|-------------|------------------------|-----------------|-----------------|---------------------------------|
 E|-2-----------|-2-----2-------2--------|-1-----1---1-----|-----------------|-3---3---3---3---3---3---3---3---|
 B|-------------|------------------------|-----------------|-5-----5---3-----|---------------------------------|


C#|---------------------------------|---------------------------------|---------------------------------|
 G|---------------------------------|---------------------------------|---------------------------------|
 D|---------------------------------|---------------------------------|---------------------------------|
 A|---------------------------------|---------------------------------|---------------------------------|
 E|-3---3---3---3---3---3---3---3---|-3---3---3---3---3---3---3---3---|-3---3---3---3---3---3---3---3---|
 B|---------------------------------|---------------------------------|---------------------------------|


C#|---------------------------------|---------------------------------|---------------------------------|
 G|---------------------------------|---------------------------------|---------------------------------|
 D|-2---2---2---2---2---2---2---2---|-2---2---2---2---2---2---2---2---|---------------------------------|
 A|---------------------------------|---------------------------------|-2---2---2---2---2---2---2---2---|
 E|---------------------------------|---------------------------------|---------------------------------|
 B|---------------------------------|---------------------------------|---------------------------------|


C#|---------------------------------|---------------------------------|---------------------------------|
 G|---------------------------------|---------------------------------|---------------------------------|
 D|---------------------------------|---------------------------------|---------------------------------|
 A|-2---2---2---2---2---2---2---2---|-4---4---4---4---4---4---4---4---|-4---4---4---4---4---4---4---4---|
 E|---------------------------------|---------------------------------|---------------------------------|
 B|---------------------------------|---------------------------------|---------------------------------|


C#|---------------------------------|-------------------------------------|---------------------------------|
 G|---------------------------------|-------------------------------------|---------------------------------|
 D|---------------------------------|-----7---7-------7--7------7--7------|-2---2---2---2---2---2---2---2---|
 A|---------------------------------|-------------------------------------|---------------------------------|
 E|-5---5---5---5---5---5---5---5---|-5-----------5---------5---------5---|---------------------------------|
 B|---------------------------------|-------------------------------------|---------------------------------|


C#|---------------------------------|---------------------------------|---------------------------------|
 G|---------------------------------|---------------------------------|---------------------------------|
 D|-2---2---2---2---2---2---2---2---|---------------------------------|---------------------------------|
 A|---------------------------------|-3---3---3---3---3---3---3---3---|-3---3---3---3---3---3---3---3---|
 E|---------------------------------|---------------------------------|---------------------------------|
 B|---------------------------------|---------------------------------|---------------------------------|


C#|---------------------------------|---------------------------------|---------------------------------|
 G|---------------------------------|---------------------------------|---------------------------------|
 D|---------------------------------|---------------------------------|---------------------------------|
 A|-4---4---4---4---4---4---4---4---|-4---4---4---4---4---4---4---4---|---------------------------------|
 E|---------------------------------|---------------------------------|-5---5---5---5---5---5---5---5---|
 B|---------------------------------|---------------------------------|---------------------------------|


C#|---------------------------------|---------------------------------|---------------------------------|
 G|---------------------------------|---------------------------------|---------------------------------|
 D|-----7---7-------7-------7-------|---------------------------------|---------------------------------|
 A|---------------------------------|-4---4---2---4---4---4---4---4---|-4-----------------------2---4---|
 E|-5-----------5-------5-------5---|---------------------------------|---------------------------------|
 B|---------------------------------|---------------------------------|-----4---4---4---4---5-----------|


C#|---------------------------------|---------------------------------|---------------------------------|
 G|---------------------------------|---------------------------------|---------------------------------|
 D|---------------------------------|---------------------------------|---------------------------------|
 A|-4---4---2---4---4---4---4---4---|-4-------------------0---0---2---|-4---4---2---4---4---4---4---4---|
 E|---------------------------------|-----4---4---4---4---------------|---------------------------------|
 B|---------------------------------|---------------------------------|---------------------------------|


C#|---------------------------------|---------------------------------|---------------------------------|
 G|---------------------------------|---------------------------------|---------------------------------|
 D|---------------------------------|---------------------------------|---------------------------------|
 A|-4-----------------------2---4---|-4---4---2---4---4---4---4---4---|-4-------------------0---0---2---|
 E|---------------------------------|---------------------------------|-----4---4---4---4---------------|
 B|-----4---4---4---4---5-----------|---------------------------------|---------------------------------|


C#|--------|--------|--------|--------|--------|--------|
 G|--------|--------|--------|--------|--------|--------|
 D|--------|--------|--------|--------|--------|--------|
 A|--------|--------|--------|--------|--------|--------|
 E|--------|--------|--------|--------|--------|--------|
 B|-2------|-2------|-2------|-2------|-2------|-2------|