Menu:

 

Search:

 

dream theater - honor thy father:

 



Title: Honor thy father
Artist: 
Album: Train of thought
Author: Dream Theater


Track 1: Untitled

C|--------|--------|--------|--------|--------|--------|--------|--------|--------|
G|--------|--------|--------|--------|--------|--------|--------|--------|--------|
D|--------|--------|--------|--------|--------|--------|--------|--------|--------|
A|--------|--------|--------|--------|--------|--------|--------|--------|--------|
E|--------|--------|--------|--------|--------|--------|--------|--------|--------|
B|--------|--------|--------|--------|--------|--------|--------|--------|--------|


C|--------|--------|--------|--------|--------|--------|--------|--------|--------|
G|--------|--------|--------|--------|--------|--------|--------|--------|--------|
D|--------|--------|--------|--------|--------|--------|--------|--------|--------|
A|--------|--------|--------|--------|--------|--------|--------|--------|--------|
E|--------|--------|--------|--------|--------|--------|--------|--------|--------|
B|--------|--------|--------|--------|--------|--------|--------|--------|--------|


C|--------|--------|--------|--------|--------|--------|--------|--------|--------|
G|--------|--------|--------|--------|--------|--------|--------|--------|--------|
D|--------|--------|--------|--------|--------|--------|--------|--------|--------|
A|--------|--------|--------|--------|--------|--------|--------|--------|--------|
E|--------|--------|--------|--------|--------|--------|--------|--------|--------|
B|--------|--------|--------|--------|--------|--------|--------|--------|--------|


C|--------|--------|--------|--------|--------|--------|--------|--------|--------|
G|--------|--------|--------|--------|--------|--------|--------|--------|--------|
D|--------|--------|--------|--------|--------|--------|--------|--------|--------|
A|--------|--------|--------|--------|--------|--------|--------|--------|--------|
E|--------|--------|--------|--------|--------|--------|--------|--------|--------|
B|--------|--------|--------|--------|--------|--------|--------|--------|--------|


C|--------|--------|--------|--------|--------|--------|--------|--------|--------|
G|--------|--------|--------|--------|--------|--------|--------|--------|--------|
D|--------|--------|--------|--------|--------|--------|--------|--------|--------|
A|--------|--------|--------|--------|--------|--------|--------|--------|--------|
E|--------|--------|--------|--------|--------|--------|--------|--------|--------|
B|--------|--------|--------|--------|--------|--------|--------|--------|--------|


C|--------|--------|--------|--------|--------|--------|--------|--------|--------|
G|--------|--------|--------|--------|--------|--------|--------|--------|--------|
D|--------|--------|--------|--------|--------|--------|--------|--------|--------|
A|--------|--------|--------|--------|--------|--------|--------|--------|--------|
E|--------|--------|--------|--------|--------|--------|--------|--------|--------|
B|--------|--------|--------|--------|--------|--------|--------|--------|--------|


C|--------|--------|--------|--------|--------|--------|--------|--------|--------|
G|--------|--------|--------|--------|--------|--------|--------|--------|--------|
D|--------|--------|--------|--------|--------|--------|--------|--------|--------|
A|--------|--------|--------|--------|--------|--------|--------|--------|--------|
E|--------|--------|--------|--------|--------|--------|--------|--------|--------|
B|--------|--------|--------|--------|--------|--------|--------|--------|--------|


C|--------|--------|--------|--------|--------|--------|--------|--------|--------|
G|--------|--------|--------|--------|--------|--------|--------|--------|--------|
D|--------|--------|--------|--------|--------|--------|--------|--------|--------|
A|--------|--------|--------|--------|--------|--------|--------|--------|--------|
E|--------|--------|--------|--------|--------|--------|--------|--------|--------|
B|--------|--------|--------|--------|--------|--------|--------|--------|--------|


C|--------|--------|--------|--------|--------|--------|--------|--------|--------|
G|--------|--------|--------|--------|--------|--------|--------|--------|--------|
D|--------|--------|--------|--------|--------|--------|--------|--------|--------|
A|--------|--------|--------|--------|--------|--------|--------|--------|--------|
E|--------|--------|--------|--------|--------|--------|--------|--------|--------|
B|--------|--------|--------|--------|--------|--------|--------|--------|--------|


C|--------|--------|--------|--------|--------|--------|--------|--------|--------|
G|--------|--------|--------|--------|--------|--------|--------|--------|--------|
D|--------|--------|--------|--------|--------|--------|--------|--------|--------|
A|--------|--------|--------|--------|--------|--------|--------|--------|--------|
E|--------|--------|--------|--------|--------|--------|--------|--------|--------|
B|--------|--------|--------|--------|--------|--------|--------|--------|--------|


C|--------|--------|--------|--------|--------|--------|--------|--------|--------|
G|--------|--------|--------|--------|--------|--------|--------|--------|--------|
D|--------|--------|--------|--------|--------|--------|--------|--------|--------|
A|--------|--------|--------|--------|--------|--------|--------|--------|--------|
E|--------|--------|--------|--------|--------|--------|--------|--------|--------|
B|--------|--------|--------|--------|--------|--------|--------|--------|--------|


C|--------|--------|--------|--------|--------|--------|--------|--------|--------|
G|--------|--------|--------|--------|--------|--------|--------|--------|--------|
D|--------|--------|--------|--------|--------|--------|--------|--------|--------|
A|--------|--------|--------|--------|--------|--------|--------|--------|--------|
E|--------|--------|--------|--------|--------|--------|--------|--------|--------|
B|--------|--------|--------|--------|--------|--------|--------|--------|--------|


C|--------|--------|--------|--------|--------|--------|--------|--------|--------|
G|--------|--------|--------|--------|--------|--------|--------|--------|--------|
D|--------|--------|--------|--------|--------|--------|--------|--------|--------|
A|--------|--------|--------|--------|--------|--------|--------|--------|--------|
E|--------|--------|--------|--------|--------|--------|--------|--------|--------|
B|--------|--------|--------|--------|--------|--------|--------|--------|--------|


C|--------|--------|--------|--------|--------|--------|--------|--------|--------|
G|--------|--------|--------|--------|--------|--------|--------|--------|--------|
D|--------|--------|--------|--------|--------|--------|--------|--------|--------|
A|--------|--------|--------|--------|--------|--------|--------|--------|--------|
E|--------|--------|--------|--------|--------|--------|--------|--------|--------|
B|--------|--------|--------|--------|--------|--------|--------|--------|--------|


C|--------|--------|--------|--------|--------|--------|--------|--------|--------|
G|--------|--------|--------|--------|--------|--------|--------|--------|--------|
D|--------|--------|--------|--------|--------|--------|--------|--------|--------|
A|--------|--------|--------|--------|--------|--------|--------|--------|--------|
E|--------|--------|--------|--------|--------|--------|--------|--------|--------|
B|--------|--------|--------|--------|--------|--------|--------|--------|--------|


C|--------|--------|--------|--------|--------|--------|--------|--------|--------|
G|--------|--------|--------|--------|--------|--------|--------|--------|--------|
D|--------|--------|--------|--------|--------|--------|--------|--------|--------|
A|--------|--------|--------|--------|--------|--------|--------|--------|--------|
E|--------|--------|--------|--------|--------|--------|--------|--------|--------|
B|--------|--------|--------|--------|--------|--------|--------|--------|--------|


C|--------|--------|--------|--------|--------|--------|--------|--------|--------|
G|--------|--------|--------|--------|--------|--------|--------|--------|--------|
D|--------|--------|--------|--------|--------|--------|--------|--------|--------|
A|--------|--------|--------|--------|--------|--------|--------|--------|--------|
E|--------|--------|--------|--------|--------|--------|--------|--------|--------|
B|--------|--------|--------|--------|--------|--------|--------|--------|--------|


C|--------|--------|--------|--------|--------|--------|--------|--------|--------|
G|--------|--------|--------|--------|--------|--------|--------|--------|--------|
D|--------|--------|--------|--------|--------|--------|--------|--------|--------|
A|--------|--------|--------|--------|--------|--------|--------|--------|--------|
E|--------|--------|--------|--------|--------|--------|--------|--------|--------|
B|--------|--------|--------|--------|--------|--------|--------|--------|--------|


C|--------|--------|--------|--------|--------|--------|--------|--------|--------|
G|--------|--------|--------|--------|--------|--------|--------|--------|--------|
D|--------|--------|--------|--------|--------|--------|--------|--------|--------|
A|--------|--------|--------|--------|--------|--------|--------|--------|--------|
E|--------|--------|--------|--------|--------|--------|--------|--------|--------|
B|--------|--------|--------|--------|--------|--------|--------|--------|--------|


C|--------|--------|--------|--------|--------|--------|--------|--------|--------|
G|--------|--------|--------|--------|--------|--------|--------|--------|--------|
D|--------|--------|--------|--------|--------|--------|--------|--------|--------|
A|--------|--------|--------|--------|--------|--------|--------|--------|--------|
E|--------|--------|--------|--------|--------|--------|--------|--------|--------|
B|--------|--------|--------|--------|--------|--------|--------|--------|--------|


C|--------|--------|--------|--------|--------|--------|--------|--------|--------|
G|--------|--------|--------|--------|--------|--------|--------|--------|--------|
D|--------|--------|--------|--------|--------|--------|--------|--------|--------|
A|--------|--------|--------|--------|--------|--------|--------|--------|--------|
E|--------|--------|--------|--------|--------|--------|--------|--------|--------|
B|--------|--------|--------|--------|--------|--------|--------|--------|--------|


C|--------|--------|--------|--------|--------|--------|--------|--------|--------|
G|--------|--------|--------|--------|--------|--------|--------|--------|--------|
D|--------|--------|--------|--------|--------|--------|--------|--------|--------|
A|--------|--------|--------|--------|--------|--------|--------|--------|--------|
E|--------|--------|--------|--------|--------|--------|--------|--------|--------|
B|--------|--------|--------|--------|--------|--------|--------|--------|--------|


C|--------|--------|--------|--------|--------|--------|--------|--------|--------|
G|--------|--------|--------|--------|--------|--------|--------|--------|--------|
D|--------|--------|--------|--------|--------|--------|--------|--------|--------|
A|--------|--------|--------|--------|--------|--------|--------|--------|--------|
E|--------|--------|--------|--------|--------|--------|--------|--------|--------|
B|--------|--------|--------|--------|--------|--------|--------|--------|--------|


C|--------|--------|--------|--------|--------|--------|--------|--------|--------|
G|--------|--------|--------|--------|--------|--------|--------|--------|--------|
D|--------|--------|--------|--------|--------|--------|--------|--------|--------|
A|--------|--------|--------|--------|--------|--------|--------|--------|--------|
E|--------|--------|--------|--------|--------|--------|--------|--------|--------|
B|--------|--------|--------|--------|--------|--------|--------|--------|--------|


C|--------|--------|--------|--------|--------|--------|--------|--------|--------|
G|--------|--------|--------|--------|--------|--------|--------|--------|--------|
D|--------|--------|--------|--------|--------|--------|--------|--------|--------|
A|--------|--------|--------|--------|--------|--------|--------|--------|--------|
E|--------|--------|--------|--------|--------|--------|--------|--------|--------|
B|--------|--------|--------|--------|--------|--------|--------|--------|--------|


C|--------|--------|--------|--------|--------|--------|--------|--------|--------|
G|--------|--------|--------|--------|--------|--------|--------|--------|--------|
D|--------|--------|--------|--------|--------|--------|--------|--------|--------|
A|--------|--------|--------|--------|--------|--------|--------|--------|--------|
E|--------|--------|--------|--------|--------|--------|--------|--------|--------|
B|--------|--------|--------|--------|--------|--------|--------|--------|--------|


C|--------|--------|--------|--------|--------|--------|--------|--------|--------|
G|--------|--------|--------|--------|--------|--------|--------|--------|--------|
D|--------|--------|--------|--------|--------|--------|--------|--------|--------|
A|--------|--------|--------|--------|--------|--------|--------|--------|--------|
E|--------|--------|--------|--------|--------|--------|--------|--------|--------|
B|--------|--------|--------|--------|--------|--------|--------|--------|--------|


C|--------|--------|--------|--------|--------|--------|--------|--------|--------|
G|--------|--------|--------|--------|--------|--------|--------|--------|--------|
D|--------|--------|--------|--------|--------|--------|--------|--------|--------|
A|--------|--------|--------|--------|--------|--------|--------|--------|--------|
E|--------|--------|--------|--------|--------|--------|--------|--------|--------|
B|--------|--------|--------|--------|--------|--------|--------|--------|--------|


C|--------|--------|--------|--------|--------|--------|--------|--------|--------|
G|--------|--------|--------|--------|--------|--------|--------|--------|--------|
D|--------|--------|--------|--------|--------|--------|--------|--------|--------|
A|--------|--------|--------|--------|--------|--------|--------|--------|--------|
E|--------|--------|--------|--------|--------|--------|--------|--------|--------|
B|--------|--------|--------|--------|--------|--------|--------|--------|--------|


C|--------|--------|--------|--------|--------|--------|--------|--------|--------|
G|--------|--------|--------|--------|--------|--------|--------|--------|--------|
D|--------|--------|--------|--------|--------|--------|--------|--------|--------|
A|--------|--------|--------|--------|--------|--------|--------|--------|--------|
E|--------|--------|--------|--------|--------|--------|--------|--------|--------|
B|--------|--------|--------|--------|--------|--------|--------|--------|--------|


C|--------|--------|--------|--------|--------|--------|--------|--------|--------|
G|--------|--------|--------|--------|--------|--------|--------|--------|--------|
D|--------|--------|--------|--------|--------|--------|--------|--------|--------|
A|--------|--------|--------|--------|--------|--------|--------|--------|--------|
E|--------|--------|--------|--------|--------|--------|--------|--------|--------|
B|--------|--------|--------|--------|--------|--------|--------|--------|--------|


C|--------|--------|--------|--------|--------|--------|--------|--------|--------|
G|--------|--------|--------|--------|--------|--------|--------|--------|--------|
D|--------|--------|--------|--------|--------|--------|--------|--------|--------|
A|--------|--------|--------|--------|--------|--------|--------|--------|--------|
E|--------|--------|--------|--------|--------|--------|--------|--------|--------|
B|--------|--------|--------|--------|--------|--------|--------|--------|--------|


C|--------|--------|--------|--------|--------|--------|--------|--------|--------|
G|--------|--------|--------|--------|--------|--------|--------|--------|--------|
D|--------|--------|--------|--------|--------|--------|--------|--------|--------|
A|--------|--------|--------|--------|--------|--------|--------|--------|--------|
E|--------|--------|--------|--------|--------|--------|--------|--------|--------|
B|--------|--------|--------|--------|--------|--------|--------|--------|--------|


C|--------|--------|--------|--------|--------|--------|--------|--------|--------|
G|--------|--------|--------|--------|--------|--------|--------|--------|--------|
D|--------|--------|--------|--------|--------|--------|--------|--------|--------|
A|--------|--------|--------|--------|--------|--------|--------|--------|--------|
E|--------|--------|--------|--------|--------|--------|--------|--------|--------|
B|--------|--------|--------|--------|--------|--------|--------|--------|--------|


C|--------|--------|--------|--------|--------|--------|--------|--------|--------|
G|--------|--------|--------|--------|--------|--------|--------|--------|--------|
D|--------|--------|--------|--------|--------|--------|--------|--------|--------|
A|--------|--------|--------|--------|--------|--------|--------|--------|--------|
E|--------|--------|--------|--------|--------|--------|--------|--------|--------|
B|--------|--------|--------|--------|--------|--------|--------|--------|--------|


C|--------|--------|--------|--------|--------|--------|--------|--------|--------|
G|--------|--------|--------|--------|--------|--------|--------|--------|--------|
D|--------|--------|--------|--------|--------|--------|--------|--------|--------|
A|--------|--------|--------|--------|--------|--------|--------|--------|--------|
E|--------|--------|--------|--------|--------|--------|--------|--------|--------|
B|--------|--------|--------|--------|--------|--------|--------|--------|--------|


C|--------|--------|--------|--------|--------|--------|--------|--------|--------|
G|--------|--------|--------|--------|--------|--------|--------|--------|--------|
D|--------|--------|--------|--------|--------|--------|--------|--------|--------|
A|--------|--------|--------|--------|--------|--------|--------|--------|--------|
E|--------|--------|--------|--------|--------|--------|--------|--------|--------|
B|--------|--------|--------|--------|--------|--------|--------|--------|--------|


C|--------|--------|--------|--------|--------|--------|--------|--------|--------|
G|--------|--------|--------|--------|--------|--------|--------|--------|--------|
D|--------|--------|--------|--------|--------|--------|--------|--------|--------|
A|--------|--------|--------|--------|--------|--------|--------|--------|--------|
E|--------|--------|--------|--------|--------|--------|--------|--------|--------|
B|--------|--------|--------|--------|--------|--------|--------|--------|--------|


C|--------|--------|--------|--------|--------|--------|--------|--------|--------|
G|--------|--------|--------|--------|--------|--------|--------|--------|--------|
D|--------|--------|--------|--------|--------|--------|--------|--------|--------|
A|--------|--------|--------|--------|--------|--------|--------|--------|--------|
E|--------|--------|--------|--------|--------|--------|--------|--------|--------|
B|--------|--------|--------|--------|--------|--------|--------|--------|--------|


C|--------|--------|--------|--------|--------|--------|--------|--------|--------|
G|--------|--------|--------|--------|--------|--------|--------|--------|--------|
D|--------|--------|--------|--------|--------|--------|--------|--------|--------|
A|--------|--------|--------|--------|--------|--------|--------|--------|--------|
E|--------|--------|--------|--------|--------|--------|--------|--------|--------|
B|--------|--------|--------|--------|--------|--------|--------|--------|--------|


C|--------|--------|--------|--------|--------|--------|--------|--------|--------|
G|--------|--------|--------|--------|--------|--------|--------|--------|--------|
D|--------|--------|--------|--------|--------|--------|--------|--------|--------|
A|--------|--------|--------|--------|--------|--------|--------|--------|--------|
E|--------|--------|--------|--------|--------|--------|--------|--------|--------|
B|--------|--------|--------|--------|--------|--------|--------|--------|--------|


C|--------|--------|--------|--------|--------|--------|--------|--------|--------|
G|--------|--------|--------|--------|--------|--------|--------|--------|--------|
D|--------|--------|--------|--------|--------|--------|--------|--------|--------|
A|--------|--------|--------|--------|--------|--------|--------|--------|--------|
E|--------|--------|--------|--------|--------|--------|--------|--------|--------|
B|--------|--------|--------|--------|--------|--------|--------|--------|--------|


C|--------|--------|--------|--------|--------|--------|--------|--------|--------|
G|--------|--------|--------|--------|--------|--------|--------|--------|--------|
D|--------|--------|--------|--------|--------|--------|--------|--------|--------|
A|--------|--------|--------|--------|--------|--------|--------|--------|--------|
E|--------|--------|--------|--------|--------|--------|--------|--------|--------|
B|--------|--------|--------|--------|--------|--------|--------|--------|--------|


C|--------|--------|--------|--------|--------|--------|--------|--------|--------|
G|--------|--------|--------|--------|--------|--------|--------|--------|--------|
D|--------|--------|--------|--------|--------|--------|--------|--------|--------|
A|--------|--------|--------|--------|--------|--------|--------|--------|--------|
E|--------|--------|--------|--------|--------|--------|--------|--------|--------|
B|--------|--------|--------|--------|--------|--------|--------|--------|--------|


C|--------|--------|--------|--------|--------|--------|--------|--------|--------|
G|--------|--------|--------|--------|--------|--------|--------|--------|--------|
D|--------|--------|--------|--------|--------|--------|--------|--------|--------|
A|--------|--------|--------|--------|--------|--------|--------|--------|--------|
E|--------|--------|--------|--------|--------|--------|--------|--------|--------|
B|--------|--------|--------|--------|--------|--------|--------|--------|--------|


C|--------|--------|--------|--------|--------|--------|--------|--------|--------|
G|--------|--------|--------|--------|--------|--------|--------|--------|--------|
D|--------|--------|--------|--------|--------|--------|--------|--------|--------|
A|--------|--------|--------|--------|--------|--------|--------|--------|--------|
E|--------|--------|--------|--------|--------|--------|--------|--------|--------|
B|--------|--------|--------|--------|--------|--------|--------|--------|--------|


C|--------|--------|--------|--------|--------|--------|--------|--------|--------|
G|--------|--------|--------|--------|--------|--------|--------|--------|--------|
D|--------|--------|--------|--------|--------|--------|--------|--------|--------|
A|--------|--------|--------|--------|--------|--------|--------|--------|--------|
E|--------|--------|--------|--------|--------|--------|--------|--------|--------|
B|--------|--------|--------|--------|--------|--------|--------|--------|--------|


C|--------|--------|--------|--------|--------|--------|--------|--------|--------|
G|--------|--------|--------|--------|--------|--------|--------|--------|--------|
D|--------|--------|--------|--------|--------|--------|--------|--------|--------|
A|--------|--------|--------|--------|--------|--------|--------|--------|--------|
E|--------|--------|--------|--------|--------|--------|--------|--------|--------|
B|--------|--------|--------|--------|--------|--------|--------|--------|--------|


C|--------|--------|--------|--------|--------|--------|--------|--------|--------|
G|--------|--------|--------|--------|--------|--------|--------|--------|--------|
D|--------|--------|--------|--------|--------|--------|--------|--------|--------|
A|--------|--------|--------|--------|--------|--------|--------|--------|--------|
E|--------|--------|--------|--------|--------|--------|--------|--------|--------|
B|--------|--------|--------|--------|--------|--------|--------|--------|--------|


C|--------|--------|--------|--------|--------|--------|--------|--------|--------|
G|--------|--------|--------|--------|--------|--------|--------|--------|--------|
D|--------|--------|--------|--------|--------|--------|--------|--------|--------|
A|--------|--------|--------|--------|--------|--------|--------|--------|--------|
E|--------|--------|--------|--------|--------|--------|--------|--------|--------|
B|--------|--------|--------|--------|--------|--------|--------|--------|--------|


C|--------|--------|--------|--------|--------|--------|--------|--------|--------|
G|--------|--------|--------|--------|--------|--------|--------|--------|--------|
D|--------|--------|--------|--------|--------|--------|--------|--------|--------|
A|--------|--------|--------|--------|--------|--------|--------|--------|--------|
E|--------|--------|--------|--------|--------|--------|--------|--------|--------|
B|--------|--------|--------|--------|--------|--------|--------|--------|--------|


C|--------|--------|--------|--------|--------|--------|--------|--------|--------|
G|--------|--------|--------|--------|--------|--------|--------|--------|--------|
D|--------|--------|--------|--------|--------|--------|--------|--------|--------|
A|--------|--------|--------|--------|--------|--------|--------|--------|--------|
E|--------|--------|--------|--------|--------|--------|--------|--------|--------|
B|--------|--------|--------|--------|--------|--------|--------|--------|--------|


C|--------|--------|--------|--------|--------|--------|--------|--------|--------|
G|--------|--------|--------|--------|--------|--------|--------|--------|--------|
D|--------|--------|--------|--------|--------|--------|--------|--------|--------|
A|--------|--------|--------|--------|--------|--------|--------|--------|--------|
E|--------|--------|--------|--------|--------|--------|--------|--------|--------|
B|--------|--------|--------|--------|--------|--------|--------|--------|--------|


C|--------|
G|--------|
D|--------|
A|--------|
E|--------|
B|--------|





Track 2: Bass

C|--------|--------|---------------------------------|-----------------------------------------|
G|--------|--------|---------------------------------|-----------------------------------------|
D|--------|--------|---------------------------------|-----------------------------------------|
A|--------|--------|---------------------------------|-----------------------------------------|
E|--------|--------|---------------------------------|-----------------------------------------|
C|--------|--------|-0-------0-------0-------0-------|-0-------0-------5--6--5--3--5--6--5--3--|


C|---------------------------------|-----------------------------------------|---------------------------------|
G|---------------------------------|-----------------------------------------|---------------------------------|
D|---------------------------------|-----------------------------------------|---------------------------------|
A|---------------------------------|-----------------------------------------|---------------------------------|
E|---------------------------------|-----------------------------------------|---------------------------------|
C|-0-------0-------0-------0-------|-0-------0-------3--5--3--2--3--5--3--2--|-0-------0-------0-------0-------|


C|-----------------------------------------|---------------------------------|-----------------------------------------|
G|-----------------------------------------|---------------------------------|-----------------------------------------|
D|-----------------------------------------|---------------------------------|-----------------------------------------|
A|-----------------------------------------|---------------------------------|-----------------------------------------|
E|-----------------6--6--6--6--6--6--6--6--|---------------------------------|-----------------------------------------|
C|-0-------0-------------------------------|-0-------0-------0-------0-------|-0-------0-------3--5--3--2--3--5--3--2--|


C|---------------------------------|---------------------------------|---------------------------------|
G|---------------------------------|---------------------------------|---------------------------------|
D|---------------------------------|---------------------------------|---------------------------------|
A|---------------------------------|---------------------------------|---------------------------------|
E|---------------------------------|---------------------------------|---------------------------------|
C|-0-------0-------0-------0-------|-0-------0-------6---6---6---6---|-0-------0-------0-------0-------|


C|---------------------------------|---------------------------------|---------------------------------|
G|---------------------------------|---------------------------------|---------------------------------|
D|---------------------------------|---------------------------------|---------------------------------|
A|---------------------------------|---------------------------------|---------------------------------|
E|---------------------------------|---------------------------------|-----------------4---4---4---4---|
C|-0-------0-------3---3---3---3---|-0-------0-------0-------0-------|-0-------0-----------------------|


C|---------------------------------|---------------------------------|---------------------------------|
G|---------------------------------|---------------------------------|---------------------------------|
D|---------------------------------|---------------------------------|---------------------------------|
A|---------------------------------|---------------------------------|---------------------------------|
E|---------------------------------|-----------------6---6---6---6---|---------------------------------|
C|-0-------0-------0-------0-------|-0-------0-----------------------|-0-------0-------0-------0-------|


C|---------------------------------|---------------------------------|---------------------------------|
G|---------------------------------|---------------------------------|---------------------------------|
D|---------------------------------|---------------------------------|---------------------------------|
A|---------------------------------|---------------------------------|---------------------------------|
E|---------------------------------|---------------------------------|---------------------------------|
C|-0-------0-------6---6---6---6---|-0-------0-------0-------0-------|-0-------0-------3---3---3---3---|


C|---------------------------------|---------------------------------|---------------------------------|
G|---------------------------------|---------------------------------|---------------------------------|
D|---------------------------------|---------------------------------|---------------------------------|
A|---------------------------------|---------------------------------|---------------------------------|
E|---------------------------------|-----------------4---4---4---4---|---------------------------------|
C|-0-------0-------0-------0-------|-0-------0-----------------------|-0-------0-------0-------0-------|


C|---------------------------------|---------------------|------------------------------|
G|---------------------------------|---------------------|------------------------------|
D|---------------------------------|---------------------|------------------------------|
A|---------------------------------|---------------------|------------------------------|
E|-----------------6---6---6-------|---------------------|------------------------------|
C|-0-------0-------------------0---|-0----0----0----0----|-0----0---2---3---3---3---0---|


C|---------------------|------------------------------|---------------------|------------------------------|
G|---------------------|------------------------------|---------------------|------------------------------|
D|---------------------|------------------------------|---------------------|------------------------------|
A|---------------------|------------------------------|---------------------|------------------------------|
E|---------------------|------------------------------|---------------------|------------------------------|
C|-0----0----0----0----|-0----0---3---6---6---6---0---|-0----0----0----0----|-0----0---2---3---3---3---0---|


C|------------------------|---------------------------|---------------------|------------------------------|
G|------------------------|---------------------------|---------------------|------------------------------|
D|------------------------|---------------------------|---------------------|------------------------------|
A|----------------10--13--|-10-------10---------------|---------------------|------------------------------|
E|------------------------|------11------11--9--------|---------------------|------------------------------|
C|-0----0----0------------|-----------------------0---|-0----0----0----0----|-0----0---2---3---3---3---0---|


C|---------------------|------------------------------|---------------------|------------------------------|
G|---------------------|------------------------------|---------------------|------------------------------|
D|---------------------|------------------------------|---------------------|------------------------------|
A|---------------------|------------------------------|---------------------|------------------------------|
E|---------------------|------------------------------|---------------------|------------------------------|
C|-0----0----0----0----|-0----0---3---6---6---6---0---|-0----0----0----0----|-0----0---2---3---3---3---0---|


C|------------------------|---------------------------|---------------------------------|
G|------------------------|---------------------------|---------------------------------|
D|------------------------|---------------------------|---------------------------------|
A|----------------10--13--|-10-------10---------------|---------------------------------|
E|------------------------|------11------11--9----8---|-6---8---------------8---6---8---|
C|-0----0----0------------|---------------------------|---------0---3---0---------------|


C|---------------------------------|---------------------------------|---------------------------------|
G|---------------------------------|---------------------------------|---------------------------------|
D|---------------------------------|---------------------------------|---------------------------------|
A|---------------------------------|---------------------------------|---------------------------------|
E|-------------------------6---8---|-6---8---------------------------|-----------------------------8---|
C|-0---7---5---8---7---8-----------|---------0---3---0---8---7---8---|-0---2---0---7---5---7---8-------|


C|---------------------------------|---------------------------------|---------------------------------|
G|---------------------------------|---------------------------------|---------------------------------|
D|---------------------------------|---------------------------------|---------------------------------|
A|---------------------------------|---------------------------------|---------------------------------|
E|-6---8---------------8---6---8---|-------------------------6---8---|-6---8---------------------------|
C|---------0---3---0---------------|-0---7---5---8---7---8-----------|---------0---3---0---8---7---8---|


C|---------------------------------|---------------------|------------------------------|
G|---------------------------------|---------------------|------------------------------|
D|---------------------------------|---------------------|------------------------------|
A|---------------------------------|---------------------|------------------------------|
E|---------------------------------|---------------------|------------------------------|
C|-0---2---0---7---5---7---8---0---|-0----0----0----0----|-0----0---2---3---3---3---0---|


C|---------------------|------------------------------|---------------------|------------------------------|
G|---------------------|------------------------------|---------------------|------------------------------|
D|---------------------|------------------------------|---------------------|------------------------------|
A|---------------------|------------------------------|---------------------|------------------------------|
E|---------------------|------------------------------|---------------------|------------------------------|
C|-0----0----0----0----|-0----0---3---6---6---6---0---|-0----0----0----0----|-0----0---2---3---3---3---0---|


C|------------------------|---------------------------|---------------------------------|
G|------------------------|---------------------------|---------------------------------|
D|------------------------|---------------------------|---------------------------------|
A|----------------10--13--|-10-------10---------------|---------------------------------|
E|------------------------|------11------11--9----8---|-6---8---------------8---6---8---|
C|-0----0----0------------|---------------------------|---------0---3---0---------------|


C|---------------------------------|---------------------------------|---------------------------------|
G|---------------------------------|---------------------------------|---------------------------------|
D|---------------------------------|---------------------------------|---------------------------------|
A|---------------------------------|---------------------------------|---------------------------------|
E|-------------------------6---8---|-6---8---------------------------|-----------------------------8---|
C|-0---7---5---8---7---8-----------|---------0---3---0---8---7---8---|-0---2---0---7---5---7---8-------|


C|---------------------------------|---------------------------------|---------------------------------|
G|---------------------------------|---------------------------------|---------------------------------|
D|---------------------------------|---------------------------------|---------------------------------|
A|---------------------------------|---------------------------------|---------------------------------|
E|-6---8---------------8---6---8---|-------------------------6---8---|-6---8---------------------------|
C|---------0---3---0---------------|-0---7---5---8---7---8-----------|---------0---3---0---8---7---8---|


C|-----------------------------0---|-----7---0---5---7---0---8---0---|-7---0---5---7----0----7---|
G|---------------------------------|---------------------------------|---------------------------|
D|---------------------------------|---------------------------------|---------------------------|
A|---------------------------------|---------------------------------|---------------------------|
E|---------------------------------|---------------------------------|---------------------------|
C|-0---2---0---7---5---7---8-------|---------------------------------|---------------------------|


C|-0---5---7---0---8---0---7---0---|-5---7----0----7---0---5---|-7---0---8---0---7---0---5---7---|
G|---------------------------------|---------------------------|---------------------------------|
D|---------------------------------|---------------------------|---------------------------------|
A|---------------------------------|---------------------------|---------------------------------|
E|---------------------------------|---------------------------|---------------------------------|
C|---------------------------------|---------------------------|---------------------------------|


C|-0---5---7---0----7---0---5---|-7---0---8---0---7---0---5---7---|-----0----7---0---5---7---0---|
G|------------------------------|---------------------------------|------------------------------|
D|------------------------------|---------------------------------|------------------------------|
A|------------------------------|---------------------------------|------------------------------|
E|------------------------------|---------------------------------|------------------------------|
C|------------------------------|---------------------------------|------------------------------|


C|-10--0---8---0---5---7---0---5---|-7---0----7---0---5---7---0---|-8---0---7---0---5---7----0---|
G|---------------------------------|------------------------------|------------------------------|
D|---------------------------------|------------------------------|------------------------------|
A|---------------------------------|------------------------------|------------------------------|
E|---------------------------------|------------------------------|------------------------------|
C|---------------------------------|------------------------------|------------------------------|


C|-----7---0---5---7---0---8---0---|-7---0---5---7---0---5---7---0---|-----7---0---5---7---0---8---0---|
G|---------------------------------|---------------------------------|---------------------------------|
D|---------------------------------|---------------------------------|---------------------------------|
A|---------------------------------|---------------------------------|---------------------------------|
E|---------------------------------|---------------------------------|---------------------------------|
C|---------------------------------|---------------------------------|---------------------------------|


C|-7---0---5---7----0----7---|-0---5---7---0---10--0---8---0---|-5---7---0---5---7------------|
G|---------------------------|---------------------------------|------------------------------|
D|---------------------------|---------------------------------|------------------------------|
A|---------------------------|---------------------------------|------------------------------|
E|---------------------------|---------------------------------|------------------------------|
C|---------------------------|---------------------------------|---------------------0----7---|


C|---------------------------------|------------------------------|---------------------------------|
G|---------------------------------|------------------------------|---------------------------------|
D|---------------------------------|------------------------------|---------------------------------|
A|---------------------------------|------------------------------|---------------------------------|
E|---------------------------------|------------------------------|-----------------------------8---|
C|-0---8---7---0---5---0---7---0---|-2---0---3---0---5---0----7---|-0---10--8---0---5---0---7-------|


C|------------------------------|---------------------------------|------------------------------|
G|------------------------------|---------------------------------|------------------------------|
D|------------------------------|---------------------------------|------------------------------|
A|------------------------------|---------------------------------|------------------------------|
E|-8----------------------------|---------------------------------|------------------------------|
C|-----0---3---0---5---0----7---|-0---8---7---0---5---0---7---0---|-2---0---3---0---5---0----7---|


C|---------------------------------|---------------------------------|------------------------------|
G|---------------------------------|---------------------------------|------------------------------|
D|---------------------------------|---------------------------------|------------------------------|
A|---------------------------------|---------------------------------|------------------------------|
E|-----------------------------8---|-8-------------------------------|------------------------------|
C|-0---10--8---0---5---0---7-------|-----0---3---0---5---0---0---0---|--------------0---0---0-------|


C|---------------------------|------------------------------|------------------------------|
G|---------------------------|------------------------------|------------------------------|
D|---------------------------|------------------------------|------------------------------|
A|---------------------------|------------------------------|------------------------------|
E|---------------------------|------------------------------|------------------------------|
C|-------0---0---0-----------|---------0---0---0--------0---|-0--------0---0---0-----------|


C|---------------------------|------------------------------|------------------------------|
G|---------------------------|------------------------------|------------------------------|
D|---------------------------|------------------------------|------------------------------|
A|---------------------------|------------------------------|------------------------------|
E|---------------------------|------------------------------|------------------------------|
C|---------0---0---0---------|-----0---0---0----------------|-0---0---0--------0---0-------|


C|------------------------------|-----------------------|------------------------------|
G|------------------------------|-----------------------|------------------------------|
D|------------------------------|-----------------------|------------------------------|
A|------------------------------|-----------------------|------------------------------|
E|------------------------------|-----------------------|------------------------------|
C|-----0---0---0----------------|-0---0---0---------0---|-0---0----------------0---0---|


C|---------------------------|------------------------------|-----------------------|
G|---------------------------|------------------------------|-----------------------|
D|---------------------------|------------------------------|-----------------------|
A|---------------------------|------------------------------|-----------------------|
E|---------------------------|------------------------------|-----------------------|
C|-0--------0---0--------0---|-0---0----------------0---0---|-0---------0---0---0---|


C|------------------------------|---------------------------|------------------------------|
G|------------------------------|---------------------------|------------------------------|
D|------------------------------|---------------------------|---------6----------------8---|
A|------------------------------|---------------------------|-----6-------6--------6-------|
E|------------------------------|------------------4----4---|-----------------4------------|
C|--------------0---0---0-------|-----0---0-----------------|------------------------------|


C|---------------------------|------------------------------|---------------------|
G|---------------------------|------------------------------|---------------------|
D|-6---5---------------------|-6----------------------------|---------------------|
A|---------6-------------6---|-----6------------------------|---------------------|
E|-------------4----4--------|---------4---4---4---4----6---|---------------------|
C|---------------------------|------------------------------|-------0----0----0---|


C|---------------------------|---------------------|------------------------|---------------------------|
G|---------------------------|---------------------|------------------------|---------------------------|
D|---------------------------|---------------------|------------------------|-------------------6-------|
A|---------------------------|---------------------|------------------------|---------------6-------6---|
E|---------------------------|---------------------|------------------------|-----4----4----------------|
C|------0---0---0----0---0---|-----0----0----0-----|-0---0---0----0---0-----|---------------------------|


C|------------------------------|------------------------------|--------------------|
G|------------------------------|------------------------------|--------------------|
D|----------8---6---5-----------|--------------6---------------|--------------------|
A|------6---------------6-------|----------6-------6-----------|----------------6---|
E|-4------------------------4---|-----4----------------4---4---|-4---4----6---------|
C|------------------------------|------------------------------|--------------------|


C|---------------------------|------------------------|---------------------------|
G|---------------------------|------------------------|---------------------------|
D|---------------------------|-6---6----5-------------|---------------------------|
A|-----6---8---8----5----5---|--------------4---------|---------------------------|
E|---------------------------|------------------------|---------------------------|
C|---------------------------|--------------------0---|-7----0---6----0---3---2---|


C|---------------------------|---------------------------|------------------------------|
G|---------------------------|---------------------------|------------------------------|
D|---------------------------|---------------------------|------------------------------|
A|---------------------------|---------------------------|------------------------------|
E|---------------------------|---------------------------|-----4------------------------|
C|-0---5---5----2----3---0---|-7----0---6----0---3---2---|-0--------2---3---2---3---0---|


C|---------------------------|---------------------------|---------------------------|
G|---------------------------|---------------------------|---------------------------|
D|---------------------------|---------------------------|---------------------------|
A|---------------------------|---------------------------|---------------------------|
E|---------------------------|---------------------------|---------------------------|
C|-7----0---6----0---3---2---|-0---5---5----2----3---0---|-7----0---6----0---3---2---|


C|------------------------------|---------------------------|---------------------------|
G|------------------------------|---------------------------|---------------------------|
D|------------------------------|---------------------------|---------------------------|
A|------------------------------|---------------------------|---------------------------|
E|-----4------------------------|---------------------------|---------------------------|
C|-0--------2---3---2---3---0---|-7----0---6----0---3---2---|-0---5---5----2----3---0---|


C|---------------------------|------------------------------|---------------------------|
G|---------------------------|------------------------------|---------------------------|
D|---------------------------|------------------------------|---------------------------|
A|---------------------------|------------------------------|---------------------------|
E|---------------------------|-----4------------------------|---------------------------|
C|-7----0---6----0---3---2---|-0--------2---3---2---3---0---|-7----0---6----0---3---2---|


C|---------------------------|---------------------------|------------------------------|
G|---------------------------|---------------------------|------------------------------|
D|---------------------------|---------------------------|------------------------------|
A|---------------------------|---------------------------|------------------------------|
E|---------------------------|---------------------------|-----4------------------------|
C|-0---5---5----2----3---0---|-7----0---6----0---3---2---|-0--------2---3---2---3---0---|


C|---------------------|------------------------------|---------------------|------------------------------|
G|---------------------|------------------------------|---------------------|------------------------------|
D|---------------------|------------------------------|---------------------|------------------------------|
A|---------------------|------------------------------|---------------------|------------------------------|
E|---------------------|------------------------------|---------------------|------------------------------|
C|-0----0----0----0----|-0----0---2---3---3---3---0---|-0----0----0----0----|-0----0---3---6---6---6---0---|


C|---------------------|------------------------------|------------------------|---------------------------|
G|---------------------|------------------------------|------------------------|---------------------------|
D|---------------------|------------------------------|------------------------|---------------------------|
A|---------------------|------------------------------|----------------10--13--|-10-------10---------------|
E|---------------------|------------------------------|------------------------|------11------11--9--------|
C|-0----0----0----0----|-0----0---2---3---3---3---0---|-0----0----0------------|-----------------------0---|


C|---------------------|------------------------------|---------------------|------------------------------|
G|---------------------|------------------------------|---------------------|------------------------------|
D|---------------------|------------------------------|---------------------|------------------------------|
A|---------------------|------------------------------|---------------------|------------------------------|
E|---------------------|------------------------------|---------------------|------------------------------|
C|-0----0----0----0----|-0----0---2---3---3---3---0---|-0----0----0----0----|-0----0---3---6---6---6---0---|


C|---------------------|------------------------------|------------------------|---------------------------|
G|---------------------|------------------------------|------------------------|---------------------------|
D|---------------------|------------------------------|------------------------|---------------------------|
A|---------------------|------------------------------|----------------10--13--|-10-------10---------------|
E|---------------------|------------------------------|------------------------|------11------11--9--------|
C|-0----0----0----0----|-0----0---2---3---3---3---0---|-0----0----0------------|---------------------------|


C|--------|-----------------------|------------------------------|---------------------------|
G|--------|-----------------------|------------------------------|---------------------------|
D|--------|-----------------------|------------------------------|---------------------------|
A|--------|-----------------------|------------------------------|---------------------------|
E|--------|-----------------------|------------------------------|---------------------------|
C|--------|-----------0---0---0---|--------------0---0---0-------|-------0---0---0-----------|


C|------------------------------|------------------------------|---------------------------|
G|------------------------------|------------------------------|---------------------------|
D|------------------------------|------------------------------|---------------------------|
A|------------------------------|------------------------------|---------------------------|
E|------------------------------|------------------------------|---------------------------|
C|---------0---0---0--------0---|-0--------0---0---0-----------|---------0---0---0---------|


C|------------------------------|------------------------------|------------------------------|
G|------------------------------|------------------------------|------------------------------|
D|------------------------------|------------------------------|------------------------------|
A|------------------------------|------------------------------|------------------------------|
E|------------------------------|------------------------------|------------------------------|
C|-----0---0---0----------------|-0---0---0--------0---0-------|-----0---0---0----------------|


C|-----------------------|------------------------------|---------------------------|
G|-----------------------|------------------------------|---------------------------|
D|-----------------------|------------------------------|---------------------------|
A|-----------------------|------------------------------|---------------------------|
E|-----------------------|------------------------------|---------------------------|
C|-0---0---0---------0---|-0---0----------------0---0---|-0--------0---0--------0---|


C|------------------------------|-----------------------|------------------------------|
G|------------------------------|-----------------------|------------------------------|
D|------------------------------|-----------------------|------------------------------|
A|------------------------------|-----------------------|------------------------------|
E|------------------------------|-----------------------|------------------------------|
C|-0---0----------------0---0---|-0---------0---0---0---|--------------0---0---0-------|


C|---------------------------|---------------------------------|------------------------------|
G|---------------------------|---------------------------------|------------------------------|
D|---------------------------|---------------------------------|------------------------------|
A|---------------------------|---------------------------------|------------------------------|
E|---------------------------|---------------------------------|------------------------------|
C|-----0---0--------0----7---|-0---8---7---0---5---0---7---0---|-2---0---3---0---5---0----7---|


C|---------------------------------|------------------------------|---------------------------------|
G|---------------------------------|------------------------------|---------------------------------|
D|---------------------------------|------------------------------|---------------------------------|
A|---------------------------------|------------------------------|---------------------------------|
E|-----------------------------8---|-8----------------------------|---------------------------------|
C|-0---10--8---0---5---0---7-------|-----0---3---0---5---0----7---|-0---8---7---0---5---0---7---0---|


C|------------------------------|---------------------------------|---------------------------------|
G|------------------------------|---------------------------------|---------------------------------|
D|------------------------------|---------------------------------|---------------------------------|
A|------------------------------|---------------------------------|---------------------3---3---3---|
E|------------------------------|-----------------------------8---|-8-------------------------------|
C|-2---0---3---0---5---0----7---|-0---10--8---0---5---0---7-------|-----0---3---0---5---------------|


C|---------------------------------|---------------------------------|---------------------------------|
G|---------------------------------|---------------------------------|---------------------------------|
D|---------------------------------|---------------------------------|---------------------------------|
A|-3---3---3---3---3---3---3---3---|-3---3---3-----------------------|---------------------------------|
E|---------------------------------|-------------4---4---4---4---4---|-4---4---4---4---4---4---4---4---|
C|---------------------------------|---------------------------------|---------------------------------|


C|---------------------------------|---------------------------------|---------------------------------|
G|---------------------------------|---------------------------------|---------------------------------|
D|---------------------------------|---------------------------------|---------------------------------|
A|---------------------------------|---------------------------------|---------------------------------|
E|-4---4---4---6---6---6---6---6---|-6---6---6---6---6---6---6---6---|-6---3---3---3---3---3---3---3---|
C|---------------------------------|---------------------------------|---------------------------------|


C|---------------------------------|---------------------------------|---------------------------------|
G|---------------------------------|---------------------------------|---------------------------------|
D|---------------------------------|---------------------------------|---------------------------------|
A|---------------------------------|-----3---3---3---3---3---3---3---|-3---3---3---3---3---3---3-------|
E|-3---3---3---3---3---3---3---3---|-3-------------------------------|-----------------------------4---|
C|---------------------------------|---------------------------------|---------------------------------|


C|---------------------------------|---------------------------------|---------------------------------|
G|---------------------------------|---------------------------------|---------------------------------|
D|---------------------------------|---------------------------------|---------------------------------|
A|---------------------------------|---------------------------------|---------------------------------|
E|-4---4---4---4---4---4---4---4---|-4---4---4---4---4---4---4---6---|-6---6---6---6---6---6---6---6---|
C|---------------------------------|---------------------------------|---------------------------------|


C|---------------------------------|---------------------------------|---------------------------------|
G|---------------------------------|---------------------------------|---------------------------------|
D|---------------------------------|---------------------------------|---------------------------------|
A|---------------------------------|---------------------------------|-------------------------6---5---|
E|-6---6---6---6---6---3---3---3---|-3---3---3---3---3---3---3---3---|-3---3---3---3---3---4-----------|
C|---------------------------------|---------------------------------|---------------------------------|


C|------------------------------|---------------------------------|--------------------------------|
G|------------------------------|---------------------------------|--------------------------------|
D|------------------------------|-----------------------------8---|----------------------5---6--8--|
A|-6---8---5---6--------6---5---|-6---8---6-------6---5---6-------|-5---6--------6---8-------------|
E|-----------------4------------|-------------4-------------------|---------4----------------------|
C|------------------------------|---------------------------------|--------------------------------|


C|---------------------------------------|------------------------------|---------------------------------|
G|---------------------------------------|------------------------------|---------------------------------|
D|-6--5----------------------------------|------------------------------|---------------------12----------|
A|-------8--6--5---------10--8---10--11--|-8---10-------10--8---10--11--|-10------10--8---10------8---10--|
E|----------------4--8-------------------|---------8--------------------|-----8---------------------------|
C|---------------------------------------|------------------------------|---------------------------------|


C|------------------------------------|-----------------------------------|------------------------------|
G|------------------------------------|-----------------------------------|------------------------------|
D|------8---6---5---3--5--3-----------|-----------------------------------|------------------------------|
A|---------------------------6--3--5--|-3---------6---5---6---8---5---6---|------6---5---6---8---6-------|
E|-8----------------------------------|----6--4---------------------------|-4------------------------4---|
C|------------------------------------|-----------------------------------|------------------------------|


C|------------------------------|-----------------------------------------|---------------------------|
G|------------------------------|-----------------------------------------|---------------------------|
D|-------------8----------------|-----------------------------------------|---------------------------|
A|-6---5---6-------5---6--------|-6---5-------------------------------6---|-----6---8---8----5----5---|
E|-------------------------4----|---------6---4--6--4--3--4--6--4--3------|---------------------------|
C|------------------------------|-----------------------------------------|---------------------------|


C|------------------------|---------------------------|---------------------------|
G|------------------------|---------------------------|---------------------------|
D|-6---6----5-------------|---------------------------|---------------------------|
A|--------------4---------|---------------------------|---------------------------|
E|------------------------|---------------------------|---------------------------|
C|--------------------0---|-7----0---6----0---3---2---|-0---5---5----2----3---0---|


C|---------------------------|------------------------------|---------------------------|
G|---------------------------|------------------------------|---------------------------|
D|---------------------------|------------------------------|---------------------------|
A|---------------------------|------------------------------|---------------------------|
E|---------------------------|-----4------------------------|---------------------------|
C|-7----0---6----0---3---2---|-0--------2---3---2---3---0---|-7----0---6----0---3---2---|


C|---------------------------|---------------------------|------------------------------|
G|---------------------------|---------------------------|------------------------------|
D|---------------------------|---------------------------|------------------------------|
A|---------------------------|---------------------------|------------------------------|
E|---------------------------|---------------------------|-----4------------------------|
C|-0---5---5----2----3---0---|-7----0---6----0---3---2---|-0--------2---3---2---3---0---|


C|---------------------------|---------------------------|---------------------------|
G|---------------------------|---------------------------|---------------------------|
D|---------------------------|---------------------------|---------------------------|
A|---------------------------|---------------------------|---------------------------|
E|---------------------------|---------------------------|---------------------------|
C|-7----0---6----0---3---2---|-0---5---5----2----3---0---|-7----0---6----0---3---2---|


C|------------------------------|---------------------------|---------------------------|
G|------------------------------|---------------------------|---------------------------|
D|------------------------------|---------------------------|---------------------------|
A|------------------------------|---------------------------|---------------------------|
E|-----4------------------------|---------------------------|---------------------------|
C|-0--------2---3---2---3---0---|-7----0---6----0---3---2---|-0---5---5----2----3---0---|


C|---------------------------|------------------------------|---------------------------------|
G|---------------------------|------------------------------|---------------------------------|
D|---------------------------|------------------------------|-------------------------11------|
A|---------------------------|--------------------------8---|-----8---10--11------8-------11--|
E|---------------------------|-----4------------------------|-8---------------8---------------|
C|-7----0---6----0---3---2---|-0--------2---3---2---3-------|---------------------------------|


C|---------------------------------|---------------------------------|---------------------------------|
G|---------------------------------|---------------------------------|---------------------------------|
D|-8-------------------------------|-------------------------11------|-----13--------------------------|
A|-------------8-------8---10--11--|-----8-------13------8-------11--|---------13--8-------8---10--11--|
E|-----8---11------8---------------|-8-------11------6---------------|-11--------------8---------------|
C|---------------------------------|---------------------------------|---------------------------------|


C|-----------------------------------|-------------------------------------------------|
G|-----------------------------------|-------------------------------------------13-12-|
D|---------11------8-----------------|-------------------------------11-10-11-13-------|
A|-----8-------11--------------------|-------------------11-10-11-13-------------------|
E|-8-------------------8---11--------|-------9--8--9--11-------------------------------|
C|-----------------------------9--8--|-9--11-------------------------------------------|


C|-------13-12-13-15-------------15-13-15-17-------|-------------------------------------------------|
G|-13-15-------------15-13-15-17-------------17-0--|-16-0--13-0--16-0--13-0--12-0--13-0--12-0--10-0--|
D|-------------------------------------------------|-------------------------------------------------|
A|-------------------------------------------------|-------------------------------------------------|
E|-------------------------------------------------|-------------------------------------------------|
C|-------------------------------------------------|-------------------------------------------------|


C|---------------------------------|--------|----------------|---------------------------------|
G|-12-0--13-0--10-0--12---12-------|--------|----------------|---------------------------------|
D|---------------------------------|--------|----------------|---------------------------------|
A|---------------------------------|--------|----------------|---------------------------------|
E|---------------------------------|--------|----------------|---------------------------------|
C|---------------------------------|--------|------------3---|-2---0---3---2---0---0---0---0---|


C|---------------------------------|---------------------------------|---------------------------------|
G|---------------------------------|---------------------------------|---------------------------------|
D|---------------------------------|---------------------------------|---------------------------------|
A|---------------------------------|---------------------------------|---------------------------------|
E|---------------------------------|---------------------------------|---------------------------------|
C|-0---0---0---3---2---0---0---0---|-0---0---0---0---0---0---0---3---|-2---0---3---2---0---0---0---0---|


C|---------------------------|------------------------|---------------------------------|
G|---------------------------|------------------------|---------------------------------|
D|---------------------------|------------------------|---------------------------------|
A|---------------------------|------------------------|---------------------------------|
E|---------------------------|------------------------|---------------------------------|
C|-0---0---0---7----8----5---|-----7----2----5----3---|-2---0---3---2---0---0---0---0---|


C|---------------------------------|---------------------------------|---------------------------------|
G|---------------------------------|---------------------------------|---------------------------------|
D|---------------------------------|---------------------------------|---------------------------------|
A|---------------------------------|---------------------------------|---------------------------------|
E|---------------------------------|---------------------------------|---------------------------------|
C|-0---0---0---3---2---0---0---0---|-0---0---0---0---0---0---0---3---|-2---0---3---2---0---0---0---0---|


C|---------------------------|------------------------|---------------------------------|
G|---------------------------|------------------------|---------------------------------|
D|---------------------------|------------------------|---------------------------------|
A|---------------------------|------------------------|---------------------------------|
E|---------------------------|------------------------|---------------------------------|
C|-0---0---0---7----8----5---|-----7----2----5----3---|-2---0---3---2---0---0---0---0---|


C|---------------------------------|---------------------------------|---------------------------------|
G|---------------------------------|---------------------------------|---------------------------------|
D|---------------------------------|---------------------------------|---------------------------------|
A|---------------------------------|---------------------------------|---------------------------------|
E|---------------------------------|---------------------------------|---------------------------------|
C|-0---0---0---3---2---0---0---0---|-0---0---0---0---0---0---0---3---|-2---0---3---2---0---0---0---0---|


C|---------------------------|------------------------|---------------------------------|
G|---------------------------|------------------------|---------------------------------|
D|---------------------------|------------------------|---------------------------------|
A|---------------------------|------------------------|---------------------------------|
E|---------------------------|------------------------|---------------------------------|
C|-0---0---0---7----8----5---|-----7----2----5----3---|-2---0---3---2---0---0---0---0---|


C|---------------------------------|---------------------------------|---------------------------------|
G|---------------------------------|---------------------------------|---------------------------------|
D|---------------------------------|---------------------------------|---------------------------------|
A|---------------------------------|---------------------------------|---------------------------------|
E|---------------------------------|---------------------------------|---------------------------------|
C|-0---0---0---3---2---0---0---0---|-0---0---0---0---0---0---0---3---|-2---0---3---2---0---0---0---0---|


C|---------------------------|------------------------|---------------------------------|
G|---------------------------|------------------------|---------------------------------|
D|---------------------------|------------------------|---------------------------------|
A|---------------------------|------------------------|---------------------------------|
E|---------------------------|------------------------|---------------------------------|
C|-0---0---0---7----8----5---|-----7----2----5----3---|-2---0---3---2---0---0---0---0---|


C|---------------------------------|---------------------------------|---------------------------------|
G|---------------------------------|---------------------------------|---------------------------------|
D|---------------------------------|---------------------------------|---------------------------------|
A|---------------------------------|---------------------------------|---------------------------------|
E|---------------------------------|---------------------------------|---------------------------------|
C|-0---0---0---3---2---0---0---0---|-0---0---0---0---0---0---0---3---|-2---0---3---2---0---0---0---0---|


C|---------------------------|------------------------|---------------------------------|
G|---------------------------|------------------------|---------------------------------|
D|---------------------------|------------------------|---------------------------------|
A|---------------------------|------------------------|---------------------------------|
E|---------------------------|------------------------|---------------------------------|
C|-0---0---0---7----8----5---|-----7----2----5----3---|-2---0---3---2---0---0---0---0---|


C|---------------------------------|---------------------------------|---------------------------------|
G|---------------------------------|---------------------------------|---------------------------------|
D|---------------------------------|---------------------------------|---------------------------------|
A|---------------------------------|---------------------------------|---------------------------------|
E|---------------------------------|---------------------------------|---------------------------------|
C|-0---0---0---3---2---0---0---0---|-0---0---0---0---0---0---0---3---|-2---0---3---2---0---0---0---0---|


C|---------------------------|------------------------|---------------------------------|
G|---------------------------|------------------------|---------------------------------|
D|---------------------------|------------------------|---------------------------------|
A|---------------------------|------------------------|---------------------------------|
E|---------------------------|------------------------|---------------------------------|
C|-0---0---0---7----8----5---|-----7----2----5----3---|-2---0---3---2---0---0---0---0---|


C|---------------------------------|---------------------------------|---------------------------------|
G|---------------------------------|---------------------------------|---------------------------------|
D|---------------------------------|---------------------------------|---------------------------------|
A|---------------------------------|---------------------------------|---------------------------------|
E|---------------------------------|---------------------------------|---------------------------------|
C|-0---0---0---3---2---0---0---0---|-0---0---0---0---0---0---0---3---|-2---0---3---2---0---0---0---0---|


C|---------------------------|------------------------|---------------------------------|
G|---------------------------|------------------------|---------------------------------|
D|---------------------------|------------------------|---------------------------------|
A|---------------------------|------------------------|---------------------------------|
E|---------------------------|------------------------|---------------------------------|
C|-0---0---0---7----8----5---|-----7----2----5----3---|-2---0---3---2---0---0---0---0---|


C|---------------------------------|---------------------------------|---------------------------------|
G|---------------------------------|---------------------------------|---------------------------------|
D|---------------------------------|---------------------------------|---------------------------------|
A|---------------------------------|---------------------------------|---------------------------------|
E|---------------------------------|---------------------------------|---------------------------------|
C|-0---0---0---3---2---0---0---0---|-0---0---0---0---0---0---0---3---|-2---0---3---2---0---0---0---0---|


C|---------------------------|------------------------|---------------------------------|
G|---------------------------|------------------------|---------------------------------|
D|---------------------------|------------------------|---------------------------------|
A|---------------------------|------------------------|---------------------------------|
E|---------------------------|------------------------|---------------------------------|
C|-0---0---0---7----8----5---|-----7----2----5----6---|-5---3---6---5---3---3---3---3---|


C|---------------------------------|---------------------------------|---------------------------------|
G|---------------------------------|---------------------------------|---------------------------------|
D|---------------------------------|---------------------------------|---------------------------------|
A|---------------------------------|---------------------------------|---------------------------------|
E|---------------------------------|---------------------------------|---------------------------------|
C|-3---3---3---6---5---3---3---3---|-3---3---3---3---3---3---3---6---|-5---3---6---5---3---3---3---3---|


C|---------------------------|------------------------|---------------------------------|
G|---------------------------|------------------------|---------------------------------|
D|---------------------------|------------------------|---------------------------------|
A|---------------------------|------------------------|---------------------------------|
E|-------------6----7--------|-----6---------4--------|---------------------------------|
C|-3---3---3-------------8---|----------5---------6---|-5---3---6---5---3---3---3---3---|


C|---------------------------------|---------------------------------|---------------------------------|
G|---------------------------------|---------------------------------|---------------------------------|
D|---------------------------------|---------------------------------|---------------------------------|
A|---------------------------------|---------------------------------|---------------------------------|
E|---------------------------------|---------------------------------|---------------------------------|
C|-3---3---3---6---5---3---3---3---|-3---3---3---3---3---3---3---6---|-5---3---6---5---3---3---3---3---|


C|---------------------------|------------------------|---------------------------------|
G|---------------------------|------------------------|---------------------------------|
D|---------------------------|------------------------|-------------------------8---10--|
A|---------------------------|------------------------|---------------------------------|
E|-------------6----7--------|-----6---------4----11--|-10--8---11--10--8---8-----------|
C|-3---3---3-------------8---|----------5-------------|---------------------------------|


C|------------------------------|------------------------|---------------------------------|
G|------------------------------|------------------------|---------------------------------|
D|--------------------------12--|-----13---12---10-------|-------------------------13--15--|
A|----------10--8---------------|--------------------11--|-10--8---11--10--8---------------|
E|-8----8-----------8---8-------|------------------------|---------------------8-----------|
C|------------------------------|------------------------|---------------------------------|


C|------------------------|------------------------|---------------------------------|
G|------------------------|------------------------|---------------------------------|
D|----------8----10-------|-----8------------------|-------------------------12--13--|
A|--------------------11--|----------10---11---10--|---------10----------------------|
E|-8----8-----------------|------------------------|-13--11------13--11--8-----------|
C|------------------------|------------------------|---------------------------------|


C|------------------------------|------------------------|---------------------------------|
G|------------------------------|------------------------|---------------------------------|
D|----------8---6-----------15--|-----17---15---13---10--|---------10--------------17--18--|
A|------------------------------|------------------------|-13--11------13--11--------------|
E|-8----8-----------8---8-------|------------------------|---------------------8-----------|
C|------------------------------|------------------------|---------------------------------|


C|------------------------|------------------------|------------------------|------------------------|
G|------------------------|------------------------|------------------------|------------------------|
D|-15-------12---13---10--|-----12---8----10-------|------------------------|------------------------|
A|------------------------|------------------------|------------------------|------------------------|
E|-----8------------------|------------------------|------------------------|------------------------|
C|------------------------|--------------------3---|-3----3----3---3----3---|-----3----3---3----3----|


C|------------------------|------------------------|---------------------------|------------------------|
G|------------------------|------------------------|---------------------------|------------------------|
D|------------------------|------------------------|---------------------------|------------------------|
A|------------------------|------------------------|---------------------------|------------------------|
E|------------------------|------------------------|---------------------------|------------------------|
C|-3---3----3----3---3----|-3----3---3----3----3---|-----3---3----3----3---3---|-----5----5----6---6----|


C|------------------------|---------------------------|------------------------|------------------------|
G|------------------------|---------------------------|------------------------|------------------------|
D|------------------------|---------------------------|------------------------|------------------------|
A|------------------------|---------------------------|------------------------|------------------------|
E|------------------------|---------------------------|------------------------|------------------------|
C|-6----6---6----6----6---|-----6---6----6----6---6---|-----6----6---6----6----|-6---6----6----6----6---|


C|------------------------|------------------------|------------------------|------------------------|
G|------------------------|------------------------|------------------------|------------------------|
D|------------------------|------------------------|------------------------|------------------------|
A|------------------------|------------------------|------------------------|------------------------|
E|------------------------|------------------------|------------------------|------------------------|
C|-6----6----6---6----6---|-----6----3---3----3----|-3---3----3----3----3---|-3----3----3---3----3---|


C|---------------------------|------------------------|------------------------|---------------------------|
G|---------------------------|------------------------|------------------------|---------------------------|
D|---------------------------|------------------------|------------------------|---------------------------|
A|---------------------------|------------------------|------------------------|---------------------------|
E|---------------------------|------------------------|------------------------|---------------------------|
C|-----3---3----3----3---3---|-----3----3----3---3----|-3----3---3----5----5---|-----6---6----6----6---6---|


C|------------------------|------------------------|------------------------|------------------------|
G|------------------------|------------------------|------------------------|------------------------|
D|------------------------|------------------------|------------------------|------------------------|
A|------------------------|------------------------|------------------------|------------------------|
E|------------------------|------------------------|------------------------|------------------------|
C|-----6----6----6---6----|-6----6---6----6----6---|-6----6----6---6----6---|-----6----6---6----6----|


C|------------------------|------------------------|---------------------------|------------------------|
G|------------------------|------------------------|---------------------------|------------------------|
D|------------------------|------------------------|---------------------------|------------------------|
A|------------------------|------------------------|----------2----2---3---3---|------------------------|
E|------------------------|------------------------|---------------------------|-----1----2-------------|
C|-6---6----6----6----3---|-3----3----3---3----3---|-----3---------------------|---------------3---3----|


C|------------------------|---------------------------|------------------------|------------------------|
G|------------------------|---------------------------|------------------------|------------------------|
D|------------------------|---------------------------|------------------------|------------------------|
A|------------------------|-----2----2---3---3--------|------------------------|------------------------|
E|------------------------|-----------------------1---|-----2----4-------------|------------------------|
C|-3----3---3----3----3---|---------------------------|---------------6---6----|-6----6---6----6----6---|


C|---------------------------|------------------------|------------------------|---------------------------|
G|---------------------------|------------------------|------------------------|---------------------------|
D|---------------------------|------------------------|------------------------|---------------------------|
A|-----5----5---6---6--------|------------------------|--------------------5---|-----5---6---6-------------|
E|-----------------------5---|-----6------------------|------------------------|------------------5----6---|
C|---------------------------|----------6---6----6----|-6---6----6----6--------|---------------------------|


C|------------------------|------------------------|---------------------------|---------------------------|
G|------------------------|------------------------|---------------------------|---------------------------|
D|------------------------|------------------------|---------------------------|---------------------------|
A|------------------------|--------------------2---|-----2---3---3-------------|---------------------------|
E|-----4------------------|------------------------|------------------1----2---|---------------------------|
C|----------3---3----3----|-3---3----3----3--------|---------------------------|-----3---3----3----3---3---|


C|------------------------|------------------------|---------------------------|------------------------|
G|------------------------|------------------------|---------------------------|------------------------|
D|------------------------|------------------------|---------------------------|------------------------|
A|---------------2----2---|-3---3------------------|---------------------------|---------------5----5---|
E|------------------------|----------1----2----4---|---------------------------|------------------------|
C|-----3----3-------------|------------------------|-----6---6----6----6---6---|-----6----6-------------|


C|------------------------|------------------------|---------------------------|------------------------|
G|------------------------|------------------------|---------------------------|------------------------|
D|------------------------|------------------------|---------------------------|------------------------|
A|-6---6------------------|------------------------|----------5----5---6---6---|------------------------|
E|----------5----6--------|------------------------|---------------------------|-----5----6----4----5---|
C|--------------------6---|-6----6----6---6----6---|-----6---------------------|------------------------|


C|------------------------|------------------------|------------------------|------------------------|
G|------------------------|------------------------|------------------------|------------------------|
D|------------------------|------------------------|------------------------|------------------------|
A|------------------------|------------------------|------------------------|------------------------|
E|-5----5----5---5----5---|-----5----5---5----5----|-5---5----5----5---5----|-5----5---5----5----5---|
C|------------------------|------------------------|------------------------|------------------------|


C|---------------------------|------------------------|------------------------|---------------------------|
G|---------------------------|------------------------|------------------------|---------------------------|
D|---------------------------|------------------------|------------------------|---------------------------|
A|---------------------------|------------------------|------------------------|---------------------------|
E|-----5---5----5----5---5---|-----5----5----8---8----|-8----8---8----8----8---|-----8---8----8----8---8---|
C|---------------------------|------------------------|------------------------|---------------------------|


C|------------------------|------------------------|------------------------|------------------------|
G|------------------------|------------------------|------------------------|------------------------|
D|------------------------|------------------------|------------------------|------------------------|
A|------------------------|------------------------|------------------------|------------------------|
E|-----8----8---8----8----|-8---8----8----8----8---|-8----8----8---8----8---|-----8------------------|
C|------------------------|------------------------|------------------------|----------3---3----3----|


C|------------------------|------------------------|---------------------------|------------------------|
G|------------------------|------------------------|---------------------------|------------------------|
D|------------------------|------------------------|---------------------------|------------------------|
A|------------------------|------------------------|---------------------------|------------------------|
E|------------------------|------------------------|---------------------------|------------------------|
C|-3---3----3----3----3---|-3----3----3---3----3---|-----3---3----3----3---3---|-----3----3----3---3----|


C|------------------------|---------------------------|------------------------|------------------------|
G|------------------------|---------------------------|------------------------|------------------------|
D|------------------------|---------------------------|------------------------|------------------------|
A|------------------------|---------------------------|------------------------|------------------------|
E|------------------------|---------------------------|------------------------|------------------------|
C|-3----3---3----3----3---|-----6---6----6----6---6---|-----6----6----6---6----|-6----6---6----6----6---|


C|------------------------|------------------------|------------------------|---------------------------------|
G|------------------------|------------------------|------------------------|---------------------------------|
D|------------------------|------------------------|------------------------|---------------------------------|
A|------------------------|------------------------|------------------------|---------------------------------|
E|------------------------|------------------------|--------------------5---|-4---5---7---5---7---8---10--11--|
C|-6----6----6---6----6---|-----6----6---6----6----|-6---6----6----6--------|---------------------------------|


C|---------------------------------|---------------------------------|---------------------------------|
G|---------------------------------|---------7---8---10--------------|---------------------------------|
D|-------------7---6---7---9---7---|-9---10--------------------------|---------------------------------|
A|-8---9---11----------------------|---------------------------------|-------------------------8---9---|
E|---------------------------------|---------------------5---4---5---|-7---5---7---8---10--11----------|
C|---------------------------------|---------------------------------|---------------------------------|


C|---------------------------------|-------------6---8---------------|---------------------------------|
G|---------------------------------|-7---8---10----------------------|---------------------------------|
D|-----7---6---7---9---7---9---10--|---------------------------------|---------------------------------|
A|-11------------------------------|---------------------------------|-------------------------9---10--|
E|---------------------------------|---------------------6---5---6---|-8---6---8---9---11--12----------|
C|---------------------------------|---------------------------------|---------------------------------|


C|---------------------------------|-------------7---9------------|------------------------|
G|---------------------------------|-8---9---11-------------------|------------------------|
D|-----8---7---8---10--8---10--11--|------------------------------|------------------------|
A|-12------------------------------|------------------------------|------------------------|
E|---------------------------------|---------------------7----7---|-----7----7----7----7---|
C|---------------------------------|------------------------------|------------------------|


C|------------------------|---------------------------|---------------------------------|
G|------------------------|---------------------------|---------------------------------|
D|------------------------|---------------------------|---------------------------------|
A|------------------------|---------------------------|---------------------------------|
E|------------------------|---------------------------|---------------------------------|
C|-----7----7----7----7---|-----7----7----0-------0---|-----0-------0-------0-------0---|


C|---------------------------------|---------------------------------|---------------------------------|
G|---------------------------------|---------------------------------|---------------------------------|
D|---------------------------------|---------------------------------|---------------------------------|
A|---------------------------------|---------------------------------|---------------------------------|
E|---------------------------------|---------------------------------|---------------------------------|
C|-----6---6---6---6---0-------0---|-----0-------0-------0-------0---|-----3---3---3---3---0-------0---|


C|---------------------------------|---------------------------------|---------------------------------|
G|---------------------------------|---------------------------------|---------------------------------|
D|---------------------------------|---------------------------------|---------------------------------|
A|---------------------------------|---------------------------------|---------------------------------|
E|---------------------------------|-----4---4---4---4---------------|---------------------------------|
C|-----0-------0-------0-------0---|---------------------0-------0---|-----0-------0-------0-------0---|


C|---------------------------------|---------------------------------|---------------------------------|
G|---------------------------------|---------------------------------|---------------------------------|
D|---------------------------------|---------------------------------|---------------------------------|
A|---------------------------------|---------------------------------|---------------------------------|
E|-----6---6---6---6---------------|---------------------------------|---------------------------------|
C|---------------------0-------0---|-----0-------0-------0-------0---|-----6---6---6---6---0-------0---|


C|---------------------------------|---------------------------------|---------------------------------|
G|---------------------------------|---------------------------------|---------------------------------|
D|---------------------------------|---------------------------------|---------------------------------|
A|---------------------------------|---------------------------------|---------------------------------|
E|---------------------------------|---------------------------------|---------------------------------|
C|-----0-------0-------0-------0---|-----3---3---3---3---0-------0---|-----0-------0-------0-------0---|


C|---------------------------------|---------------------------------|------------------------------|
G|---------------------------------|---------------------------------|------------------------------|
D|---------------------------------|---------------------------------|------------------------------|
A|---------------------------------|---------------------------------|------------------------------|
E|-----4---4---4---4---------------|---------------------------------|-----6---6---6----------------|
C|---------------------0-------0---|-----0-------0-------0-------0---|-----------------0---0----0---|


C|------------------------|------------------------------|------------------------|
G|------------------------|------------------------------|------------------------|
D|------------------------|------------------------------|------------------------|
A|------------------------|------------------------------|------------------------|
E|------------------------|------------------------------|------------------------|
C|-----0----0----0----0---|-2---3---3---3---0---0----0---|-----0----0----0----0---|


C|------------------------------|------------------------|------------------------------|
G|------------------------------|------------------------|------------------------------|
D|------------------------------|------------------------|------------------------------|
A|------------------------------|------------------------|------------------------------|
E|------------------------------|------------------------|------------------------------|
C|-3---6---6---6---0---0----0---|-----0----0----0----0---|-2---3---3---3---0---0----0---|


C|---------------------------|---------------------------|------------------------|
G|---------------------------|---------------------------|------------------------|
D|---------------------------|---------------------------|------------------------|
A|----------10--13--10-------|-10------------------------|------------------------|
E|-----------------------11--|-----11--9-----------------|------------------------|
C|-----0---------------------|--------------0---0----0---|-----0----0----0----0---|


C|------------------------------|------------------------|------------------------------|
G|------------------------------|------------------------|------------------------------|
D|------------------------------|------------------------|------------------------------|
A|------------------------------|------------------------|------------------------------|
E|------------------------------|------------------------|------------------------------|
C|-2---3---3---3---0---0----0---|-----0----0----0----0---|-3---6---6---6---0---0----0---|


C|------------------------|------------------------------|---------------------------|
G|------------------------|------------------------------|---------------------------|
D|------------------------|------------------------------|---------------------------|
A|------------------------|------------------------------|----------10--13--10-------|
E|------------------------|------------------------------|-----------------------11--|
C|-----0----0----0----0---|-2---3---3---3---0---0----0---|-----0---------------------|


C|------------------------|------------------------------|---------------------------|
G|------------------------|------------------------------|---------------------------|
D|------------------------|-----6----------------8---6---|-5---------------------6---|
A|-10---------------------|-6-------6--------6-----------|-----6-------------6-------|
E|-----11--9----4----4----|-------------4----------------|---------4----4------------|
C|------------------------|------------------------------|---------------------------|


C|---------------------------|---------------------|---------------------------|---------------------|
G|---------------------------|---------------------|---------------------------|---------------------|
D|---------------------------|---------------------|---------------------------|---------------------|
A|-6-------------------------|---------------------|---------------------------|---------------------|
E|-----4---4---4---4----6----|---------------------|---------------------------|---------------------|
C|---------------------------|------0----0----0----|-----0---0---0----0---0----|-0----0----0-----0---|


C|--------------------|---------------------------|------------------------------|
G|--------------------|---------------------------|------------------------------|
D|--------------------|---------------6-----------|---------8---6---5------------|
A|--------------------|-----------6-------6-------|-----6---------------6--------|
E|--------------------|-4----4----------------4---|-------------------------4----|
C|-0---0----0---0-----|---------------------------|------------------------------|


C|------------------------------|-----------------|---------------------------|---------------------------------------|
G|------------------------------|-----------------|---------------------------|---------------------------------------|
D|----------6-------------------|-----------------|-----------------------6---|-6----6---3----------------------------|
A|------6-------6---------------|------------6----|-6---8---8----5----5-------|--------------5---1--------------------|
E|-4----------------4---4---4---|-4----6----------|---------------------------|----------------------4---1------------|
C|------------------------------|-----------------|---------------------------|------------------------------3---1----|


C|------------------------|------------------------------|---------------------------|
G|------------------------|------------------------------|---------------------------|
D|------------------------|------------------------------|---------------------------|
A|------------------------|------------------------------|---------------------------|
E|------------------------|------------------------------|---------------------------|
C|-1----0---7----0---6----|-0---3---2---0---5---5----2---|-----3---0---7----0---6----|


C|------------------------------|---------------------------|------------------------------|
G|------------------------------|---------------------------|------------------------------|
D|------------------------------|---------------------------|------------------------------|
A|------------------------------|---------------------------|------------------------------|
E|-----------------4------------|---------------------------|------------------------------|
C|-0---3---2---0--------2---3---|-2---3---0---7----0---6----|-0---3---2---0---5---5----2---|


C|---------------------------|------------------------------|---------------------------|
G|---------------------------|------------------------------|---------------------------|
D|---------------------------|------------------------------|---------------------------|
A|---------------------------|------------------------------|---------------------------|
E|---------------------------|-----------------4------------|---------------------------|
C|-----3---0---7----0---6----|-0---3---2---0--------2---3---|-2---3---0---7----0---6----|


C|------------------------------|---------------------------|------------------------------|
G|------------------------------|---------------------------|------------------------------|
D|------------------------------|---------------------------|------------------------------|
A|------------------------------|---------------------------|------------------------------|
E|------------------------------|---------------------------|-----------------4------------|
C|-0---3---2---0---5---5----2---|-----3---0---7----0---6----|-0---3---2---0--------2---3---|


C|---------------------------|------------------------------|---------------------------|
G|---------------------------|------------------------------|---------------------------|
D|---------------------------|------------------------------|---------------------------|
A|---------------------------|------------------------------|---------------------------|
E|---------------------------|------------------------------|---------------------------|
C|-2---3---0---7----0---6----|-0---3---2---0---5---5----2---|-----3---0---7----0---6----|


C|------------------------------|---------------------------|---------------------------|
G|------------------------------|---------------------------|---------------------------|
D|------------------------------|---------------------------|---------------------------|
A|------------------------------|---------------------------|---------------------------|
E|-----------------4------------|---------------------------|---------------------------|
C|-0---3---2---0--------2---3---|-2---3---0---0----0----0---|-----0----0----0---2---3---|


C|---------------------------|---------------------------|---------------------------|
G|---------------------------|---------------------------|---------------------------|
D|---------------------------|---------------------------|---------------------------|
A|---------------------------|---------------------------|---------------------------|
E|---------------------------|---------------------------|---------------------------|
C|-3---3---0---0----0----0---|-----0----0----0---3---6---|-6---6---0---0----0----0---|


C|---------------------------|---------------------------|------------------------------|
G|---------------------------|---------------------------|------------------------------|
D|---------------------------|---------------------------|------------------------------|
A|---------------------------|---------------------------|-----10--13--10-------10------|
E|---------------------------|---------------------------|------------------11------11--|
C|-----0----0----0---2---3---|-3---3---0---0----0----0---|------------------------------|


C|------------------------|---------------------------|---------------------------|
G|------------------------|---------------------------|---------------------------|
D|------------------------|---------------------------|---------------------------|
A|------------------------|---------------------------|---------------------------|
E|-9----------------------|---------------------------|---------------------------|
C|------0---0----0----0---|-----0----0----0---2---3---|-3---3---0---0----0----0---|


C|---------------------------|---------------------------|---------------------------|
G|---------------------------|---------------------------|---------------------------|
D|---------------------------|---------------------------|---------------------------|
A|---------------------------|---------------------------|---------------------------|
E|---------------------------|---------------------------|---------------------------|
C|-----0----0----0---3---6---|-6---6---0---0----0----0---|-----0----0----0---2---3---|


C|---------------------------|------------------------------|------------------------|
G|---------------------------|------------------------------|------------------------|
D|---------------------------|------------------------------|------------------------|
A|---------------------------|-----10--13--10-------10------|------------------------|
E|---------------------------|------------------11------11--|-9----------------------|
C|-3---3---0---0----0----0---|------------------------------|------0---0----0----0---|


C|---------------------------|---------------------------|---------------------------|
G|---------------------------|---------------------------|---------------------------|
D|---------------------------|---------------------------|---------------------------|
A|---------------------------|---------------------------|---------------------------|
E|---------------------------|---------------------------|---------------------------|
C|-----0----0----0---2---3---|-3---3---0---0----0----0---|-----0----0----0---3---6---|


C|---------------------------|---------------------------|---------------------------|
G|---------------------------|---------------------------|---------------------------|
D|---------------------------|---------------------------|---------------------------|
A|---------------------------|---------------------------|---------------------------|
E|---------------------------|---------------------------|---------------------------|
C|-6---6---0---0----0----0---|-----0----0----0---2---3---|-3---3---0---0----0----0---|


C|------------------------------|------------------------|---------------------------|
G|------------------------------|------------------------|---------------------------|
D|------------------------------|------------------------|---------------------------|
A|-----10--13--10-------10------|------------------------|---------------------------|
E|------------------11------11--|-9----------------------|---------------------------|
C|------------------------------|------0---0----0----0---|-----0----0----0---2---3---|


C|---------------------------|---------------------------|---------------------------|
G|---------------------------|---------------------------|---------------------------|
D|---------------------------|---------------------------|---------------------------|
A|---------------------------|---------------------------|---------------------------|
E|---------------------------|---------------------------|---------------------------|
C|-3---3---0---0----0----0---|-----0----0----0---3---6---|-6---6---0---0----0----0---|


C|---------------------------|---------------------------|------------------------------|
G|---------------------------|---------------------------|------------------------------|
D|---------------------------|---------------------------|------------------------------|
A|---------------------------|---------------------------|-----10--13--10-------10------|
E|---------------------------|---------------------------|------------------11------11--|
C|-----0----0----0---2---3---|-3---3---0---0----0----0---|------------------------------|


C|-----------------|
G|-----------------|
D|-----------------|
A|-----------------|
E|-9----9----------|
C|-----------------|