Menu:

 

Search:

 

dream theater - home:

 



Title: Home
Artist: 
Album: Metropolis Part II: Scenes From A Memory
Author: John Petrucci, John Myung, Mike Portnoy and Jordan Rudess


Track 1: Acoustic Guitar (John Petrucci)

E|---------------------------------|---------------------------------|---------------------------------|
B|---------------------------------|---------------------------------|---------------------------------|
G|---------------------------------|---------------------------------|---------------------------------|
D|-0-------0-------0-------0-------|-0-------0-------0-------0-------|-0-------0-------0-------0-------|
A|---------------------------------|---------------------------------|---------------------------------|
D|-----0-------0-------0-------0---|-0---0-------0-------0-------0---|-0---0-------0-------0-------0---|


E|---------------------------------|---------------------------------|---------------------------------|
B|---------------------------------|---------------------------------|---------------------------------|
G|---------------------------------|---------------------------------|---------------------------------|
D|-0-------0-------0-------0-------|-0-------0-------0-------0-------|-3-------3-------3-------3-------|
A|---------------------------------|---------------------------------|---------------------------------|
D|-0---0-------0-------0-------0---|-0---0-------0-------0-------0---|-0---0-------0-------0-------0---|


E|---------------------------------|---------------------------------|---------------------------------|
B|---------------------------------|---------------------------------|---------------------------------|
G|---------------------------------|---------------------------------|---------------------------------|
D|-2-------2-------2-------2-------|-5-------5-------5-------5-------|-3-------3-------3-------3-------|
A|---------------------------------|---------------------------------|---------------------------------|
D|-0---0-------0-------0-------0---|-0---0-------0-------0-------0---|-0---0-------0-------0-------0---|


E|---------------------------------|---------------------------------|---------------------------------|
B|---------------------------------|---------------------------------|---------------------------------|
G|---------------------------------|---------------------------------|---------------------------------|
D|-7-------7-------7-------7-------|-5-------5-------5-------5-------|-8-------8-------8-------8-------|
A|---------------------------------|---------------------------------|---------------------------------|
D|-0---0-------0-------0-------0---|-0---0-------0-------0-------0---|-0---0-------0-------0-------0---|


E|---------------------------------|-0------|-------------------------------------|
B|---------------------------------|-10-----|-------------------------------------|
G|---------------------------------|-9------|----------------7--7-------7--8--7---|
D|-7-------7-------7-------7-------|-0------|---------0---------------------------|
A|---------------------------------|-0------|-----0-------------------------------|
D|-0---0-------0-------0-------0---|-0------|-0-----------0-----0---0-------------|


E|-----------------------------------|-----------------------------------|---------------------------------------|
B|-----------------------------------|-----------------------------------|---------------------------------------|
G|----------------3--3---2---2--0----|-----------------------------------|----------------7--7---------7--8--7---|
D|---------0-------------------------|-4-------0------------------0------|---------0------------0----------------|
A|-----0-----------------------------|-----0---0-------------------------|-----0---------------------------------|
D|-0-----------0-----0---------------|--------------0--0----3--5-----1---|-0-----------0-----0-----0-------------|


E|-----------------------------------|-----------------------------------|-----------------------------------|
B|-----------------------------------|-----------------------------------|-----------------------------------|
G|----------------5--5---------------|----------------3--3---2---2--0----|-----------------------------------|
D|---------0-----------------0-------|---------0-------------------------|-4-------0------------------0------|
A|-----0-----------------0-------0---|-----0-----------------------------|-----0---0-------------------------|
D|-0-----------0-----0---------------|-0-----------0-----0---------------|--------------0--0----3--5-----1---|


E|---------------------------------------|---------------------------------------|
B|---------------------------------------|---------------------------------------|
G|----------------7--7---------7--8--7---|----------------7--7---------7--8--7---|
D|---------0------------0----------------|---------0------------0----------------|
A|-----0---------------------------------|-----0---------------------------------|
D|-0-----------0-----0-----0-------------|-0-----------0-----0-----0-------------|


E|---------------------------------------|---------------------------------------|
B|---------------------------------------|---------------------------------------|
G|----------------7--7---------7--8--7---|----------------7--7---------7--8--7---|
D|---------0------------0----------------|---------0------------0----------------|
A|-----0---------------------------------|-----0---------------------------------|
D|-0-----------0-----0-----0-------------|-0-----------0-----0-----0-------------|


E|---------------------------------------|---------------------------------------|
B|---------------------------------------|---------------------------------------|
G|----------------7--7---------7--8--7---|----------------7--7---------7--8--7---|
D|---------0------------0----------------|---------0------------0----------------|
A|-----0---------------------------------|-----0---------------------------------|
D|-0-----------0-----0-----0-------------|-0-----------0-----0-----0-------------|


E|---------------------------------------|---------------------------------------|
B|---------------------------------------|---------------------------------------|
G|----------------7--7---------7--8--7---|----------------7--7-----11-12-11------|
D|---------0------------0----------------|---------0------------0------------12--|
A|-----0---------------------------------|-----0---------------------------------|
D|-0-----------0-----0-----0-------------|-0-----------0-----0-----0-------------|


E|---------------------------------------|---------------------------------------|
B|---------------------------------------|---------------------------------------|
G|----------------7--7---------7--8--7---|----------------7--7---------7--8--7---|
D|---------0------------0----------------|---------0------------0----------------|
A|-----0---------------------------------|-----0---------------------------------|
D|-0-----------0-----0-----0-------------|-0-----------0-----0-----0-------------|


E|---------------------------------------|---------------------------------------|
B|---------------------------------------|---------------------------------------|
G|----------------7--7---------7--8--7---|----------------7--7---------7--8--7---|
D|---------0------------0----------------|---------0------------0----------------|
A|-----0---------------------------------|-----0---------------------------------|
D|-0-----------0-----0-----0-------------|-0-----------0-----0-----0-------------|


E|---------------------------------------|---------------------------------------|
B|---------------------------------------|---------------------------------------|
G|----------------7--7---------7--8--7---|----------------7--7---------7--8--7---|
D|---------0------------0----------------|---------0------------0----------------|
A|-----0---------------------------------|-----0---------------------------------|
D|-0-----------0-----0-----0-------------|-0-----------0-----0-----0-------------|


E|---------------------------------------|---------------------------------------|
B|---------------------------------------|---------------------------------------|
G|----------------7--7---------7--8--7---|----------------7--7-----11-12-11------|
D|---------0------------0----------------|---------0------------0------------12--|
A|-----0---------------------------------|-----0---------------------------------|
D|-0-----------0-----0-----0-------------|-0-----------0-----0-----0-------------|


E|--------|--------|--------|--------|--------|--------|--------|--------|--------|
B|--------|--------|--------|--------|--------|--------|--------|--------|--------|
G|--------|--------|--------|--------|--------|--------|--------|--------|--------|
D|--------|--------|--------|--------|--------|--------|--------|--------|--------|
A|--------|--------|--------|--------|--------|--------|--------|--------|--------|
D|--------|--------|--------|--------|--------|--------|--------|--------|--------|


E|--------|--------|--------|--------|--------|--------|--------|--------|--------|
B|--------|--------|--------|--------|--------|--------|--------|--------|--------|
G|--------|--------|--------|--------|--------|--------|--------|--------|--------|
D|--------|--------|--------|--------|--------|--------|--------|--------|--------|
A|--------|--------|--------|--------|--------|--------|--------|--------|--------|
D|--------|--------|--------|--------|--------|--------|--------|--------|--------|


E|--------|--------|--------|--------|--------|--------|--------|--------|--------|
B|--------|--------|--------|--------|--------|--------|--------|--------|--------|
G|--------|--------|--------|--------|--------|--------|--------|--------|--------|
D|--------|--------|--------|--------|--------|--------|--------|--------|--------|
A|--------|--------|--------|--------|--------|--------|--------|--------|--------|
D|--------|--------|--------|--------|--------|--------|--------|--------|--------|


E|--------|--------|--------|--------|--------|--------|--------|--------|--------|
B|--------|--------|--------|--------|--------|--------|--------|--------|--------|
G|--------|--------|--------|--------|--------|--------|--------|--------|--------|
D|--------|--------|--------|--------|--------|--------|--------|--------|--------|
A|--------|--------|--------|--------|--------|--------|--------|--------|--------|
D|--------|--------|--------|--------|--------|--------|--------|--------|--------|


E|--------|--------|--------|--------|--------|--------|--------|--------|--------|
B|--------|--------|--------|--------|--------|--------|--------|--------|--------|
G|--------|--------|--------|--------|--------|--------|--------|--------|--------|
D|--------|--------|--------|--------|--------|--------|--------|--------|--------|
A|--------|--------|--------|--------|--------|--------|--------|--------|--------|
D|--------|--------|--------|--------|--------|--------|--------|--------|--------|


E|--------|--------|--------|--------|--------|--------|--------|--------|--------|
B|--------|--------|--------|--------|--------|--------|--------|--------|--------|
G|--------|--------|--------|--------|--------|--------|--------|--------|--------|
D|--------|--------|--------|--------|--------|--------|--------|--------|--------|
A|--------|--------|--------|--------|--------|--------|--------|--------|--------|
D|--------|--------|--------|--------|--------|--------|--------|--------|--------|


E|--------|--------|--------|--------|--------|--------|--------|--------|--------|
B|--------|--------|--------|--------|--------|--------|--------|--------|--------|
G|--------|--------|--------|--------|--------|--------|--------|--------|--------|
D|--------|--------|--------|--------|--------|--------|--------|--------|--------|
A|--------|--------|--------|--------|--------|--------|--------|--------|--------|
D|--------|--------|--------|--------|--------|--------|--------|--------|--------|


E|--------|--------|--------|--------|--------|--------|--------|--------|--------|
B|--------|--------|--------|--------|--------|--------|--------|--------|--------|
G|--------|--------|--------|--------|--------|--------|--------|--------|--------|
D|--------|--------|--------|--------|--------|--------|--------|--------|--------|
A|--------|--------|--------|--------|--------|--------|--------|--------|--------|
D|--------|--------|--------|--------|--------|--------|--------|--------|--------|


E|--------|--------|--------|--------|--------|--------|--------|--------|--------|
B|--------|--------|--------|--------|--------|--------|--------|--------|--------|
G|--------|--------|--------|--------|--------|--------|--------|--------|--------|
D|--------|--------|--------|--------|--------|--------|--------|--------|--------|
A|--------|--------|--------|--------|--------|--------|--------|--------|--------|
D|--------|--------|--------|--------|--------|--------|--------|--------|--------|


E|--------|--------|--------|--------|--------|--------|--------|--------|--------|
B|--------|--------|--------|--------|--------|--------|--------|--------|--------|
G|--------|--------|--------|--------|--------|--------|--------|--------|--------|
D|--------|--------|--------|--------|--------|--------|--------|--------|--------|
A|--------|--------|--------|--------|--------|--------|--------|--------|--------|
D|--------|--------|--------|--------|--------|--------|--------|--------|--------|


E|--------|--------|--------|--------|--------|--------|--------|--------|--------|
B|--------|--------|--------|--------|--------|--------|--------|--------|--------|
G|--------|--------|--------|--------|--------|--------|--------|--------|--------|
D|--------|--------|--------|--------|--------|--------|--------|--------|--------|
A|--------|--------|--------|--------|--------|--------|--------|--------|--------|
D|--------|--------|--------|--------|--------|--------|--------|--------|--------|


E|--------|--------|--------|--------|--------|--------|--------|--------|--------|
B|--------|--------|--------|--------|--------|--------|--------|--------|--------|
G|--------|--------|--------|--------|--------|--------|--------|--------|--------|
D|--------|--------|--------|--------|--------|--------|--------|--------|--------|
A|--------|--------|--------|--------|--------|--------|--------|--------|--------|
D|--------|--------|--------|--------|--------|--------|--------|--------|--------|


E|--------|--------|--------|--------|--------|--------|--------|--------|--------|
B|--------|--------|--------|--------|--------|--------|--------|--------|--------|
G|--------|--------|--------|--------|--------|--------|--------|--------|--------|
D|--------|--------|--------|--------|--------|--------|--------|--------|--------|
A|--------|--------|--------|--------|--------|--------|--------|--------|--------|
D|--------|--------|--------|--------|--------|--------|--------|--------|--------|


E|--------|--------|--------|--------|--------|--------|--------|--------|--------|
B|--------|--------|--------|--------|--------|--------|--------|--------|--------|
G|--------|--------|--------|--------|--------|--------|--------|--------|--------|
D|--------|--------|--------|--------|--------|--------|--------|--------|--------|
A|--------|--------|--------|--------|--------|--------|--------|--------|--------|
D|--------|--------|--------|--------|--------|--------|--------|--------|--------|


E|--------|--------|--------|--------|--------|--------|--------|--------|--------|
B|--------|--------|--------|--------|--------|--------|--------|--------|--------|
G|--------|--------|--------|--------|--------|--------|--------|--------|--------|
D|--------|--------|--------|--------|--------|--------|--------|--------|--------|
A|--------|--------|--------|--------|--------|--------|--------|--------|--------|
D|--------|--------|--------|--------|--------|--------|--------|--------|--------|


E|--------|--------|--------|--------|--------|--------|--------|--------|--------|
B|--------|--------|--------|--------|--------|--------|--------|--------|--------|
G|--------|--------|--------|--------|--------|--------|--------|--------|--------|
D|--------|--------|--------|--------|--------|--------|--------|--------|--------|
A|--------|--------|--------|--------|--------|--------|--------|--------|--------|
D|--------|--------|--------|--------|--------|--------|--------|--------|--------|


E|--------|--------|--------|--------|--------|--------|--------|--------|--------|
B|--------|--------|--------|--------|--------|--------|--------|--------|--------|
G|--------|--------|--------|--------|--------|--------|--------|--------|--------|
D|--------|--------|--------|--------|--------|--------|--------|--------|--------|
A|--------|--------|--------|--------|--------|--------|--------|--------|--------|
D|--------|--------|--------|--------|--------|--------|--------|--------|--------|


E|--------|--------|--------|--------|--------|--------|--------|--------|--------|
B|--------|--------|--------|--------|--------|--------|--------|--------|--------|
G|--------|--------|--------|--------|--------|--------|--------|--------|--------|
D|--------|--------|--------|--------|--------|--------|--------|--------|--------|
A|--------|--------|--------|--------|--------|--------|--------|--------|--------|
D|--------|--------|--------|--------|--------|--------|--------|--------|--------|


E|--------|--------|--------|--------|--------|--------|--------|--------|--------|
B|--------|--------|--------|--------|--------|--------|--------|--------|--------|
G|--------|--------|--------|--------|--------|--------|--------|--------|--------|
D|--------|--------|--------|--------|--------|--------|--------|--------|--------|
A|--------|--------|--------|--------|--------|--------|--------|--------|--------|
D|--------|--------|--------|--------|--------|--------|--------|--------|--------|


E|--------|--------|--------|--------|--------|--------|--------|--------|--------|
B|--------|--------|--------|--------|--------|--------|--------|--------|--------|
G|--------|--------|--------|--------|--------|--------|--------|--------|--------|
D|--------|--------|--------|--------|--------|--------|--------|--------|--------|
A|--------|--------|--------|--------|--------|--------|--------|--------|--------|
D|--------|--------|--------|--------|--------|--------|--------|--------|--------|


E|--------|--------|--------|--------|--------|--------|--------|--------|--------|
B|--------|--------|--------|--------|--------|--------|--------|--------|--------|
G|--------|--------|--------|--------|--------|--------|--------|--------|--------|
D|--------|--------|--------|--------|--------|--------|--------|--------|--------|
A|--------|--------|--------|--------|--------|--------|--------|--------|--------|
D|--------|--------|--------|--------|--------|--------|--------|--------|--------|


E|--------|--------|--------|--------|--------|--------|--------|--------|--------|
B|--------|--------|--------|--------|--------|--------|--------|--------|--------|
G|--------|--------|--------|--------|--------|--------|--------|--------|--------|
D|--------|--------|--------|--------|--------|--------|--------|--------|--------|
A|--------|--------|--------|--------|--------|--------|--------|--------|--------|
D|--------|--------|--------|--------|--------|--------|--------|--------|--------|


E|--------|--------|--------|--------|--------|--------|--------|--------|--------|
B|--------|--------|--------|--------|--------|--------|--------|--------|--------|
G|--------|--------|--------|--------|--------|--------|--------|--------|--------|
D|--------|--------|--------|--------|--------|--------|--------|--------|--------|
A|--------|--------|--------|--------|--------|--------|--------|--------|--------|
D|--------|--------|--------|--------|--------|--------|--------|--------|--------|


E|--------|--------|--------|--------|--------|--------|--------|--------|--------|
B|--------|--------|--------|--------|--------|--------|--------|--------|--------|
G|--------|--------|--------|--------|--------|--------|--------|--------|--------|
D|--------|--------|--------|--------|--------|--------|--------|--------|--------|
A|--------|--------|--------|--------|--------|--------|--------|--------|--------|
D|--------|--------|--------|--------|--------|--------|--------|--------|--------|


E|--------|--------|--------|--------|--------|--------|--------|--------|--------|
B|--------|--------|--------|--------|--------|--------|--------|--------|--------|
G|--------|--------|--------|--------|--------|--------|--------|--------|--------|
D|--------|--------|--------|--------|--------|--------|--------|--------|--------|
A|--------|--------|--------|--------|--------|--------|--------|--------|--------|
D|--------|--------|--------|--------|--------|--------|--------|--------|--------|


E|--------|--------|--------|--------|--------|--------|--------|--------|--------|
B|--------|--------|--------|--------|--------|--------|--------|--------|--------|
G|--------|--------|--------|--------|--------|--------|--------|--------|--------|
D|--------|--------|--------|--------|--------|--------|--------|--------|--------|
A|--------|--------|--------|--------|--------|--------|--------|--------|--------|
D|--------|--------|--------|--------|--------|--------|--------|--------|--------|


E|--------|--------|--------|--------|--------|--------|--------|--------|--------|
B|--------|--------|--------|--------|--------|--------|--------|--------|--------|
G|--------|--------|--------|--------|--------|--------|--------|--------|--------|
D|--------|--------|--------|--------|--------|--------|--------|--------|--------|
A|--------|--------|--------|--------|--------|--------|--------|--------|--------|
D|--------|--------|--------|--------|--------|--------|--------|--------|--------|


E|--------|--------|--------|--------|--------|--------|--------|--------|--------|
B|--------|--------|--------|--------|--------|--------|--------|--------|--------|
G|--------|--------|--------|--------|--------|--------|--------|--------|--------|
D|--------|--------|--------|--------|--------|--------|--------|--------|--------|
A|--------|--------|--------|--------|--------|--------|--------|--------|--------|
D|--------|--------|--------|--------|--------|--------|--------|--------|--------|


E|--------|--------|--------|--------|--------|--------|--------|--------|--------|
B|--------|--------|--------|--------|--------|--------|--------|--------|--------|
G|--------|--------|--------|--------|--------|--------|--------|--------|--------|
D|--------|--------|--------|--------|--------|--------|--------|--------|--------|
A|--------|--------|--------|--------|--------|--------|--------|--------|--------|
D|--------|--------|--------|--------|--------|--------|--------|--------|--------|


E|--------|--------|--------|--------|--------|
B|--------|--------|--------|--------|--------|
G|--------|--------|--------|--------|--------|
D|--------|--------|--------|--------|--------|
A|--------|--------|--------|--------|--------|
D|--------|--------|--------|--------|--------|





Track 2: Acoustic Guitar (John Petrucci)

E|--------|--------|--------|--------|--------|--------|--------|--------|--------|
B|--------|--------|--------|--------|--------|--------|--------|--------|--------|
G|--------|--------|--------|--------|--------|--------|--------|--------|--------|
D|--------|--------|--------|--------|--------|--------|--------|--------|--------|
A|--------|--------|--------|--------|--------|--------|--------|--------|--------|
D|--------|--------|--------|--------|--------|--------|--------|--------|--------|


E|--------|--------|--------|--------|--------|--------|--------|--------|--------|
B|--------|--------|--------|--------|--------|--------|--------|--------|--------|
G|--------|--------|--------|--------|--------|--------|--------|--------|--------|
D|--------|--------|--------|--------|--------|--------|--------|--------|--------|
A|--------|--------|--------|--------|--------|--------|--------|--------|--------|
D|--------|--------|--------|--------|--------|--------|--------|--------|--------|


E|--------|--------|--------|--------|--------|--------|--------|--------|--------|
B|--------|--------|--------|--------|--------|--------|--------|--------|--------|
G|--------|--------|--------|--------|--------|--------|--------|--------|--------|
D|--------|--------|--------|--------|--------|--------|--------|--------|--------|
A|--------|--------|--------|--------|--------|--------|--------|--------|--------|
D|--------|--------|--------|--------|--------|--------|--------|--------|--------|


E|--------|--------|--------|--------|--------|--------|--------|--------|--------|
B|--------|--------|--------|--------|--------|--------|--------|--------|--------|
G|--------|--------|--------|--------|--------|--------|--------|--------|--------|
D|--------|--------|--------|--------|--------|--------|--------|--------|--------|
A|--------|--------|--------|--------|--------|--------|--------|--------|--------|
D|--------|--------|--------|--------|--------|--------|--------|--------|--------|


E|--------|--------|--------|--------|--------|--------|--------|--------|--------|
B|--------|--------|--------|--------|--------|--------|--------|--------|--------|
G|--------|--------|--------|--------|--------|--------|--------|--------|--------|
D|--------|--------|--------|--------|--------|--------|--------|--------|--------|
A|--------|--------|--------|--------|--------|--------|--------|--------|--------|
D|--------|--------|--------|--------|--------|--------|--------|--------|--------|


E|--------|--------|--------|--------|--------|--------|--------|--------|--------|
B|--------|--------|--------|--------|--------|--------|--------|--------|--------|
G|--------|--------|--------|--------|--------|--------|--------|--------|--------|
D|--------|--------|--------|--------|--------|--------|--------|--------|--------|
A|--------|--------|--------|--------|--------|--------|--------|--------|--------|
D|--------|--------|--------|--------|--------|--------|--------|--------|--------|


E|--------|--------|--------|--------|--------|--------|--------|--------|--------|
B|--------|--------|--------|--------|--------|--------|--------|--------|--------|
G|--------|--------|--------|--------|--------|--------|--------|--------|--------|
D|--------|--------|--------|--------|--------|--------|--------|--------|--------|
A|--------|--------|--------|--------|--------|--------|--------|--------|--------|
D|--------|--------|--------|--------|--------|--------|--------|--------|--------|


E|--------|--------|--------|--------|--------|--------|--------|--------|--------|
B|--------|--------|--------|--------|--------|--------|--------|--------|--------|
G|--------|--------|--------|--------|--------|--------|--------|--------|--------|
D|--------|--------|--------|--------|--------|--------|--------|--------|--------|
A|--------|--------|--------|--------|--------|--------|--------|--------|--------|
D|--------|--------|--------|--------|--------|--------|--------|--------|--------|


E|--------|--------|--------|--------|--------|--------|--------|--------|--------|
B|--------|--------|--------|--------|--------|--------|--------|--------|--------|
G|--------|--------|--------|--------|--------|--------|--------|--------|--------|
D|--------|--------|--------|--------|--------|--------|--------|--------|--------|
A|--------|--------|--------|--------|--------|--------|--------|--------|--------|
D|--------|--------|--------|--------|--------|--------|--------|--------|--------|


E|--------|--------|--------|--------|--------|--------|--------|--------|--------|
B|--------|--------|--------|--------|--------|--------|--------|--------|--------|
G|--------|--------|--------|--------|--------|--------|--------|--------|--------|
D|--------|--------|--------|--------|--------|--------|--------|--------|--------|
A|--------|--------|--------|--------|--------|--------|--------|--------|--------|
D|--------|--------|--------|--------|--------|--------|--------|--------|--------|


E|--------|--------|--------|--------|--------|--------|--------|--------|--------|
B|--------|--------|--------|--------|--------|--------|--------|--------|--------|
G|--------|--------|--------|--------|--------|--------|--------|--------|--------|
D|--------|--------|--------|--------|--------|--------|--------|--------|--------|
A|--------|--------|--------|--------|--------|--------|--------|--------|--------|
D|--------|--------|--------|--------|--------|--------|--------|--------|--------|


E|--------|--------|--------|--------|--------|--------|--------|--------|--------|
B|--------|--------|--------|--------|--------|--------|--------|--------|--------|
G|--------|--------|--------|--------|--------|--------|--------|--------|--------|
D|--------|--------|--------|--------|--------|--------|--------|--------|--------|
A|--------|--------|--------|--------|--------|--------|--------|--------|--------|
D|--------|--------|--------|--------|--------|--------|--------|--------|--------|


E|--------|--------|--------|--------|--------|--------|--------|--------|--------|
B|--------|--------|--------|--------|--------|--------|--------|--------|--------|
G|--------|--------|--------|--------|--------|--------|--------|--------|--------|
D|--------|--------|--------|--------|--------|--------|--------|--------|--------|
A|--------|--------|--------|--------|--------|--------|--------|--------|--------|
D|--------|--------|--------|--------|--------|--------|--------|--------|--------|


E|--------|--------|--------|--------|--------|--------|--------|--------|--------|
B|--------|--------|--------|--------|--------|--------|--------|--------|--------|
G|--------|--------|--------|--------|--------|--------|--------|--------|--------|
D|--------|--------|--------|--------|--------|--------|--------|--------|--------|
A|--------|--------|--------|--------|--------|--------|--------|--------|--------|
D|--------|--------|--------|--------|--------|--------|--------|--------|--------|


E|--------|--------|--------|--------|--------|--------|--------|--------|--------|
B|--------|--------|--------|--------|--------|--------|--------|--------|--------|
G|--------|--------|--------|--------|--------|--------|--------|--------|--------|
D|--------|--------|--------|--------|--------|--------|--------|--------|--------|
A|--------|--------|--------|--------|--------|--------|--------|--------|--------|
D|--------|--------|--------|--------|--------|--------|--------|--------|--------|


E|--------|--------|--------|--------|--------|--------|--------|--------|--------|
B|--------|--------|--------|--------|--------|--------|--------|--------|--------|
G|--------|--------|--------|--------|--------|--------|--------|--------|--------|
D|--------|--------|--------|--------|--------|--------|--------|--------|--------|
A|--------|--------|--------|--------|--------|--------|--------|--------|--------|
D|--------|--------|--------|--------|--------|--------|--------|--------|--------|


E|--------|--------|--------|--------|--------|--------|--------|--------|--------|
B|--------|--------|--------|--------|--------|--------|--------|--------|--------|
G|--------|--------|--------|--------|--------|--------|--------|--------|--------|
D|--------|--------|--------|--------|--------|--------|--------|--------|--------|
A|--------|--------|--------|--------|--------|--------|--------|--------|--------|
D|--------|--------|--------|--------|--------|--------|--------|--------|--------|


E|--------|--------|--------|--------|--------|--------|--------|--------|--------|
B|--------|--------|--------|--------|--------|--------|--------|--------|--------|
G|--------|--------|--------|--------|--------|--------|--------|--------|--------|
D|--------|--------|--------|--------|--------|--------|--------|--------|--------|
A|--------|--------|--------|--------|--------|--------|--------|--------|--------|
D|--------|--------|--------|--------|--------|--------|--------|--------|--------|


E|--------|--------|--------|--------|--------|--------|--------|--------|--------|
B|--------|--------|--------|--------|--------|--------|--------|--------|--------|
G|--------|--------|--------|--------|--------|--------|--------|--------|--------|
D|--------|--------|--------|--------|--------|--------|--------|--------|--------|
A|--------|--------|--------|--------|--------|--------|--------|--------|--------|
D|--------|--------|--------|--------|--------|--------|--------|--------|--------|


E|--------|--------|--------|--------|--------|--------|--------|--------|--------|
B|--------|--------|--------|--------|--------|--------|--------|--------|--------|
G|--------|--------|--------|--------|--------|--------|--------|--------|--------|
D|--------|--------|--------|--------|--------|--------|--------|--------|--------|
A|--------|--------|--------|--------|--------|--------|--------|--------|--------|
D|--------|--------|--------|--------|--------|--------|--------|--------|--------|


E|--------|--------|--------|--------|--------|--------|--------|--------|--------|
B|--------|--------|--------|--------|--------|--------|--------|--------|--------|
G|--------|--------|--------|--------|--------|--------|--------|--------|--------|
D|--------|--------|--------|--------|--------|--------|--------|--------|--------|
A|--------|--------|--------|--------|--------|--------|--------|--------|--------|
D|--------|--------|--------|--------|--------|--------|--------|--------|--------|


E|--------|--------|--------|--------|--------|--------|--------|--------|--------|
B|--------|--------|--------|--------|--------|--------|--------|--------|--------|
G|--------|--------|--------|--------|--------|--------|--------|--------|--------|
D|--------|--------|--------|--------|--------|--------|--------|--------|--------|
A|--------|--------|--------|--------|--------|--------|--------|--------|--------|
D|--------|--------|--------|--------|--------|--------|--------|--------|--------|


E|--------|--------|--------|--------|--------|--------|--------|--------|--------|
B|--------|--------|--------|--------|--------|--------|--------|--------|--------|
G|--------|--------|--------|--------|--------|--------|--------|--------|--------|
D|--------|--------|--------|--------|--------|--------|--------|--------|--------|
A|--------|--------|--------|--------|--------|--------|--------|--------|--------|
D|--------|--------|--------|--------|--------|--------|--------|--------|--------|


E|--------|--------|--------|--------|--------|--------|--------|--------|--------|
B|--------|--------|--------|--------|--------|--------|--------|--------|--------|
G|--------|--------|--------|--------|--------|--------|--------|--------|--------|
D|--------|--------|--------|--------|--------|--------|--------|--------|--------|
A|--------|--------|--------|--------|--------|--------|--------|--------|--------|
D|--------|--------|--------|--------|--------|--------|--------|--------|--------|


E|--------|--------|--------|--------|--------|--------|--------|--------|--------|
B|--------|--------|--------|--------|--------|--------|--------|--------|--------|
G|--------|--------|--------|--------|--------|--------|--------|--------|--------|
D|--------|--------|--------|--------|--------|--------|--------|--------|--------|
A|--------|--------|--------|--------|--------|--------|--------|--------|--------|
D|--------|--------|--------|--------|--------|--------|--------|--------|--------|


E|--------|--------|--------|--------|--------|--------|--------|--------|--------|
B|--------|--------|--------|--------|--------|--------|--------|--------|--------|
G|--------|--------|--------|--------|--------|--------|--------|--------|--------|
D|--------|--------|--------|--------|--------|--------|--------|--------|--------|
A|--------|--------|--------|--------|--------|--------|--------|--------|--------|
D|--------|--------|--------|--------|--------|--------|--------|--------|--------|


E|--------|--------|--------|--------|--------|--------|--------|--------|--------|
B|--------|--------|--------|--------|--------|--------|--------|--------|--------|
G|--------|--------|--------|--------|--------|--------|--------|--------|--------|
D|--------|--------|--------|--------|--------|--------|--------|--------|--------|
A|--------|--------|--------|--------|--------|--------|--------|--------|--------|
D|--------|--------|--------|--------|--------|--------|--------|--------|--------|


E|--------|--------|--------|--------|--------|--------|--------|--------|--------|
B|--------|--------|--------|--------|--------|--------|--------|--------|--------|
G|--------|--------|--------|--------|--------|--------|--------|--------|--------|
D|--------|--------|--------|--------|--------|--------|--------|--------|--------|
A|--------|--------|--------|--------|--------|--------|--------|--------|--------|
D|--------|--------|--------|--------|--------|--------|--------|--------|--------|


E|--------|--------|--------|--------|--------|--------|--------|--------|--------|
B|--------|--------|--------|--------|--------|--------|--------|--------|--------|
G|--------|--------|--------|--------|--------|--------|--------|--------|--------|
D|--------|--------|--------|--------|--------|--------|--------|--------|--------|
A|--------|--------|--------|--------|--------|--------|--------|--------|--------|
D|--------|--------|--------|--------|--------|--------|--------|--------|--------|


E|--------|--------|--------|--------|--------|--------|--------|--------|--------|
B|--------|--------|--------|--------|--------|--------|--------|--------|--------|
G|--------|--------|--------|--------|--------|--------|--------|--------|--------|
D|--------|--------|--------|--------|--------|--------|--------|--------|--------|
A|--------|--------|--------|--------|--------|--------|--------|--------|--------|
D|--------|--------|--------|--------|--------|--------|--------|--------|--------|


E|--------|--------|--------|--------|--------|--------|--------|--------|--------|
B|--------|--------|--------|--------|--------|--------|--------|--------|--------|
G|--------|--------|--------|--------|--------|--------|--------|--------|--------|
D|--------|--------|--------|--------|--------|--------|--------|--------|--------|
A|--------|--------|--------|--------|--------|--------|--------|--------|--------|
D|--------|--------|--------|--------|--------|--------|--------|--------|--------|


E|--------|--------|--------|--------|--------|--------|--------|--------|--------|
B|--------|--------|--------|--------|--------|--------|--------|--------|--------|
G|--------|--------|--------|--------|--------|--------|--------|--------|--------|
D|--------|--------|--------|--------|--------|--------|--------|--------|--------|
A|--------|--------|--------|--------|--------|--------|--------|--------|--------|
D|--------|--------|--------|--------|--------|--------|--------|--------|--------|


E|--------|--------|--------|--------|--------|--------|--------|--------|--------|
B|--------|--------|--------|--------|--------|--------|--------|--------|--------|
G|--------|--------|--------|--------|--------|--------|--------|--------|--------|
D|--------|--------|--------|--------|--------|--------|--------|--------|--------|
A|--------|--------|--------|--------|--------|--------|--------|--------|--------|
D|--------|--------|--------|--------|--------|--------|--------|--------|--------|


E|--------|--------|--------|--------|--------|--------|
B|--------|--------|--------|--------|--------|--------|
G|--------|--------|--------|--------|--------|--------|
D|--------|--------|--------|--------|--------|--------|
A|--------|--------|--------|--------|--------|--------|
D|--------|--------|--------|--------|--------|--------|





Track 3: Electric Sitar (Jordan Rudess)

E|--------|--------|--------|--------|--------|--------|--------|--------|--------|
B|--------|--------|--------|--------|--------|--------|--------|--------|--------|
G|--------|--------|--------|--------|--------|--------|--------|--------|--------|
D|--------|--------|--------|--------|--------|--------|--------|--------|--------|
A|--------|--------|--------|--------|--------|--------|--------|--------|--------|
D|--------|--------|--------|--------|--------|--------|--------|--------|--------|


E|--------|--------|--------|--------|-10-----|--------|------------------|--------------------|
B|--------|--------|--------|--------|-10-----|--------|-------------8----|-8---8--------------|
G|--------|--------|--------|--------|-7------|--------|-7-----8----------|--------------------|
D|--------|--------|--------|--------|-0------|--------|------------------|--------------------|
A|--------|--------|--------|--------|-0------|--------|------------------|--------------------|
D|--------|--------|--------|--------|--------|--------|------------------|--------------------|


E|----------------------|---------------------|------------------------------|--------------------|
B|----------------------|---------------------|-----------3--3---------------|--------------------|
G|-7-----7----7----5----|-8-----7---7-----0---|-3----3-----------2---2--0----|----------3---3-----|
D|----------------------|---------------------|------------------------------|-4----0-------------|
A|----------------------|---------------------|------------------------------|--------------------|
D|----------------------|---------------------|------------------------------|--------------------|


E|-----10--10---------------------|-----------------------------|---------------------------------------------|
B|------------10--13-13--13-------|------1011--11---10-11-------|----8---7--8---7--8-----7--8---------7-5-----|
G|--------------------------------|----12-----------------------|----------------------------------8------7-5-|
D|--------------------------------|-----------------------------|---------------------------------------------|
A|--------------------------------|-----------------------------|---------------------------------------------|
D|--------------------------------|-----------------------------|---------------------------------------------|


E|---------------------------|-----------------------|-----------------------|-------------------------------------|
B|---------------------------|-------------7---------|-7----8--8---10--------|-10---11-11--13----------10-8--7--10-|
G|-7---8--7---5----7---------|-7----8--8-------------|-----------------------|-------------------------------------|
D|---------------------------|-----------------------|-----------------------|-------------------------------------|
A|---------------------------|-----------------------|-----------------------|-------------------------------------|
D|---------------------------|-----------------------|-----------------------|-------------------------------------|


E|---------------------------------------------|--------------------------------|----------------------------|
B|-10--8--7------------------------------------|--------------8---7-------------|-7----8---10--11--10--------|
G|-----------8--7--8--8--5--8--7--7------------|-7----8---5-----------------7-8-|----------------------------|
D|------------------------------------7--------|--------------------------------|----------------------------|
A|---------------------------------------------|--------------------------------|----------------------------|
D|---------------------------------------------|--------------------------------|----------------------------|


E|----------------11------10----------|----------------------------------------------|
B|----10--11-13-------13------101113--|-10-11-----10--7--8--8--7---------------------|
G|------------------------------------|--------12-----------------8-----7--5---------|
D|------------------------------------|------------------------------10------8-7--5--|
A|------------------------------------|----------------------------------------------|
D|------------------------------------|----------------------------------------------|


E|---------------10-----------------------|--------------------------------------------|
B|----10--11-13-----10-10-13--108-7---8---|-7---8--10-10-11-108-7--7-------------------|
G|----------------------------------------|---------------------------8---7--7--5--7---|
D|-4--------------------------------------|--------------------------------------------|
A|----------------------------------------|--------------------------------------------|
D|----------------------------------------|--------------------------------------------|


E|---------------10---------------------------|------------------------------------10---1011-101114-|
B|----10--11-13-----10-11-13--108-7--8--7-----|-------7--8--7--8--10-11-101113-1113---13------------|
G|-----------------------------------------7--|-7--7------------------------------------------------|
D|--------------------------------------------|-----------------------------------------------------|
A|--------------------------------------------|-----------------------------------------------------|
D|--------------------------------------------|-----------------------------------------------------|


E|--------|--------|--------|--------|--------|--------|--------|------------------|
B|--------|--------|--------|--------|--------|--------|--------|------------------|
G|--------|--------|--------|--------|--------|--------|--------|------------11-12-|
D|--------|--------|--------|--------|--------|--------|--------|------------------|
A|--------|--------|--------|--------|--------|--------|--------|------------9--10-|
D|--------|--------|--------|--------|--------|--------|--------|------------------|


E|-------------------------------------------|-------------------------------------------|
B|-10-11-10-11-10----10----------------------|-10-11-10-11-10----10----------------------|
G|----------------12----11-12-11--7----11-12-|----------------12----11-12-11--7----11-12-|
D|-7--8--7--8--7-----7-----------------------|-7--8--7--8--7-----7-----------------------|
A|----------------10----9--10-9---5----9--10-|----------------10----9--10-9---5----9--10-|
D|-------------------------------------------|-------------------------------------------|


E|-------------------------------------------|---------------------------------|-------------------------------------------|
B|-10-11-10-11-10----10----------------------|---------------------------------|-10-11-10-11-10----10----------------------|
G|----------------12----11-12-11--7----7--7--|-8---118-7---8-7-5---5-----11-12-|----------------12----11-12-11--7----11-12-|
D|-7--8--7--8--7-----7-----------------------|---------------------------------|-7--8--7--8--7-----7-----------------------|
A|----------------10----9--10-9---5----5--5--|-6---9-6-5---6-5-3---3-----9--10-|----------------10----9--10-9---5----9--10-|
D|-------------------------------------------|---------------------------------|-------------------------------------------|


E|-------------------------------------------|-------------------------------------------|
B|-10-11-10-11-10----10-----------15---------|-10-11-10-11-10----10----------------------|
G|----------------12----11-12-11-------11-12-|----------------12----11-12-11--7----7--7--|
D|-7--8--7--8--7-----7------------12---------|-7--8--7--8--7-----7-----------------------|
A|----------------10----9--10-9--------9--10-|----------------10----9--10-9---5----5--5--|
D|-------------------------------------------|-------------------------------------------|


E|-------------------------------|--------|--------|--------|--------|--------|--------|
B|-------------------------------|--------|--------|--------|--------|--------|--------|
G|-8---118-7---8-7-5---5-----5---|--------|--------|--------|--------|--------|--------|
D|-------------------------------|--------|--------|--------|--------|--------|--------|
A|-6---9-6-5---6-5-3---3-----3---|--------|--------|--------|--------|--------|--------|
D|-------------------------------|--------|--------|--------|--------|--------|--------|


E|--------|--------|--------|--------|--------|--------|--------|--------|--------|
B|--------|--------|--------|--------|--------|--------|--------|--------|--------|
G|--------|--------|--------|--------|--------|--------|--------|--------|--------|
D|--------|--------|--------|--------|--------|--------|--------|--------|--------|
A|--------|--------|--------|--------|--------|--------|--------|--------|--------|
D|--------|--------|--------|--------|--------|--------|--------|--------|--------|


E|--------|--------|--------|--------|--------|--------|--------|--------|--------|
B|--------|--------|--------|--------|--------|--------|--------|--------|--------|
G|--------|--------|--------|--------|--------|--------|--------|--------|--------|
D|--------|--------|--------|--------|--------|--------|--------|--------|--------|
A|--------|--------|--------|--------|--------|--------|--------|--------|--------|
D|--------|--------|--------|--------|--------|--------|--------|--------|--------|


E|--------|--------|--------|--------|--------|--------|--------|--------|--------|
B|--------|--------|--------|--------|--------|--------|--------|--------|--------|
G|--------|--------|--------|--------|--------|--------|--------|--------|--------|
D|--------|--------|--------|--------|--------|--------|--------|--------|--------|
A|--------|--------|--------|--------|--------|--------|--------|--------|--------|
D|--------|--------|--------|--------|--------|--------|--------|--------|--------|


E|--------|--------|--------|--------|--------|--------|--------|--------|--------|
B|--------|--------|--------|--------|--------|--------|--------|--------|--------|
G|--------|--------|--------|--------|--------|--------|--------|--------|--------|
D|--------|--------|--------|--------|--------|--------|--------|--------|--------|
A|--------|--------|--------|--------|--------|--------|--------|--------|--------|
D|--------|--------|--------|--------|--------|--------|--------|--------|--------|


E|--------|--------|--------|--------|--------|--------|--------|--------|--------|
B|--------|--------|--------|--------|--------|--------|--------|--------|--------|
G|--------|--------|--------|--------|--------|--------|--------|--------|--------|
D|--------|--------|--------|--------|--------|--------|--------|--------|--------|
A|--------|--------|--------|--------|--------|--------|--------|--------|--------|
D|--------|--------|--------|--------|--------|--------|--------|--------|--------|


E|--------|--------|--------|--------|------------------|-------------------------------------------|
B|--------|--------|--------|--------|------------------|-10-11-10-11-10----10----------------------|
G|--------|--------|--------|--------|------------11-12-|----------------12----11-12-11--7----11-12-|
D|--------|--------|--------|--------|------------------|-7--8--7--8--7-----7-----------------------|
A|--------|--------|--------|--------|------------9--10-|----------------10----9--10-9---5----9--10-|
D|--------|--------|--------|--------|------------------|-------------------------------------------|


E|-------------------------------------------|-------------------------------------------|
B|-10-11-10-11-10----10----------------------|-10-11-10-11-10----10----------------------|
G|----------------12----11-12-11--7----11-12-|----------------12----11-12-11--7----7--7--|
D|-7--8--7--8--7-----7-----------------------|-7--8--7--8--7-----7-----------------------|
A|----------------10----9--10-9---5----9--10-|----------------10----9--10-9---5----5--5--|
D|-------------------------------------------|-------------------------------------------|


E|---------------------------------|-------------------------------------------|-------------------------------------------|
B|---------------------------------|-10-11-10-11-10----10----------------------|-10-11-10-11-10----10-----------15---------|
G|-8---118-7---8-7-5---5-----11-12-|----------------12----11-12-11--7----11-12-|----------------12----11-12-11-------11-12-|
D|---------------------------------|-7--8--7--8--7-----7-----------------------|-7--8--7--8--7-----7------------12---------|
A|-6---9-6-5---6-5-3---3-----9--10-|----------------10----9--10-9---5----9--10-|----------------10----9--10-9--------9--10-|
D|---------------------------------|-------------------------------------------|-------------------------------------------|


E|-------------------------------------------|-------------------------------|--------|
B|-10-11-10-11-10----10----------------------|-------------------------------|--------|
G|----------------12----11-12-11--7----7--7--|-8---118-7---8-7-5---5-----5---|--------|
D|-7--8--7--8--7-----7-----------------------|-------------------------------|--------|
A|----------------10----9--10-9---5----5--5--|-6---9-6-5---6-5-3---3-----3---|--------|
D|-------------------------------------------|-------------------------------|--------|


E|--------|--------|--------|--------|--------|--------|--------|--------|--------|
B|--------|--------|--------|--------|--------|--------|--------|--------|--------|
G|--------|--------|--------|--------|--------|--------|--------|--------|--------|
D|--------|--------|--------|--------|--------|--------|--------|--------|--------|
A|--------|--------|--------|--------|--------|--------|--------|--------|--------|
D|--------|--------|--------|--------|--------|--------|--------|--------|--------|


E|--------|--------|--------|--------|--------|--------|--------|--------|--------|
B|--------|--------|--------|--------|--------|--------|--------|--------|--------|
G|--------|--------|--------|--------|--------|--------|--------|--------|--------|
D|--------|--------|--------|--------|--------|--------|--------|--------|--------|
A|--------|--------|--------|--------|--------|--------|--------|--------|--------|
D|--------|--------|--------|--------|--------|--------|--------|--------|--------|


E|--------|--------|--------|--------|--------|--------|--------|--------|--------|
B|--------|--------|--------|--------|--------|--------|--------|--------|--------|
G|--------|--------|--------|--------|--------|--------|--------|--------|--------|
D|--------|--------|--------|--------|--------|--------|--------|--------|--------|
A|--------|--------|--------|--------|--------|--------|--------|--------|--------|
D|--------|--------|--------|--------|--------|--------|--------|--------|--------|


E|--------|--------|--------|--------|--------|--------|--------|--------|--------|
B|--------|--------|--------|--------|--------|--------|--------|--------|--------|
G|--------|--------|--------|--------|--------|--------|--------|--------|--------|
D|--------|--------|--------|--------|--------|--------|--------|--------|--------|
A|--------|--------|--------|--------|--------|--------|--------|--------|--------|
D|--------|--------|--------|--------|--------|--------|--------|--------|--------|


E|--------|--------|--------|--------|--------|--------|--------|--------|--------|
B|--------|--------|--------|--------|--------|--------|--------|--------|--------|
G|--------|--------|--------|--------|--------|--------|--------|--------|--------|
D|--------|--------|--------|--------|--------|--------|--------|--------|--------|
A|--------|--------|--------|--------|--------|--------|--------|--------|--------|
D|--------|--------|--------|--------|--------|--------|--------|--------|--------|


E|--------|--------|--------|--------|--------|--------|------------------|---------------------|
B|--------|--------|--------|--------|--------|--------|-3-----1-----4----|-3-------------------|
G|--------|--------|--------|--------|--------|--------|------------------|-------2---2---------|
D|--------|--------|--------|--------|--------|--------|------------------|---------------------|
A|--------|--------|--------|--------|--------|--------|------------------|---------------------|
D|--------|--------|--------|--------|--------|--------|------------------|---------------------|


E|-----------------------|-------------|--------|--------|--------|--------|--------|
B|-3-----4---------8--8--|-8-----------|--------|--------|--------|--------|--------|
G|-----------------------|-------------|--------|--------|--------|--------|--------|
D|-----------------------|-------------|--------|--------|--------|--------|--------|
A|-----------------------|-------------|--------|--------|--------|--------|--------|
D|-----------------------|-------------|--------|--------|--------|--------|--------|


E|--------|--------|--------|--------|--------|--------|--------|--------|--------|
B|--------|--------|--------|--------|--------|--------|--------|--------|--------|
G|--------|--------|--------|--------|--------|--------|--------|--------|--------|
D|--------|--------|--------|--------|--------|--------|--------|--------|--------|
A|--------|--------|--------|--------|--------|--------|--------|--------|--------|
D|--------|--------|--------|--------|--------|--------|--------|--------|--------|


E|--------|--------|--------|--------|--------|--------|--------|--------|--------|
B|--------|--------|--------|--------|--------|--------|--------|--------|--------|
G|--------|--------|--------|--------|--------|--------|--------|--------|--------|
D|--------|--------|--------|--------|--------|--------|--------|--------|--------|
A|--------|--------|--------|--------|--------|--------|--------|--------|--------|
D|--------|--------|--------|--------|--------|--------|--------|--------|--------|


E|--------|--------|--------|--------|--------|--------|--------|--------|--------|
B|--------|--------|--------|--------|--------|--------|--------|--------|--------|
G|--------|--------|--------|--------|--------|--------|--------|--------|--------|
D|--------|--------|--------|--------|--------|--------|--------|--------|--------|
A|--------|--------|--------|--------|--------|--------|--------|--------|--------|
D|--------|--------|--------|--------|--------|--------|--------|--------|--------|


E|--------|--------|--------|--------|--------|--------|--------|--------|--------|
B|--------|--------|--------|--------|--------|--------|--------|--------|--------|
G|--------|--------|--------|--------|--------|--------|--------|--------|--------|
D|--------|--------|--------|--------|--------|--------|--------|--------|--------|
A|--------|--------|--------|--------|--------|--------|--------|--------|--------|
D|--------|--------|--------|--------|--------|--------|--------|--------|--------|


E|--------|--------|--------|--------|--------|--------|--------|--------|--------|
B|--------|--------|--------|--------|--------|--------|--------|--------|--------|
G|--------|--------|--------|--------|--------|--------|--------|--------|--------|
D|--------|--------|--------|--------|--------|--------|--------|--------|--------|
A|--------|--------|--------|--------|--------|--------|--------|--------|--------|
D|--------|--------|--------|--------|--------|--------|--------|--------|--------|


E|--------|--------|--------|--------|--------|--------|--------|--------|--------|
B|--------|--------|--------|--------|--------|--------|--------|--------|--------|
G|--------|--------|--------|--------|--------|--------|--------|--------|--------|
D|--------|--------|--------|--------|--------|--------|--------|--------|--------|
A|--------|--------|--------|--------|--------|--------|--------|--------|--------|
D|--------|--------|--------|--------|--------|--------|--------|--------|--------|


E|--------|--------|--------|--------|--------|--------|--------|--------|--------|
B|--------|--------|--------|--------|--------|--------|--------|--------|--------|
G|--------|--------|--------|--------|--------|--------|--------|--------|--------|
D|--------|--------|--------|--------|--------|--------|--------|--------|--------|
A|--------|--------|--------|--------|--------|--------|--------|--------|--------|
D|--------|--------|--------|--------|--------|--------|--------|--------|--------|


E|--------|--------|--------|--------|--------|--------|--------|--------|--------|
B|--------|--------|--------|--------|--------|--------|--------|--------|--------|
G|--------|--------|--------|--------|--------|--------|--------|--------|--------|
D|--------|--------|--------|--------|--------|--------|--------|--------|--------|
A|--------|--------|--------|--------|--------|--------|--------|--------|--------|
D|--------|--------|--------|--------|--------|--------|--------|--------|--------|


E|--------|--------|--------|--------|--------|--------|--------|--------|--------|
B|--------|--------|--------|--------|--------|--------|--------|--------|--------|
G|--------|--------|--------|--------|--------|--------|--------|--------|--------|
D|--------|--------|--------|--------|--------|--------|--------|--------|--------|
A|--------|--------|--------|--------|--------|--------|--------|--------|--------|
D|--------|--------|--------|--------|--------|--------|--------|--------|--------|


E|--------|------------------|-------------------------------------------|-------------------------------------------|
B|--------|------------------|-10-11-10-11-10----10----------------------|-10-11-10-11-10----10----------------------|
G|--------|------------11-12-|----------------12----11-12-11--7----11-12-|----------------12----11-12-11--7----11-12-|
D|--------|------------------|-7--8--7--8--7-----7-----------------------|-7--8--7--8--7-----7-----------------------|
A|--------|------------9--10-|----------------10----9--10-9---5----9--10-|----------------10----9--10-9---5----9--10-|
D|--------|------------------|-------------------------------------------|-------------------------------------------|


E|-------------------------------------------|---------------------------------|-------------------------------------------|
B|-10-11-10-11-10----10----------------------|---------------------------------|-10-11-10-11-10----10----------------------|
G|----------------12----11-12-11--7----7--7--|-8---118-7---8-7-5---5-----11-12-|----------------12----11-12-11--7----11-12-|
D|-7--8--7--8--7-----7-----------------------|---------------------------------|-7--8--7--8--7-----7-----------------------|
A|----------------10----9--10-9---5----5--5--|-6---9-6-5---6-5-3---3-----9--10-|----------------10----9--10-9---5----9--10-|
D|-------------------------------------------|---------------------------------|-------------------------------------------|


E|-------------------------------------------|-------------------------------------------|
B|-10-11-10-11-10----10-----------15---------|-10-11-10-11-10----10----------------------|
G|----------------12----11-12-11-------11-12-|----------------12----11-12-11--7----7--7--|
D|-7--8--7--8--7-----7------------12---------|-7--8--7--8--7-----7-----------------------|
A|----------------10----9--10-9--------9--10-|----------------10----9--10-9---5----5--5--|
D|-------------------------------------------|-------------------------------------------|


E|-------------------------------|------------------------------------------------|
B|-------------------------------|-------13-15-131513---------------13------------|
G|-8---118-7---8-7-5---5-----5---|-14-15-------------15-14-15-14-15------15-14-15-|
D|-------------------------------|------------------------------------------------|
A|-6---9-6-5---6-5-3---3-----3---|------------------------------------------------|
D|-------------------------------|------------------------------------------------|


E|-----------------------------------------------|---------------------------------------------------|
B|-13-15-131513----------------------------13-15-|-131513---------------13------------13-15-131513---|
G|-------------15-14-15-141514-------14-15-------|-------15-14-15-14-15------15-14-15-------------15-|
D|----------------------------1716---------------|---------------------------------------------------|
A|-----------------------------------------------|---------------------------------------------------|
D|-----------------------------------------------|---------------------------------------------------|


E|--------------------------------------------------|------------------------------------------------|
B|-----------------------------------13-15-131513---|-------------13------------13-15-131513---------|
G|-14-15-141514----------------14-15-------------15-|-14-15-14-15------15-14-15-------------15-14-15-|
D|-------------1716--13-12-10-----------------------|------------------------------------------------|
A|--------------------------------------------------|------------------------------------------------|
D|--------------------------------------------------|------------------------------------------------|


E|-----------------------------------------------|------------------------------------------------|
B|--------------------13-15-131513---------------|-13------------13-15-131513---------------------|
G|-141514-------14-15-------------15-14-15-14-15-|------15-14-15-------------15-14-15-141514------|
D|-------1716------------------------------------|------------------------------------------1716--|
A|-----------------------------------------------|------------------------------------------------|
D|-----------------------------------------------|------------------------------------------------|


E|------------------------------------------------|-----------------------------------------------|
B|-----------------13-15-131513---------------13--|-------------13-15-131513----------------------|
G|-----------14-15-------------15-14-15-14-15-----|----15-14-15-------------15-14-15-141514-------|
D|-13-12-10---------------------------------------|----------------------------------------1716---|
A|------------------------------------------------|-----------------------------------------------|
D|------------------------------------------------|-----------------------------------------------|


E|------------------------------------------------|--------------------------------------------------|
B|-------13-15-131513---------------13------------|-13-15-131513-------------------------------------|
G|-14-15-------------15-14-15-14-15------15-14-15-|-------------15-14-15-141514----------------------|
D|------------------------------------------------|----------------------------1716--13-12-10--12-13-|
A|------------------------------------------------|--------------------------------------------------|
D|------------------------------------------------|--------------------------------------------------|


E|---------------------------------------------|-----------------------------------------------|
B|---------------------------------------------|-------10--------------------------------------|
G|----12-11------------------------------------|----12-----12-11----12-11----------------11-12-|
D|-----------13-12----13-10-12-13-12-10--12-13-|--------------------------13-12-10-12-13-------|
A|---------------------------------------------|-----------------------------------------------|
D|---------------------------------------------|-----------------------------------------------|


E|-----------------------------------------------------|--------------------------5--6--5-6-5----------|
B|-----------------------------------------------------|--------------------7--8--------------8--7--8--|
G|-111211---------------11--11----------11-12-111211---|--------------------------11-12-111211---------|
D|-------13-12-13-12-13--------13-12-13-------------13-|-12-13-121312-------12-13-------------13-12-13-|
A|-----------------------------------------------------|-------------1312------------------------------|
D|-----------------------------------------------------|-----------------------------------------------|


E|-------5---5-----------5--6--5-7-5------------------|-------------------------------------------|
B|-7--8---------8--7--8--------------8--7--8--7-8-7---|-------------------------------------------|
G|-------11--11----------11-12-111211---------------8-|-7----------------------12-11--------------|
D|-12-13--------13-12-13-------------13-12-13-121312--|-----13-12-10--12-13-----------13-12----13-|
A|--------------------------------------------------13|-12----------------------------------------|
D|----------------------------------------------------|-------------------------------------------|


E|-----------------------------------------------|---------------------------------------------|
B|-----------------------------------------------|----10-11--10-------------10-11-13--11-10----|
G|----------------------11-12-11-----------11-12-|--------------12----11-12-----------------12-|
D|-10-12-13-12-10-12-13----------13-12-13--------|---------------------------------------------|
A|-----------------------------------------------|---------------------------------------------|
D|-----------------------------------------------|---------------------------------------------|


E|-----------------14-15-14--------------------|-------------------------------------------------|
B|-10-11-13--15-16----------16-15-------13-15--|-13----------13-15-16-15-13-------15-13----------|
G|--------------------------------14-15--------|----15-14-15----------------15-14-------15-14-15-|
D|---------------------------------------------|-------------------------------------------------|
A|---------------------------------------------|-------------------------------------------------|
D|---------------------------------------------|-------------------------------------------------|


E|-----------------------------------------------|-----------------------------------------------|
B|-13-15--13----------13-15-16-15-13-------15-13-|----------13-15--13----------13-15-16-15-13----|
G|-----------15-14-15----------------15-14-------|-15-14-15-----------15-14-15----------------15-|
D|-----------------------------------------------|-----------------------------------------------|
A|-----------------------------------------------|-----------------------------------------------|
D|-----------------------------------------------|-----------------------------------------------|


E|-----------------------------------------------|-------------------------------------------14-15-|
B|----15-13----------13-15--13----------13-15-16-|-15-13-------15-13----------13-15-16-15-16-------|
G|-14-------15-14-15-----------15-14-15----------|-------15-14-------15-14-15----------------------|
D|-----------------------------------------------|-------------------------------------------------|
A|-----------------------------------------------|-------------------------------------------------|
D|-----------------------------------------------|-------------------------------------------------|


E|----14----------14-15-17-15-14-------15-14-------|----14-15--14----------14-15-17-15-14-------15-|
B|-------16-15-16----------------16-15-------16-15-|-16-----------16-15-16----------------16-15----|
G|-------------------------------------------------|-----------------------------------------------|
D|-------------------------------------------------|-----------------------------------------------|
A|-------------------------------------------------|-----------------------------------------------|
D|-------------------------------------------------|-----------------------------------------------|


E|-14----------14-15----14-15-17-14-15-17-15-17-18-|-20-----|-20-----|--------|--------|
B|----16-15-16-------16----------------------------|--------|--------|--------|--------|
G|-------------------------------------------------|--------|--------|--------|--------|
D|-------------------------------------------------|--------|--------|--------|--------|
A|-------------------------------------------------|--------|--------|--------|--------|
D|-------------------------------------------------|--------|--------|--------|--------|


E|--------|--------|
B|--------|--------|
G|--------|--------|
D|--------|--------|
A|--------|--------|
D|--------|--------|





Track 4: Elec w/dist [left pan] (John Petrucci)

E|--------|--------|--------|--------|--------|--------|--------|--------|--------|
B|--------|--------|--------|--------|--------|--------|--------|--------|--------|
G|--------|--------|--------|--------|--------|--------|--------|--------|--------|
D|--------|--------|--------|--------|--------|--------|--------|--------|--------|
A|--------|--------|--------|--------|--------|--------|--------|--------|--------|
D|--------|--------|--------|--------|--------|--------|--------|--------|--------|


E|--------|--------|--------|--------|--------|--------|--------|--------|--------|
B|--------|--------|--------|--------|--------|--------|--------|--------|--------|
G|--------|--------|--------|--------|--------|--------|--------|--------|--------|
D|--------|--------|--------|--------|--------|--------|--------|--------|--------|
A|--------|--------|--------|--------|--------|--------|--------|--------|--------|
D|--------|--------|--------|--------|--------|--------|--------|--------|--------|


E|--------|--------|--------|--------|--------|--------|--------|--------|--------|
B|--------|--------|--------|--------|--------|--------|--------|--------|--------|
G|--------|--------|--------|--------|--------|--------|--------|--------|--------|
D|--------|--------|--------|--------|--------|--------|--------|--------|--------|
A|--------|--------|--------|--------|--------|--------|--------|--------|--------|
D|--------|--------|--------|--------|--------|--------|--------|--------|--------|


E|--------|--------|--------|--------|--------|--------|--------|--------|--------|
B|--------|--------|--------|--------|--------|--------|--------|--------|--------|
G|--------|--------|--------|--------|--------|--------|--------|--------|--------|
D|--------|--------|--------|--------|--------|--------|--------|--------|--------|
A|--------|--------|--------|--------|--------|--------|--------|--------|--------|
D|--------|--------|--------|--------|--------|--------|--------|--------|--------|


E|--------|-------------------------------------------|-------------------------------------------|
B|--------|-------------------------------------------|-------------------------------------------|
G|--------|-------------------------------------------|-------------------------------------------|
D|--------|-------------------------------------------|-------------------------------------------|
A|--------|-------------------------------------------|-------------------------------------------|
D|--------|-0---0---12-13-0--10-12-0--12-13-0--10-12--|-0---0---12-13-0--10-12-0--12-13-0--10-12--|


E|-------------------------------------------|------------------------------------------------|
B|-------------------------------------------|------------------------------------------------|
G|-------------------------------------------|------------------------------------------------|
D|-------------------------------------------|------------------------------------------------|
A|-------------------------------------------|------------------------------------------------|
D|-0---0---12-13-0--10-12-0--12-13-0--10-12--|-0---0---7--8--0--5--7--0--7--8--0--3--3--5--3--|


E|-------------------------------------------|-------------------------------------------|
B|-------------------------------------------|-------------------------------------------|
G|-------------------------------------------|-------------------------------------------|
D|-------------------------------------------|-------------------------------------------|
A|-------------------------------------------|-------------------------------------------|
D|-0---0---12-13-0--10-12-0--12-13-0--10-12--|-0---0---12-13-0--10-12-0--12-13-0--10-12--|


E|-------------------------------------------|-------------------------------------------|
B|-------------------------------------------|-------------------------------------------|
G|-------------------------------------------|-------------------------------------------|
D|-------------------------------------------|-------------------------------------------|
A|-------------------------------------------|-------------------------------------------|
D|-0---0---12-13-0--10-12-0--12-13-0--10-12--|-0---0---12-13-0--16-17-0--16-17-0--17-16--|


E|--------|--------|--------|--------|--------|--------|--------|--------|-----------------------------------|
B|--------|--------|--------|--------|--------|--------|--------|--------|-----------------------------------|
G|--------|--------|--------|--------|--------|--------|--------|--------|-----------------------------------|
D|--------|--------|--------|--------|--------|--------|--------|--------|-0---0-------0--0---0--0--------0--|
A|--------|--------|--------|--------|--------|--------|--------|--------|-0---0-------0--0---0--0--------0--|
D|--------|--------|--------|--------|--------|--------|--------|--------|-0---0-------0--0---0--0--------0--|


E|---------------------------------------|-----------------------------------|--------------------------------------------|
B|---------------------------------------|-----------------------------------|--------------------------------------------|
G|---------------------------------------|-----------------------------------|--------------------------------------------|
D|-0---0-------0--0---0--7--8--0--5--6---|-0---0-------0--0---0--0--------0--|-0---0-------0--0---0-----------1--0--------|
A|-0---0-------0--0---0--7--8--0--5--6---|-0---0-------0--0---0--0--------0--|-0---0-------0--0---0-----------------------|
D|-0---0-------0--0---0--7--8--0--5--6---|-0---0-------0--0---0--0--------0--|-0---0-------0--0---0--0--1--3--------3--0--|


E|-----------------------------------|---------------------------------------|-----------------------------------|
B|-----------------------------------|---------------------------------------|-----------------------------------|
G|-----------------------------------|---------------------------------------|-----------------------------------|
D|-0---0-------0--0---0--0--------0--|-0---0-------0--0---0--7--8--0--5--6---|-0---0-------0--0---0--0--------0--|
A|-0---0-------0--0---0--0--------0--|-0---0-------0--0---0--7--8--0--5--6---|-0---0-------0--0---0--0--------0--|
D|-0---0-------0--0---0--0--------0--|-0---0-------0--0---0--7--8--0--5--6---|-0---0-------0--0---0--0--------0--|


E|--------------------------------------------|-----------------------------------|
B|--------------------------------------------|-----------------------------------|
G|--------------------------------------------|-----------------------------------|
D|-0---0-------0--0---0-----------1--0--------|-0---0-------0--0---0--0--------0--|
A|-0---0-------0--0---0-----------------------|-0---0-------0--0---0--0--------0--|
D|-0---0-------0--0---0--0--1--3--------3--0--|-0---0-------0--0---0--0--------0--|


E|---------------------------------------|-----------------------------------|--------------------------------------------|
B|---------------------------------------|-----------------------------------|--------------------------------------------|
G|---------------------------------------|-----------------------------------|--------------------------------------------|
D|-0---0-------0--0---0--7--8--0--5--6---|-0---0-------0--0---0--0--------0--|-0---0-------0--0---0-----------1--0--------|
A|-0---0-------0--0---0--7--8--0--5--6---|-0---0-------0--0---0--0--------0--|-0---0-------0--0---0-----------------------|
D|-0---0-------0--0---0--7--8--0--5--6---|-0---0-------0--0---0--0--------0--|-0---0-------0--0---0--0--1--3--------3--0--|


E|-----------------------------------|---------------------------------------|-----------------------------------|
B|-----------------------------------|---------------------------------------|-----------------------------------|
G|-----------------------------------|---------------------------------------|-----------------------------------|
D|-0---0-------0--0---0--0--------0--|-0---0---------------------3--0--------|-0---0-------0--0---0--0--------0--|
A|-0---0-------0--0---0--0--------0--|-0---0---------------------------------|-0---0-------0--0---0--0--------0--|
D|-0---0-------0--0---0--0--------0--|-0---0------------0--3--5--------6--5--|-0---0-------0--0---0--0--------0--|


E|---------------------------------------|-----------------------------------|---------------------------------------|
B|---------------------------------------|-----------------------------------|---------------------------------------|
G|---------------------------------------|-----------------------------------|---------------------------------------|
D|-0---0---------------------3--0--------|-0---0-------0--0---0--0--------0--|-0---0---------------------3--0--------|
A|-0---0---------------------------------|-0---0-------0--0---0--0--------0--|-0---0---------------------------------|
D|-0---0------------0--3--5--------1--0--|-0---0-------0--0---0--0--------0--|-0---0------------0--3--5--------6--5--|


E|-----------------------------------|---------------------------------------|---------------------------------------|
B|-----------------------------------|---------------------------------------|---------------------------------------|
G|-----------------------------------|---------------------------------------|---------------------------------------|
D|-0---0-------0--0---0--0--------0--|-0---0---------------------3--0--------|---------------7--8--7-----------3--2--|
A|-0---0-------0--0---0--0--------0--|-0---0---------------------------------|-0---0---7--8------------0---0---------|
D|-0---0-------0--0---0--0--------0--|-0---0------------0--3--5--------1--0--|---------------------------------------|


E|-------------------------------------------|---------------------------------------|
B|-------------------------------------------|---------------------------------------|
G|-------------------------------------------|---------------------------------------|
D|---------------------------------5--7--5---|---------------7--8--7-----------3--2--|
A|-5--4---0--1--0--4--5--0---5--7------------|-0---0---7--8------------0---0---------|
D|-------------------------------------------|---------------------------------------|


E|-------------------------------------------|-------------------------------------------|
B|-------------------------------------------|-------------------------------------------|
G|-------------------------------------------|---------------6--7--6---------------------|
D|---------------------------------5--7--5---|---------5--7--7--8--7---------------3--2--|
A|-5--4---0--1--0--4--5--0---5--7------------|-0---0---7--8------------0-----0-----------|
D|-------------------------------------------|-------------------------------------------|


E|-------------------------------------------|-------------------------------------------|
B|-------------------------------------------|-------------------------------------------|
G|-------------------------------------------|---------------6--7--6---------------------|
D|---------------------------------5--7--5---|---------5--7--7--8--7---------------3--2--|
A|-5--4---0--1--0--4--5--0---5--7------------|-0---0---7--8------------0-----0-----------|
D|-------------------------------------------|-------------------------------------------|


E|-------------------------------------------|-------------------------------------------------|
B|-------------------------------------------|-------------------------------------------------|
G|-------------------------------------------|-------------------------------------------------|
D|---------------------------------5--7--5---|-------------------------------------------------|
A|-5--4---0--1--0--4--5--0---5--7------------|-------------------------------------------------|
D|-------------------------------------------|-5--7--8--5--8--5--7--8--5--8--5--7--8--5--3--0--|


E|-------------------------------------------------|-------------------------------------------|
B|-------------------------------------------------|-------------------------------------------|
G|-------------------------------------------------|---------------6--7--6---------------------|
D|-------------------------------------------7--8--|---------5--7--7--8--7---------------3--2--|
A|----------------------------------5--7--8--------|-0---0---7--8------------0-----0-----------|
D|-5--7--8--5--8--5--7--8--5--7--8-----------------|-------------------------------------------|


E|-------------------------------------------|-------------------------------------------------|
B|-------------------------------------------|-------------------------------------------------|
G|-------------------------------------------|-------------------------------------------------|
D|---------------------------------5--7--5---|-------------------------------------------------|
A|-5--4---0--1--0--4--5--0---5--7------------|-------------------------------------------------|
D|-------------------------------------------|-5--7--8--5--8--5--7--8--5--8--5--7--8--5--3--0--|


E|-------------------------------------------------------|---------------------|---------------------|
B|-------------------------------------------------------|---------------------|-6----6----6----6----|
G|-------------------------------------------------------|-5----5----5----5----|-5----5----5----5----|
D|-------------------------------------------5--8--6--5--|-6----6----6----6----|-3----3----3----3----|
A|----------------------------------5--6--8--------------|-6----6----6----6----|-3----3----3----3----|
D|-5--7--8--5--8--5--7--8--5--7--8-----------------------|---------------------|---------------------|


E|----------------------------|----------------------------|-----------------------------|
B|----------------------------|----------------------------|-6----------6---6----6-------|
G|-5----------5---5-----------|----------------------------|-5----------5---5----5----5--|
D|-5----------5---5-----------|-6----------6---6-----------|-3----------3---3----3----7--|
A|-3----3--3--3---3-----3--3--|-3----3--3--3---3-----3--3--|------3--3-------------------|
D|----------------------------|----------------------------|-----------------------------|


E|-------------|----------------------------|----------------------------|-----------------------------|
B|-------------|----------------------------|----------------------------|-6----------6---6----6-------|
G|-8-----3-----|-5----------5---5-----------|----------------------------|-5----------5---5----5----5--|
D|-8-----3-----|-5----------5---5-----------|-6----------6---6-----------|-3----------3---3----3----7--|
A|-6-----1-----|-3----3--3--3---3-----3--3--|-3----3--3--3---3-----3--3--|------3--3-------------------|
D|-------------|----------------------------|----------------------------|-----------------------------|


E|-------------|-----------------|-----------------|-----------------|-----------------|
B|-------------|-----------------|-----------------|-----------------|-----------------|
G|-8-----------|-5-----5---5-----|-----------------|-----------------|-----------------|
D|-8-----8-----|-5-----5---5-----|-6-----6---6-----|-7-----7---7-----|-6-----6---6-----|
A|-6-----5-----|-3-----3---3-----|-3-----3---3-----|-3-----3---3-----|-3-----3---3-----|
D|-------------|-----------------|-----------------|-----------------|-----------------|


E|-----------------|-----------------|--------------------------------------|--------------------|
B|-6-----6---6-----|-----------------|-------------1-2-1--------------------|--------------------|
G|-5-----5---5-----|-6-----6---6-----|-3------------------3--1--------------|--------------5-----|
D|-3-----3---3-----|-6-----6---6-----|-3------------------------3-----------|--------------5-----|
A|-3-----3---3-----|-4-----4---4-----|-1-----1--1------------------4--3--1--|-----------0--3-----|
D|-----------------|-----------------|--------------------------------------|-5----5-------------|


E|--------|--------|--------|------------|--------|--------|--------|--------|--------|
B|--------|--------|--------|------------|--------|--------|--------|--------|--------|
G|--------|--------|--------|------------|--------|--------|--------|--------|--------|
D|--------|--------|--------|------------|--------|--------|--------|--------|--------|
A|-0------|-0------|-0------|-0----------|--------|--------|--------|--------|--------|
D|-0------|-0------|-0------|-0----------|--------|--------|--------|--------|--------|


E|--------|--------|--------|--------|--------|--------|--------|--------|--------|
B|--------|--------|--------|--------|--------|--------|--------|--------|--------|
G|--------|--------|--------|--------|--------|--------|--------|--------|--------|
D|--------|--------|--------|--------|--------|--------|--------|--------|--------|
A|--------|--------|--------|--------|--------|--------|--------|--------|--------|
D|--------|--------|--------|--------|--------|--------|--------|--------|--------|


E|--------|--------|-------------------------------------------|-------------------------------------------|
B|--------|--------|-------------------------------------------|-------------------------------------------|
G|--------|--------|-------------------------------------------|-------------------------------------------|
D|--------|--------|-------------------------------------------|-------------------------------------------|
A|--------|--------|-------------------------------------------|-------------------------------------------|
D|--------|--------|-0---0---12-13-0--10-12-0--12-13-0--10-12--|-0---0---12-13-0--10-12-0--12-13-0--10-12--|


E|-------------------------------------------|------------------------------------------------|
B|-------------------------------------------|------------------------------------------------|
G|-------------------------------------------|------------------------------------------------|
D|-------------------------------------------|------------------------------------------------|
A|-------------------------------------------|------------------------------------------------|
D|-0---0---12-13-0--10-12-0--12-13-0--10-12--|-0---0---7--8--0--5--7--0--7--8--0--3--3--5--3--|


E|-------------------------------------------|-------------------------------------------|
B|-------------------------------------------|-------------------------------------------|
G|-------------------------------------------|-------------------------------------------|
D|-------------------------------------------|-------------------------------------------|
A|-------------------------------------------|-------------------------------------------|
D|-0---0---12-13-0--10-12-0--12-13-0--10-12--|-0---0---12-13-0--10-12-0--12-13-0--10-12--|


E|-------------------------------------------|-------------------------------------------|
B|-------------------------------------------|-------------------------------------------|
G|-------------------------------------------|-------------------------------------------|
D|-------------------------------------------|-------------------------------------------|
A|-------------------------------------------|-------------------------------------------|
D|-0---0---12-13-0--10-12-0--12-13-0--10-12--|-0---0---12-13-0--16-17-0--16-17-0--17-16--|


E|---------------------------------------|-------------------------------------------|
B|---------------------------------------|-------------------------------------------|
G|---------------------------------------|-------------------------------------------|
D|---------------7--8--7-----------3--2--|---------------------------------5--7--5---|
A|-0---0---7--0------------0---0---------|-5--4---0--1--0--4--5--0---5--7------------|
D|---------------------------------------|-------------------------------------------|


E|---------------------------------------|-------------------------------------------|
B|---------------------------------------|-------------------------------------------|
G|---------------------------------------|-------------------------------------------|
D|---------------7--8--7-----------3--2--|---------------------------------5--7--5---|
A|-0---0---7--0------------0---0---------|-5--4---0--1--0--4--5--0---5--7------------|
D|---------------------------------------|-------------------------------------------|


E|-------------------------------------------|-------------------------------------------|
B|-------------------------------------------|-------------------------------------------|
G|---------------6--7--6---------------------|-------------------------------------------|
D|---------5--7--7--8--7---------------3--2--|---------------------------------5--7--5---|
A|-0---0---7--8------------0-----0-----------|-5--4---0--1--0--4--5--0---5--7------------|
D|-------------------------------------------|-------------------------------------------|


E|-------------------------------------------|-------------------------------------------|
B|-------------------------------------------|-------------------------------------------|
G|---------------6--7--6---------------------|-------------------------------------------|
D|---------5--7--7--8--7---------------3--2--|---------------------------------5--7--5---|
A|-0---0---7--8------------0-----0-----------|-5--4---0--1--0--4--5--0---5--7------------|
D|-------------------------------------------|-------------------------------------------|


E|-------------------------------------------------|-------------------------------------------------|
B|-------------------------------------------------|-------------------------------------------------|
G|-------------------------------------------------|-------------------------------------------------|
D|-------------------------------------------------|-------------------------------------------7--8--|
A|-------------------------------------------------|----------------------------------5--7--8--------|
D|-5--7--8--5--8--5--7--8--5--8--5--7--8--5--3--0--|-5--7--8--5--8--5--7--8--5--7--8-----------------|


E|-------------------------------------------|-------------------------------------------|
B|-------------------------------------------|-------------------------------------------|
G|---------------6--7--6---------------------|-------------------------------------------|
D|---------5--7--7--8--7---------------3--2--|---------------------------------5--7--5---|
A|-0---0---7--8------------0-----0-----------|-5--4---0--1--0--4--5--0---5--7------------|
D|-------------------------------------------|-------------------------------------------|


E|-------------------------------------------------|-------------------------------------------------------|
B|-------------------------------------------------|-------------------------------------------------------|
G|-------------------------------------------------|-------------------------------------------------------|
D|-------------------------------------------------|-------------------------------------------5--8--6--5--|
A|-------------------------------------------------|----------------------------------5--6--8--------------|
D|-5--7--8--5--8--5--7--8--5--8--5--7--8--5--3--0--|-5--7--8--5--8--5--7--8--5--7--8-----------------------|


E|---------------------|---------------------|----------------------------|----------------------------|
B|---------------------|-6----6----6----6----|----------------------------|----------------------------|
G|-5----5----5----5----|-5----5----5----5----|-5----------5---5-----------|----------------------------|
D|-6----6----6----6----|-3----3----3----3----|-5----------5---5-----------|-6----------6---6-----------|
A|-6----6----6----6----|-3----3----3----3----|-3----3--3--3---3-----3--3--|-3----3--3--3---3-----3--3--|
D|---------------------|---------------------|----------------------------|----------------------------|


E|-----------------------------|-------------|----------------------------|----------------------------|
B|-6----------6---6----6-------|-------------|----------------------------|----------------------------|
G|-5----------5---5----5----5--|-8-----3-----|-5----------5---5-----------|----------------------------|
D|-3----------3---3----3----7--|-8-----3-----|-5----------5---5-----------|-6----------6---6-----------|
A|------3--3-------------------|-6-----1-----|-3----3--3--3---3-----3--3--|-3----3--3--3---3-----3--3--|
D|-----------------------------|-------------|----------------------------|----------------------------|


E|-----------------------------|-------------|-----------------|-----------------|
B|-6----------6---6----6-------|-------------|-----------------|-----------------|
G|-5----------5---5----5----5--|-8-----------|-5-----5---5-----|-----------------|
D|-3----------3---3----3----7--|-8-----8-----|-5-----5---5-----|-6-----6---6-----|
A|------3--3-------------------|-6-----5-----|-3-----3---3-----|-3-----3---3-----|
D|-----------------------------|-------------|-----------------|-----------------|


E|-----------------|-----------------|-----------------|-----------------|--------------------------------------|
B|-----------------|-----------------|-6-----6---6-----|-----------------|-------------1-2-1--------------------|
G|-----------------|-----------------|-5-----5---5-----|-6-----6---6-----|-3------------------3--1--------------|
D|-7-----7---7-----|-6-----6---6-----|-3-----3---3-----|-6-----6---6-----|-3------------------------3-----------|
A|-3-----3---3-----|-3-----3---3-----|-3-----3---3-----|-4-----4---4-----|-1-----1--1------------------4--3--1--|
D|-----------------|-----------------|-----------------|-----------------|--------------------------------------|


E|-------------|--------|--------|--------|--------|--------|--------|--------|--------|
B|-------------|--------|--------|--------|--------|--------|--------|--------|--------|
G|-------------|--------|--------|--------|--------|--------|--------|--------|--------|
D|-------------|-0------|-0------|-0------|-0------|--------|--------|--------|--------|
A|-------------|-0------|-0------|-0------|-0------|--------|--------|--------|--------|
D|-5-----2-----|-0------|-0------|-0------|-0------|--------|--------|--------|--------|


E|-------------------------------------|-------------------------------------|-------------------------------------|
B|---------------3---3-------1--3---3--|---------------3---3-------1--3---3--|---------------3---3-------1--3---3--|
G|---------------2---2-------2------2--|---------------2---2-------2------2--|---------------2---2-------2------2--|
D|---------------0---0-----------------|---------------0---0-----------------|---------------0---0-----------------|
A|------0--0---------------------------|------0--0---------------------------|------0--0---------------------------|
D|-0----------0----------0-------------|-0----------0----------0-------------|-0----------0----------0-------------|


E|-------------------------------------|-------------------------------------|-------------------------------------|
B|---------------3---3-------1--3---3--|---------------3---3-------1--3---3--|---------------3---3-------1--3---3--|
G|---------------2---2-------2------2--|---------------2---2-------2------2--|---------------2---2-------2------2--|
D|---------------0---0-----------------|---------------0---0-----------------|---------------0---0-----------------|
A|------0--0---------------------------|------0--0---------------------------|------0--0---------------------------|
D|-0----------0----------0-------------|-0----------0----------0-------------|-0----------0----------0-------------|


E|-------------------------------------|-------------------------------------|-------------------------------------|
B|---------------3---3-------1--3---3--|---------------3---3-------1--3---3--|---------------3---3-------1--3---3--|
G|---------------2---2-------2------2--|---------------2---2-------2------2--|---------------2---2-------2------2--|
D|---------------0---0-----------------|---------------0---0-----------------|---------------0---0-----------------|
A|------0--0---------------------------|------0--0---------------------------|------0--0---------------------------|
D|-0----------0----------0-------------|-0----------0----------0-------------|-0----------0----------0-------------|


E|-------------------------------------|-------------------------------------|-------------------------------------|
B|---------------3---3-------1--3---3--|---------------3---3-------1--3---3--|---------------3---3-------1--3---3--|
G|---------------2---2-------2------2--|---------------2---2-------2------2--|---------------2---2-------2------2--|
D|---------------0---0-----------------|---------------0---0-----------------|---------------0---0-----------------|
A|------0--0---------------------------|------0--0---------------------------|------0--0---------------------------|
D|-0----------0----------0-------------|-0----------0----------0-------------|-0----------0----------0-------------|


E|-------------------------------------|-------------------------------------|-------------------------------------|
B|---------------3---3-------1--3---3--|---------------3---3-------1--3---3--|---------------3---3-------1--3---3--|
G|---------------2---2-------2------2--|---------------2---2-------2------2--|---------------2---2-------2------2--|
D|---------------0---0-----------------|---------------0---0-----------------|---------------0---0-----------------|
A|------0--0---------------------------|------0--0---------------------------|------0--0---------------------------|
D|-0----------0----------0-------------|-0----------0----------0-------------|-0----------0----------0-------------|


E|-------------------------------------|--------------------------------|--------------------------------|
B|---------------3---3-------1--3---3--|--------------------------------|--------------------------------|
G|---------------2---2-------2------2--|--------------------------------|--------------------------------|
D|---------------0---0-----------------|--------------------------------|--------------------------------|
A|------0--0---------------------------|----------------------3--5---5--|----------------------3--5---5--|
D|-0----------0----------0-------------|-0----0---0--12---0-------------|-0----0---0--12---0-------------|


E|--------------------------------|--------------------------------|--------------------------------|
B|--------------------------------|--------------------------------|--------------------------------|
G|--------------------------------|--------------------------------|--------------------------------|
D|--------------------------------|--------------------------------|--------------------------------|
A|----------------------3--5---5--|----------------------3--5---5--|----------------------3--5---5--|
D|-0----0---0--12---0-------------|-0----0---0--12---0-------------|-0----0---0--12---0-------------|


E|--------------------------------|--------------------------------|--------------------------------|
B|--------------------------------|--------------------------------|--------------------------------|
G|--------------------------------|--------------------------------|--------------------------------|
D|--------------------------------|--------------------------------|--------------------------------|
A|----------------------3--5---5--|----------------------3--5---5--|----------------------3--5---5--|
D|-0----0---0--12---0-------------|-0----0---0--12---0-------------|-0----0---0--12---0-------------|


E|-----------------------------------------------|-----------------------------------------------|
B|-----------------------------------------------|-----------------------------------------------|
G|-----------------------------------------------|-----------------5--4--------------------------|
D|-----5-----3--5-----6-----3--5-----------------|-----5-----3--------------6--5-----------------|
A|-----------------------------------6--5--3--2--|-----------------------------------3--5--2-----|
D|-5------5--------5-----5--------5--------------|-5------5-----5-----------------5-----------6--|


E|-----------------------------------------------|-----------------------------------------------|
B|-----------------------------------------------|-----------------------------------------------|
G|-----------------------------------------------|-----------------5--4--------------------------|
D|-----5-----3--5-----6-----3--5-----------------|-----5-----3--------------6--5-----------------|
A|-----------------------------------6--5--3--2--|-----------------------------------3--5--2-----|
D|-5------5--------5-----5--------5--------------|-5------5-----5-----------------5-----------6--|


E|-----------------------------------------------|-----------------------------------------------|
B|-----------------------------------------------|-----------------------------------------------|
G|-----------------------------------------------|-----------------5--4--------------------------|
D|-----5-----3--5-----6-----3--5-----------------|-----5-----3--------------6--5-----------------|
A|-----------------------------------6--5--3--2--|-----------------------------------3--5--2-----|
D|-5------5--------5-----5--------5--------------|-5------5-----5-----------------5-----------6--|


E|-----------------------------------------------|-----------------------------------------------|
B|-----------------------------------------------|-----------------------------------------------|
G|-----------------------------------------------|-----------------5--4--------------------------|
D|-----5-----3--5-----6-----3--5-----------------|-----5-----3--------------6--5-----------------|
A|-----------------------------------6--5--3--2--|-----------------------------------3--5--2-----|
D|-5------5--------5-----5--------5--------------|-5------5-----5-----------------5-----------6--|


E|-------------------------------------------|-------------------------------------------|
B|-------------------------------------------|-------------------------------------------|
G|-------------------------------------------|-------------------------------------------|
D|-------------------------------------------|-------------------------------------------|
A|-------------------------------------------|-------------------------------------------|
D|-0---0---12-13-0--10-12-0--12-13-0--10-12--|-0---0---12-13-0--10-12-0--12-13-0--10-12--|


E|-------------------------------------------|------------------------------------------------|
B|-------------------------------------------|------------------------------------------------|
G|-------------------------------------------|------------------------------------------------|
D|-------------------------------------------|------------------------------------------------|
A|-------------------------------------------|------------------------------------------------|
D|-0---0---12-13-0--10-12-0--12-13-0--10-12--|-0---0---7--8--0--5--7--0--7--8--0--3--3--5--3--|


E|-------------------------------------------|-------------------------------------------|
B|-------------------------------------------|-------------------------------------------|
G|-------------------------------------------|-------------------------------------------|
D|-------------------------------------------|-------------------------------------------|
A|-------------------------------------------|-------------------------------------------|
D|-0---0---12-13-0--10-12-0--12-13-0--10-12--|-0---0---12-13-0--10-12-0--12-13-0--10-12--|


E|-------------------------------------------|-------------------------------------------|
B|-------------------------------------------|-------------------------------------------|
G|-------------------------------------------|-------------------------------------------|
D|-------------------------------------------|-------------------------------------------|
A|-------------------------------------------|-------------------------------------------|
D|-0---0---12-13-0--10-12-0--12-13-0--10-12--|-0---0---12-13-0--16-17-0--16-17-0--17-16--|


E|-----------------------------------------------|-----------------------------------------------|
B|-----------------------------------------------|-----------------------------------------------|
G|-----------------------------------------------|-----------------5--4--------------------------|
D|-----5-----3--5-----6-----3--5-----------------|-----5-----3--------------6--5-----------------|
A|-----------------------------------6--5--3--2--|-----------------------------------3--5--2-----|
D|-5------5--------5-----5--------5--------------|-5------5-----5-----------------5-----------6--|


E|-----------------------------------------------|-----------------------------------------------|
B|-----------------------------------------------|-----------------------------------------------|
G|-----------------------------------------------|-----------------5--4--------------------------|
D|-----5-----3--5-----6-----3--5-----------------|-----5-----3--------------6--5-----------------|
A|-----------------------------------6--5--3--2--|-----------------------------------3--5--2-----|
D|-5------5--------5-----5--------5--------------|-5------5-----5-----------------5-----------6--|


E|-----------------------------------------------|-----------------------------------------------|
B|-----------------------------------------------|-----------------------------------------------|
G|-----------------------------------------------|-----------------5--4--------------------------|
D|-----5-----3--5-----6-----3--5-----------------|-----5-----3--------------6--5-----------------|
A|-----------------------------------6--5--3--2--|-----------------------------------3--5--2-----|
D|-5------5--------5-----5--------5--------------|-5------5-----5-----------------5-----------6--|


E|-----------------------------------------------|-----------------------------------------------|
B|-----------------------------------------------|-----------------------------------------------|
G|-----------------------------------------------|-----------------5--4--------------------------|
D|-----5-----3--5-----6-----3--5-----------------|-----5-----3--------------6--5-----------------|
A|-----------------------------------6--5--3--2--|-----------------------------------3--5--2-----|
D|-5------5--------5-----5--------5--------------|-5------5-----5-----------------5-----------6--|


E|-------------------------------------------|-------------------------------------------|
B|-------------------------------------------|-------------------------------------------|
G|-------------------------------------------|-------------------------------------------|
D|---------7--8-----5--7-----7--8-----5--7---|---------7--8-----5--7-----7--8-----5--7---|
A|-0---0---------0--------0--------0---------|-0---0---------0--------0--------0---------|
D|-------------------------------------------|-------------------------------------------|


E|-------------------------------------------|------------------------------------------------|
B|-------------------------------------------|------------------------------------------------|
G|-------------------------------------------|------------------------------------------------|
D|---------7--8-----5--7-----7--8-----5--7---|------------------------------------------------|
A|-0---0---------0--------0--------0---------|-0---0---7--8--0--5--7--0--7--8--0--3--3--5--3--|
D|-------------------------------------------|------------------------------------------------|


E|-------------------------------------------|-------------------------------------------|
B|-------------------------------------------|-------------------------------------------|
G|-------------------------------------------|-------------------------------------------|
D|---------7--8-----5--7-----7--8-----5--7---|---------7--8-----5--7-----7--8-----5--7---|
A|-0---0---------0--------0--------0---------|-0---0---------0--------0--------0---------|
D|-------------------------------------------|-------------------------------------------|


E|-------------------------------------------|-------------------------------------------|
B|-------------------------------------------|-------------------------------------------|
G|-------------------------------------------|------------------6--7-----6--7-----7--6---|
D|---------7--8-----5--7-----7--8-----5--7---|---------7--8------------------------------|
A|-0---0---------0--------0--------0---------|-0---0---------0--------0--------0---------|
D|-------------------------------------------|-------------------------------------------|


E|-------------------------------------------------|-------------------------------------------------|
B|-------------------------------------------------|-------------------------------------------------|
G|-------------------------------------------------|-------------------------------------------------|
D|-------------------------------------------------|-------------------------------------------7--8--|
A|-------------------------------------------------|----------------------------------5--7--8--------|
D|-5--7--8--5--8--5--7--8--5--8--5--7--8--5--3--0--|-5--7--8--5--8--5--7--8--5--7--8-----------------|


E|-------------------------------------------|-------------------------------------------|
B|-------------------------------------------|-------------------------------------------|
G|---------------6--7--6---------------------|-------------------------------------------|
D|---------5--7--7--8--7---------------3--2--|---------------------------------5--7--5---|
A|-0---0---7--8------------0-----0-----------|-5--4---0--1--0--4--5--0---5--7------------|
D|-------------------------------------------|-------------------------------------------|


E|-------------------------------------------------|-------------------------------------------------------|
B|-------------------------------------------------|-------------------------------------------------------|
G|-------------------------------------------------|-------------------------------------------------------|
D|-------------------------------------------------|-------------------------------------------5--8--6--5--|
A|-------------------------------------------------|----------------------------------5--6--8--------------|
D|-5--7--8--5--8--5--7--8--5--8--5--7--8--5--3--0--|-5--7--8--5--8--5--7--8--5--7--8-----------------------|


E|---------------------|---------------------|----------------------------|----------------------------|
B|---------------------|-6----6----6----6----|----------------------------|----------------------------|
G|-5----5----5----5----|-5----5----5----5----|-5----------5---5-----------|----------------------------|
D|-6----6----6----6----|-3----3----3----3----|-5----------5---5-----------|-6----------6---6-----------|
A|-6----6----6----6----|-3----3----3----3----|-3----3--3--3---3-----3--3--|-3----3--3--3---3-----3--3--|
D|---------------------|---------------------|----------------------------|----------------------------|


E|-----------------------------|-------------|----------------------------|----------------------------|
B|-6----------6---6----6-------|-------------|----------------------------|----------------------------|
G|-5----------5---5----5----5--|-8-----3-----|-5----------5---5-----------|----------------------------|
D|-3----------3---3----3----7--|-8-----3-----|-5----------5---5-----------|-6----------6---6-----------|
A|------3--3-------------------|-6-----1-----|-3----3--3--3---3-----3--3--|-3----3--3--3---3-----3--3--|
D|-----------------------------|-------------|----------------------------|----------------------------|


E|-----------------------------|-------------|-----------------|-----------------|
B|-6----------6---6----6-------|-------------|-----------------|-----------------|
G|-5----------5---5----5----5--|-8-----------|-5-----5---5-----|-----------------|
D|-3----------3---3----3----7--|-8-----8-----|-5-----5---5-----|-6-----6---6-----|
A|------3--3-------------------|-6-----5-----|-3-----3---3-----|-3-----3---3-----|
D|-----------------------------|-------------|-----------------|-----------------|


E|-----------------|-----------------|-----------------|-----------------|--------------------------------------|
B|-----------------|-----------------|-6-----6---6-----|-----------------|-------------1-2-1--------------------|
G|-----------------|-----------------|-5-----5---5-----|-6-----6---6-----|-3------------------3--1--------------|
D|-7-----7---7-----|-6-----6---6-----|-3-----3---3-----|-6-----6---6-----|-3------------------------3-----------|
A|-3-----3---3-----|-3-----3---3-----|-3-----3---3-----|-4-----4---4-----|-1-----1--1------------------4--3--1--|
D|-----------------|-----------------|-----------------|-----------------|--------------------------------------|


E|-------------|-------------------------------------------|-------------------------------------------|
B|-------------|-------------------------------------------|-------------------------------------------|
G|-------------|-------------------------------------------|-------------------------------------------|
D|-------------|-------------------------------------------|-------------------------------------------|
A|-------------|-------------------------------------------|-------------------------------------------|
D|-5-----2-----|-0---0---12-13-0--10-12-0--12-13-0--10-12--|-0---0---12-13-0--10-12-0--12-13-0--10-12--|


E|-------------------------------------------|------------------------------------------------|
B|-------------------------------------------|------------------------------------------------|
G|-------------------------------------------|------------------------------------------------|
D|-------------------------------------------|------------------------------------------------|
A|-------------------------------------------|------------------------------------------------|
D|-0---0---12-13-0--10-12-0--12-13-0--10-12--|-0---0---7--8--0--5--7--0--7--8--0--3--3--5--3--|


E|-------------------------------------------|-------------------------------------------|
B|-------------------------------------------|-------------------------------------------|
G|-------------------------------------------|-------------------------------------------|
D|-------------------------------------------|-------------------------------------------|
A|-------------------------------------------|-------------------------------------------|
D|-0---0---12-13-0--10-12-0--12-13-0--10-12--|-0---0---12-13-0--10-12-0--12-13-0--10-12--|


E|-------------------------------------------|-------------------------------------------|
B|-------------------------------------------|-------------------------------------------|
G|-------------------------------------------|-------------------------------------------|
D|-------------------------------------------|-------------------------------------------|
A|-------------------------------------------|-------------------------------------------|
D|-0---0---12-13-0--10-12-0--12-13-0--10-12--|-0---0---12-13-0--16-17-0--16-17-0--17-16--|


E|--------|--------|--------|--------|--------|--------|--------|--------|--------|
B|--------|--------|--------|--------|--------|--------|--------|--------|--------|
G|--------|--------|--------|--------|--------|--------|--------|--------|--------|
D|--------|--------|--------|--------|--------|--------|--------|--------|--------|
A|--------|--------|--------|--------|--------|--------|--------|--------|--------|
D|--------|--------|--------|--------|--------|--------|--------|--------|--------|


E|--------|--------|--------|--------|--------|--------|--------|--------|--------|
B|--------|--------|--------|--------|--------|--------|--------|--------|--------|
G|--------|--------|--------|--------|--------|--------|--------|--------|--------|
D|--------|--------|--------|--------|--------|--------|--------|--------|--------|
A|--------|--------|--------|--------|--------|--------|--------|--------|--------|
D|--------|--------|--------|--------|--------|--------|--------|--------|--------|


E|--------|--------|--------|--------|--------|--------|--------|--------|--------|
B|--------|--------|--------|--------|--------|--------|--------|--------|--------|
G|--------|--------|--------|--------|--------|--------|--------|--------|--------|
D|--------|--------|--------|--------|--------|--------|--------|--------|--------|
A|--------|--------|--------|--------|--------|--------|--------|--------|--------|
D|--------|--------|--------|--------|--------|--------|--------|--------|--------|


E|--------|--------|--------|--------|--------|--------|--------|--------|--------|
B|--------|--------|--------|--------|--------|--------|--------|--------|--------|
G|--------|--------|--------|--------|--------|--------|--------|--------|--------|
D|--------|--------|--------|--------|--------|--------|--------|--------|--------|
A|--------|--------|--------|--------|--------|--------|--------|--------|--------|
D|--------|--------|--------|--------|--------|--------|--------|--------|--------|


E|--------|--------|--------|--------|--------|--------|
B|--------|--------|--------|--------|--------|--------|
G|--------|--------|--------|--------|--------|--------|
D|--------|--------|-0------|-0------|-0------|-0------|
A|--------|--------|-0------|-0------|-0------|-0------|
D|--------|--------|-0------|-0------|-0------|-0------|





Track 5: Keyboards (Jordan Rudess

E|--------|--------|--------|--------|--------|--------|--------|--------|--------|
B|--------|--------|--------|--------|--------|--------|--------|--------|--------|
G|--------|--------|--------|--------|--------|--------|--------|--------|--------|
D|--------|--------|--------|--------|--------|--------|--------|--------|--------|
A|--------|--------|--------|--------|--------|--------|--------|--------|--------|
D|--------|--------|--------|--------|--------|--------|--------|--------|--------|


E|--------|--------|--------|--------|--------|--------|--------|--------|--------|
B|--------|--------|--------|--------|--------|--------|--------|--------|--------|
G|--------|--------|--------|--------|--------|--------|--------|--------|--------|
D|--------|--------|--------|--------|--------|--------|--------|--------|--------|
A|--------|--------|--------|--------|--------|--------|--------|--------|--------|
D|--------|--------|--------|--------|--------|--------|--------|--------|--------|


E|--------|--------|--------|--------|--------|--------|--------|--------|--------|
B|--------|--------|--------|--------|--------|--------|--------|--------|--------|
G|--------|--------|--------|--------|--------|--------|--------|--------|--------|
D|--------|--------|--------|--------|--------|--------|--------|--------|--------|
A|--------|--------|--------|--------|--------|--------|--------|--------|--------|
D|--------|--------|--------|--------|--------|--------|--------|--------|--------|


E|--------|--------|--------|--------|--------|--------|--------|--------|--------|
B|--------|--------|--------|--------|--------|--------|--------|--------|--------|
G|--------|--------|--------|--------|--------|--------|--------|--------|--------|
D|--------|--------|--------|--------|--------|--------|--------|--------|--------|
A|--------|--------|--------|--------|--------|--------|--------|--------|--------|
D|--------|--------|--------|--------|--------|--------|--------|--------|--------|


E|--------|-------------------------------------------|-------------------------------------------|
B|--------|-------------------------------------------|-------------------------------------------|
G|--------|-------------------------------------------|-------------------------------------------|
D|--------|-0---0---12-13-0--10-12-0--12-13-0--10-12--|-0---0---12-13-0--10-12-0--12-13-0--10-12--|
A|--------|-------------------------------------------|-------------------------------------------|
D|--------|-------------------------------------------|-------------------------------------------|


E|-------------------------------------------|------------------------------------------------|
B|-------------------------------------------|------------------------------------------------|
G|-------------------------------------------|------------------------------------------------|
D|-0---0---12-13-0--10-12-0--12-13-0--10-12--|-0---0---7--8--0--5--7--0--7--8--0--3--3--5--3--|
A|-------------------------------------------|------------------------------------------------|
D|-------------------------------------------|------------------------------------------------|


E|-------------------------------------------|-------------------------------------------|
B|-------------------------------------------|-------------------------------------------|
G|-------------------------------------------|-------------------------------------------|
D|-0---0---12-13-0--10-12-0--12-13-0--10-12--|-0---0---12-13-0--10-12-0--12-13-0--10-12--|
A|-------------------------------------------|-------------------------------------------|
D|-------------------------------------------|-------------------------------------------|


E|-------------------------------------------|-------------------------------------------|
B|-------------------------------------------|-------------------------------------------|
G|-------------------------------------------|---------7--8-----11-12----11-12----12-----|
D|-0---0---12-13-0--10-12-0--12-13-0--10-12--|-0---0---------0--------0--------0---------|
A|-------------------------------------------|-------------------------------------------|
D|-------------------------------------------|-------------------------------------------|


E|--------|--------|--------|--------|--------|--------|--------|--------|--------|
B|--------|--------|--------|--------|--------|--------|--------|--------|--------|
G|--------|--------|--------|--------|--------|--------|--------|--------|--------|
D|--------|--------|--------|--------|--------|--------|--------|--------|--------|
A|--------|--------|--------|--------|--------|--------|--------|--------|--------|
D|--------|--------|--------|--------|--------|--------|--------|--------|--------|


E|--------|--------|--------|--------|--------|--------|--------|--------|--------|
B|--------|--------|--------|--------|--------|--------|--------|--------|--------|
G|--------|--------|--------|--------|--------|--------|--------|--------|--------|
D|--------|--------|--------|--------|--------|--------|--------|--------|--------|
A|--------|--------|--------|--------|--------|--------|--------|--------|--------|
D|--------|--------|--------|--------|--------|--------|--------|--------|--------|


E|--------|--------|-------------|-------------|-------------|------------------------|
B|--------|--------|-------------|-------------|-------7-----|-7----------------------|
G|--------|--------|-------------|-------------|-------7-----|-7----------------------|
D|--------|--------|-4------4----|-0-----0-----|-------------|------------------------|
A|--------|--------|-5------5----|-5-----5-----|-------------|------5-----5-----------|
D|--------|--------|-------------|-------------|-------------|---------5-----5--------|


E|-------------|-------------|-------------|------------------------|--------|-----------------------|
B|-------------|-------------|-------7-----|-7----------------------|--------|-----------------------|
G|-------------|-------------|-------7-----|-7----------------------|-9------|-9-----9---10------10--|
D|-4------4----|-0-----0-----|-------------|------------------------|-7------|-7-----7---8-------8---|
A|-5------5----|-5-----5-----|-------------|------5-----5-----------|--------|-----------------------|
D|-------------|-------------|-------------|---------5-----5--------|--------|-----------------------|


E|--------|---------------------|--------------------|--------|--------|---------------------|
B|--------|-10------------------|-----------10-------|--------|--------|---------------------|
G|-9------|-------9---9---------|-9-----9--------10--|-9------|-9------|-9---10----12---14---|
D|-7------|-7-----7---7---------|-7-----7------------|-7------|-7------|-7-------------------|
A|--------|---------------------|--------------------|--------|--------|---------------------|
D|--------|---------------------|--------------------|--------|--------|---------------------|


E|-----------------------|-----------------------|--------|--------|-----------------------|
B|-----------------------|-----------------------|--------|--------|-----------------------|
G|-12--12-14---15----15--|-15--15-17---19----19--|-14-----|-14-----|-12--12-14---15----15--|
D|-----------------------|-----------------------|--------|--------|-----------------------|
A|-10--10-12---13----13--|-13--13-15---17----17--|-16-----|-16-----|-10--10-12---13----13--|
D|-----------------------|-----------------------|--------|--------|-----------------------|


E|-----------------------|--------|--------|--------|--------|--------|--------|-----------------------|
B|-----------------------|--------|--------|--------|--------|--------|--------|-----------------------|
G|-15--15-17---19----19--|--------|--------|--------|--------|--------|--------|-------8----10-10--12--|
D|-----------------------|--------|--------|--------|--------|--------|--------|-------10---12-12--13--|
A|-13--13-15---17----17--|--------|--------|--------|--------|--------|--------|-----------------------|
D|-----------------------|--------|--------|--------|--------|--------|--------|-----------------------|


E|----------------------|-----------------------------|-----------------|--------|
B|----------------------|-------------9----11-11--9---|-8---------11----|--------|
G|-13---12---8----8-----|-8-----10-12-10---12-12--10--|-8----8----7-----|--------|
D|-15---10---10---10----|-10--------------------------|-8----8----8-----|--------|
A|----------------------|-----------------------------|-----------------|--------|
D|----------------------|-----------------------------|-----------------|--------|


E|--------|--------|--------|--------|--------|--------|--------|--------|--------|
B|--------|--------|--------|--------|--------|--------|--------|--------|--------|
G|--------|--------|--------|--------|--------|--------|--------|--------|--------|
D|--------|--------|--------|--------|--------|--------|--------|--------|--------|
A|--------|--------|--------|--------|--------|--------|--------|--------|--------|
D|--------|--------|--------|--------|--------|--------|--------|--------|--------|


E|--------|--------|--------|--------|--------|--------|--------|--------|--------|
B|--------|--------|--------|--------|--------|--------|--------|--------|--------|
G|--------|--------|--------|--------|--------|--------|--------|--------|--------|
D|--------|--------|--------|--------|--------|--------|--------|--------|--------|
A|--------|--------|--------|--------|--------|--------|--------|--------|--------|
D|--------|--------|--------|--------|--------|--------|--------|--------|--------|


E|--------|--------|--------|--------|--------|--------|--------|--------|--------|
B|--------|--------|--------|--------|--------|--------|--------|--------|--------|
G|--------|--------|-3------|--------|--------|--------|-3------|-5------|-7------|
D|--------|-7------|-2------|-5------|-4------|-7------|-2------|-2------|-7------|
A|--------|-5------|-5------|-3------|-5------|-5------|-5------|-5------|-5------|
D|--------|--------|--------|--------|--------|--------|--------|--------|--------|


E|--------|--------|--------|--------|--------|--------|--------|--------|--------|
B|--------|--------|--------|--------|--------|--------|--------|--------|--------|
G|--------|--------|--------|--------|--------|--------|--------|--------|--------|
D|--------|--------|--------|--------|--------|--------|--------|--------|--------|
A|--------|--------|--------|--------|--------|--------|--------|--------|--------|
D|--------|--------|--------|--------|--------|--------|--------|--------|--------|


E|--------|--------|--------|--------|--------|--------|--------|--------|--------|
B|--------|--------|--------|--------|--------|--------|--------|--------|--------|
G|--------|--------|--------|--------|--------|--------|--------|--------|--------|
D|--------|--------|--------|--------|--------|--------|--------|--------|--------|
A|--------|--------|--------|--------|--------|--------|--------|--------|--------|
D|--------|--------|--------|--------|--------|--------|--------|--------|--------|


E|--------|--------|--------|--------|--------|--------|--------|--------|--------|
B|--------|--------|--------|--------|--------|--------|--------|--------|--------|
G|--------|--------|--------|--------|--------|--------|--------|--------|--------|
D|--------|--------|--------|--------|--------|--------|--------|--------|--------|
A|--------|--------|--------|--------|--------|--------|--------|--------|--------|
D|--------|--------|--------|--------|--------|--------|--------|--------|--------|


E|--------|-----------------------|----------------------|-----------------------------|
B|--------|-----------------------|----------------------|-------------9----11-11--9---|
G|--------|-------8----10-10--12--|-13---12---8----8-----|-------10-12-10---12-12--10--|
D|--------|-------10---12-12--13--|-15---10---10---10----|-----------------------------|
A|--------|-----------------------|----------------------|-----------------------------|
D|--------|-----------------------|----------------------|-----------------------------|


E|-----------------|--------|--------|--------|--------|--------|--------|--------|
B|-8----11---11----|--------|--------|--------|--------|--------|--------|--------|
G|-8----8----7-----|--------|--------|--------|--------|--------|--------|--------|
D|-8----8----8-----|--------|--------|--------|--------|--------|--------|--------|
A|-----------------|--------|--------|--------|--------|--------|--------|--------|
D|-----------------|--------|--------|--------|--------|--------|--------|--------|


E|--------|--------|--------|--------|--------|--------|--------|--------|--------|
B|--------|--------|--------|--------|--------|--------|--------|--------|--------|
G|--------|--------|--------|--------|--------|--------|--------|--------|--------|
D|--------|--------|--------|--------|--------|--------|--------|--------|--------|
A|--------|--------|--------|--------|--------|--------|--------|--------|--------|
D|--------|--------|--------|--------|--------|--------|--------|--------|--------|


E|--------|--------|--------|--------|--------|--------|--------|--------|--------|
B|--------|--------|--------|--------|--------|--------|--------|--------|--------|
G|--------|--------|--------|--------|--------|--------|--------|--------|--------|
D|--------|--------|--------|--------|--------|--------|--------|--------|--------|
A|--------|--------|--------|--------|--------|--------|--------|--------|--------|
D|--------|--------|--------|--------|--------|--------|--------|--------|--------|


E|--------|--------|--------|--------|--------|--------|--------|--------|--------|
B|--------|--------|--------|--------|--------|--------|--------|--------|--------|
G|--------|--------|--------|--------|--------|--------|--------|--------|--------|
D|--------|--------|--------|--------|--------|--------|--------|--------|--------|
A|--------|--------|--------|--------|--------|--------|--------|--------|--------|
D|--------|--------|--------|--------|--------|--------|--------|--------|--------|


E|--------|--------|--------|--------|--------|--------|--------|--------|--------|
B|--------|--------|--------|--------|--------|--------|--------|--------|--------|
G|--------|--------|--------|--------|--------|--------|--------|--------|--------|
D|--------|--------|--------|--------|--------|--------|--------|--------|--------|
A|--------|--------|--------|--------|--------|--------|--------|--------|--------|
D|--------|--------|--------|--------|--------|--------|--------|--------|--------|


E|--------|--------|--------|--------|--------|--------|--------|--------|--------|
B|--------|--------|--------|--------|--------|--------|--------|--------|--------|
G|--------|--------|--------|--------|--------|--------|--------|--------|--------|
D|--------|--------|--------|--------|--------|--------|--------|--------|--------|
A|--------|--------|--------|--------|--------|--------|--------|--------|--------|
D|--------|--------|--------|--------|--------|--------|--------|--------|--------|


E|--------|--------|--------|--------|--------|--------|--------|--------|--------|
B|--------|--------|--------|--------|--------|--------|--------|--------|--------|
G|--------|--------|--------|--------|--------|--------|--------|--------|--------|
D|--------|--------|--------|--------|--------|--------|--------|--------|--------|
A|--------|--------|--------|--------|--------|--------|--------|--------|--------|
D|--------|--------|--------|--------|--------|--------|--------|--------|--------|


E|--------|--------|--------|--------|--------|--------|--------|--------|--------|
B|--------|--------|--------|--------|--------|--------|--------|--------|--------|
G|--------|--------|--------|--------|--------|--------|--------|--------|--------|
D|--------|--------|--------|--------|--------|--------|--------|--------|--------|
A|--------|--------|--------|--------|--------|--------|--------|--------|--------|
D|--------|--------|--------|--------|--------|--------|--------|--------|--------|


E|--------|--------|-----------------------|-----------------------|--------|--------|
B|--------|--------|-----------------------|-----------------------|--------|--------|
G|--------|--------|-12--12-14---15--15----|-15--15-17---19--19----|-14-----|-14-----|
D|--------|--------|-----------------------|-----------------------|--------|--------|
A|--------|--------|-10--10-12---13--13----|-13--13-15---17--17----|-12-----|-16-----|
D|--------|--------|-----------------------|-----------------------|--------|--------|


E|-----------------------|-----------------------|-8----10---11---13---|-15---18---20----|
B|-----------------------|-----------------------|---------------------|-----------------|
G|-12--12-14---15--15----|-15--15-17---19--19----|-5----7----8----10---|-12---15---17----|
D|-----------------------|-----------------------|---------------------|-----------------|
A|-10--10-12---13--13----|-13--13-15---17--17----|---------------------|-----------------|
D|-----------------------|-----------------------|---------------------|-----------------|


E|--------|--------|--------|--------|-----------------------|----------------------|
B|--------|--------|--------|--------|-----------------------|----------------------|
G|--------|--------|--------|--------|-------8----10-10--12--|-13---12---8----8-----|
D|--------|--------|--------|--------|-------10---12-12--13--|-15---10---10---10----|
A|--------|--------|--------|--------|-----------------------|----------------------|
D|--------|--------|--------|--------|-----------------------|----------------------|


E|-----------------------------|-----------------|--------|--------|--------|--------|
B|-------------9----11-11--9---|-8----11---11----|--------|--------|--------|--------|
G|-8-----10-12-10---12-12--10--|-8----8----7-----|--------|--------|--------|--------|
D|-10--------------------------|-8----8----8-----|--------|--------|--------|--------|
A|-----------------------------|-----------------|--------|--------|--------|--------|
D|-----------------------------|-----------------|--------|--------|--------|--------|


E|--------|--------|--------|--------|-------------------------------------------|
B|--------|--------|--------|--------|-------------------------------------------|
G|--------|--------|--------|--------|-------------------------------------------|
D|--------|--------|--------|--------|-0---0---12-13-0--10-12-0--12-13-0--10-12--|
A|--------|--------|--------|--------|-------------------------------------------|
D|--------|--------|--------|--------|-------------------------------------------|


E|-------------------------------------------|-------------------------------------------|
B|-------------------------------------------|-------------------------------------------|
G|-------------------------------------------|-------------------------------------------|
D|-0---0---12-13-0--10-12-0--12-13-0--10-12--|-0---0---12-13-0--10-12-0--12-13-0--10-12--|
A|-------------------------------------------|-------------------------------------------|
D|-------------------------------------------|-------------------------------------------|


E|------------------------------------------------|-------------------------------------------|
B|------------------------------------------------|-------------------------------------------|
G|------------------------------------------------|-------------------------------------------|
D|-0---0---7--8--0--5--7--0--7--8--0--3--3--5--3--|-0---0---12-13-0--10-12-0--12-13-0--10-12--|
A|------------------------------------------------|-------------------------------------------|
D|------------------------------------------------|-------------------------------------------|


E|-------------------------------------------|-------------------------------------------|
B|-------------------------------------------|-------------------------------------------|
G|-------------------------------------------|-------------------------------------------|
D|-0---0---12-13-0--10-12-0--12-13-0--10-12--|-0---0---12-13-0--10-12-0--12-13-0--10-12--|
A|-------------------------------------------|-------------------------------------------|
D|-------------------------------------------|-------------------------------------------|


E|-------------------------------------------|--------|--------|--------|--------|
B|-------------------------------------------|--------|--------|--------|--------|
G|---------7--8-----11-12----11-12----12-----|--------|--------|--------|--------|
D|-0---0---------0--------0--------0---------|--------|--------|--------|--------|
A|-------------------------------------------|--------|--------|--------|--------|
D|-------------------------------------------|--------|--------|--------|--------|


E|--------|--------|--------|--------|--------|--------|--------|--------|--------|
B|--------|--------|--------|--------|--------|--------|--------|--------|--------|
G|--------|--------|--------|--------|--------|--------|--------|--------|--------|
D|--------|--------|--------|--------|--------|--------|--------|--------|--------|
A|--------|--------|--------|--------|--------|--------|--------|--------|--------|
D|--------|--------|--------|--------|--------|--------|--------|--------|--------|


E|--------|--------|--------|--------|--------|--------|--------|--------|--------|
B|--------|--------|--------|--------|--------|--------|--------|--------|--------|
G|--------|--------|--------|--------|--------|--------|--------|--------|--------|
D|--------|--------|--------|--------|--------|--------|--------|--------|--------|
A|--------|--------|--------|--------|--------|--------|--------|--------|--------|
D|--------|--------|--------|--------|--------|--------|--------|--------|--------|


E|--------|--------|--------|--------|--------|--------|--------|--------|--------|
B|--------|--------|--------|--------|--------|--------|--------|--------|--------|
G|--------|--------|--------|--------|--------|--------|--------|--------|--------|
D|--------|--------|--------|--------|--------|--------|--------|--------|--------|
A|--------|--------|--------|--------|--------|--------|--------|--------|--------|
D|--------|--------|--------|--------|--------|--------|--------|--------|--------|


E|--------|--------|--------|--------|--------|--------|--------|--------|--------|
B|--------|--------|--------|--------|--------|--------|--------|--------|--------|
G|--------|--------|--------|--------|--------|--------|--------|--------|--------|
D|--------|--------|--------|--------|--------|--------|--------|--------|--------|
A|--------|--------|--------|--------|--------|--------|--------|--------|--------|
D|--------|--------|--------|--------|--------|--------|--------|--------|--------|


E|--------|--------|
B|--------|--------|
G|--------|--------|
D|--------|--------|
A|--------|--------|
D|--------|--------|





Track 6: Elec. w/dist. [centre pan] (John Petrucci)

E|--------|--------|--------|--------|--------|--------|--------|--------|--------|
B|--------|--------|--------|--------|--------|--------|--------|--------|--------|
G|--------|--------|--------|--------|--------|--------|--------|--------|--------|
D|--------|--------|--------|--------|--------|--------|--------|--------|--------|
A|--------|--------|--------|--------|--------|--------|--------|--------|--------|
D|--------|--------|--------|--------|--------|--------|--------|--------|--------|


E|--------|--------|--------|--------|--------|--------|--------|--------|--------|
B|--------|--------|--------|--------|--------|--------|--------|--------|--------|
G|--------|--------|--------|--------|--------|--------|--------|--------|--------|
D|--------|--------|--------|--------|--------|--------|--------|--------|--------|
A|--------|--------|--------|--------|--------|--------|--------|--------|--------|
D|--------|--------|--------|--------|--------|--------|--------|--------|--------|


E|--------|--------|--------|--------|--------|--------|--------|--------|--------|
B|--------|--------|--------|--------|--------|--------|--------|--------|--------|
G|--------|--------|--------|--------|--------|--------|--------|--------|--------|
D|--------|--------|--------|--------|--------|--------|--------|--------|--------|
A|--------|--------|--------|--------|--------|--------|--------|--------|--------|
D|--------|--------|--------|--------|--------|--------|--------|--------|--------|


E|--------|--------|--------|--------|--------|--------|--------|--------|--------|
B|--------|--------|--------|--------|--------|--------|--------|--------|--------|
G|--------|--------|--------|--------|--------|--------|--------|--------|--------|
D|--------|--------|--------|--------|--------|--------|--------|--------|--------|
A|--------|--------|--------|--------|--------|--------|--------|--------|--------|
D|--------|--------|--------|--------|--------|--------|--------|--------|--------|


E|--------|--------|--------|--------|--------|--------|--------|--------|--------|
B|--------|--------|--------|--------|--------|--------|--------|--------|--------|
G|--------|--------|--------|--------|--------|--------|--------|--------|--------|
D|--------|--------|--------|--------|--------|--------|--------|--------|--------|
A|--------|--------|--------|--------|--------|--------|--------|--------|--------|
D|--------|--------|--------|--------|--------|--------|--------|--------|--------|


E|--------|--------|--------|--------|--------|--------|--------|--------|--------|
B|--------|--------|--------|--------|--------|--------|--------|--------|--------|
G|--------|--------|--------|--------|--------|--------|--------|--------|--------|
D|--------|--------|--------|--------|--------|--------|--------|--------|--------|
A|--------|--------|--------|--------|--------|--------|--------|--------|--------|
D|--------|--------|--------|--------|--------|--------|--------|--------|--------|


E|--------|--------|--------|--------|--------|--------|--------|--------|--------|
B|--------|--------|--------|--------|--------|--------|--------|--------|--------|
G|--------|--------|--------|--------|--------|--------|--------|--------|--------|
D|--------|--------|--------|--------|--------|--------|--------|--------|--------|
A|--------|--------|--------|--------|--------|--------|--------|--------|--------|
D|--------|--------|--------|--------|--------|--------|--------|--------|--------|


E|--------|--------|--------|--------|--------|--------|--------|--------|--------|
B|--------|--------|--------|--------|--------|--------|--------|--------|--------|
G|--------|--------|--------|--------|--------|--------|--------|--------|--------|
D|--------|--------|--------|--------|--------|--------|--------|--------|--------|
A|--------|--------|--------|--------|--------|--------|--------|--------|--------|
D|--------|--------|--------|--------|--------|--------|--------|--------|--------|


E|--------|--------|--------|--------|--------|--------|--------|--------|--------|
B|--------|--------|--------|--------|--------|--------|--------|--------|--------|
G|--------|--------|--------|--------|--------|--------|--------|--------|--------|
D|--------|--------|--------|--------|--------|--------|--------|--------|--------|
A|--------|--------|--------|--------|--------|--------|--------|--------|--------|
D|--------|--------|--------|--------|--------|--------|--------|--------|--------|


E|--------|--------|--------|--------|--------|--------|-8----10---11---13---|-15---18---20----|
B|--------|--------|--------|--------|--------|--------|---------------------|-----------------|
G|--------|--------|--------|--------|--------|--------|-5----7----8----10---|-12---15---17----|
D|--------|--------|--------|--------|--------|--------|---------------------|-----------------|
A|--------|--------|--------|--------|--------|--------|---------------------|-----------------|
D|--------|--------|--------|--------|--------|--------|---------------------|-----------------|


E|--------|-------------|--------|--------|--------|--------|--------|--------|---------------------------------|
B|--------|-------------|--------|--------|--------|--------|--------|--------|---------------------------------|
G|--------|-17----------|--------|--------|--------|--------|--------|--------|-8---7---8-------8---7---8-------|
D|--------|-------------|--------|--------|--------|--------|--------|--------|-5-----------5---5-----------5---|
A|--------|-------------|--------|--------|--------|--------|--------|--------|---------------------------------|
D|--------|-------------|--------|--------|--------|--------|--------|--------|---------------------------------|


E|---------------------------------|---------------------------------|-------------------------------|
B|---------------------------------|---------------------------------|-------------------------------|
G|-8---7---8-------8---7---8-------|-8---7---8-------8---7---8-------|-7----------8----------10--12--|
D|-6-----------6---6-----------6---|-7-----------7---7-----------7---|-6----6--6--6----6--6----------|
A|---------------------------------|---------------------------------|-------------------------------|
D|---------------------------------|---------------------------------|-------------------------------|


E|---------------------------------|---------------------------------|--------------------------------------|
B|---------------------------------|---------------------------------|-------------1-2-1--------------------|
G|-13--12--13------13--12--13------|-13--12--13------13--12--13------|-3------------------3--1--------------|
D|-10----------10--10----------10--|-11----------11--11----------11--|-3------------------------3-----------|
A|---------------------------------|---------------------------------|-1-----1--1------------------4--3--1--|
D|---------------------------------|---------------------------------|--------------------------------------|


E|------------------------|--------------------------------------|-----------------------------------------|
B|------------------------|--------------------------------------|------------------------------------6----|
G|--------------5---------|--------------------------------------|----------------------------5-------5----|
D|--------------5---------|-------------7--------------8----8----|-------------7--------------5-------3----|
A|-----------0--3---------|-5--5--5--5--5--0--5--5--5--5----5----|-5--5--5--5--5--0--3--3--3--3----3-------|
D|-5----5------------17---|--------------------------------------|-----------------------------------------|


E|--------------------------------------|-----------------------------------------|
B|--------------------------------------|------------------------------------6----|
G|--------------------------------------|----------------------------5-------5----|
D|-------------7--------------7----7----|-------------7--------------5-------3----|
A|-5--5--5--5--5--0--5--5--5--5----5----|-5--5--5--5--5--0--3--3--3--3----3-------|
D|--------------------------------------|-----------------------------------------|


E|--------|--------|--------|--------|--------|--------|--------|--------|-------------------------------------------|
B|--------|--------|--------|--------|--------|--------|--------|--------|-------------------------------------------|
G|--------|--------|--------|--------|--------|--------|--------|--------|-------------------------------------------|
D|--------|--------|--------|--------|--------|--------|--------|--------|-------------------------------------------|
A|--------|--------|--------|--------|--------|--------|--------|--------|-------------------------------------------|
D|--------|--------|--------|--------|--------|--------|--------|--------|-0---0---12-13-0--10-12-0--12-13-0--10-12--|


E|-------------------------------------------|-------------------------------------------|
B|-------------------------------------------|-------------------------------------------|
G|-------------------------------------------|-------------------------------------------|
D|-------------------------------------------|-------------------------------------------|
A|-------------------------------------------|-------------------------------------------|
D|-0---0---12-13-0--10-12-0--12-13-0--10-12--|-0---0---12-13-0--10-12-0--12-13-0--10-12--|


E|------------------------------------------------|-------------------------------------------|
B|------------------------------------------------|-------------------------------------------|
G|------------------------------------------------|-------------------------------------------|
D|------------------------------------------------|-------------------------------------------|
A|------------------------------------------------|-------------------------------------------|
D|-0---0---7--8--0--5--7--0--7--8--0--3--3--5--3--|-0---0---12-13-0--10-12-0--12-13-0--10-12--|


E|-------------------------------------------|-------------------------------------------|
B|-------------------------------------------|-------------------------------------------|
G|-------------------------------------------|-------------------------------------------|
D|-------------------------------------------|-------------------------------------------|
A|-------------------------------------------|-------------------------------------------|
D|-0---0---12-13-0--10-12-0--12-13-0--10-12--|-0---0---12-13-0--10-12-0--12-13-0--10-12--|


E|-------------------------------------------|--------|--------|--------|--------|
B|-------------------------------------------|--------|--------|--------|--------|
G|-------------------------------------------|--------|--------|--------|--------|
D|-------------------------------------------|--------|--------|--------|--------|
A|-------------------------------------------|--------|--------|--------|--------|
D|-0---0---12-13-0--16-17-0--16-17-0--17-16--|--------|--------|--------|--------|


E|--------|--------|--------|--------|--------|--------|--------|--------|--------|
B|--------|--------|--------|--------|--------|--------|--------|--------|--------|
G|--------|--------|--------|--------|--------|--------|--------|--------|--------|
D|--------|--------|--------|--------|--------|--------|--------|--------|--------|
A|--------|--------|--------|--------|--------|--------|--------|--------|--------|
D|--------|--------|--------|--------|--------|--------|--------|--------|--------|


E|--------|--------|--------|--------|--------|--------|--------|--------|--------|
B|--------|--------|--------|--------|--------|--------|--------|--------|--------|
G|--------|--------|--------|--------|--------|--------|--------|--------|--------|
D|--------|--------|--------|--------|--------|--------|--------|--------|--------|
A|--------|--------|--------|--------|--------|--------|--------|--------|--------|
D|--------|--------|--------|--------|--------|--------|--------|--------|--------|


E|-8----10---11---13---|-15---18---20----|--------|-------------|--------|--------|
B|---------------------|-----------------|--------|-------------|--------|--------|
G|-5----7----8----10---|-12---15---17----|--------|-17----------|--------|--------|
D|---------------------|-----------------|--------|-------------|--------|--------|
A|---------------------|-----------------|--------|-------------|--------|--------|
D|---------------------|-----------------|--------|-------------|--------|--------|


E|--------|--------|--------|--------|---------------------------------|---------------------------------|
B|--------|--------|--------|--------|---------------------------------|---------------------------------|
G|--------|--------|--------|--------|-8---7---8-------8---7---8-------|-8---7---8-------8---7---8-------|
D|--------|--------|--------|--------|-5-----------5---5-----------5---|-6-----------6---6-----------6---|
A|--------|--------|--------|--------|---------------------------------|---------------------------------|
D|--------|--------|--------|--------|---------------------------------|---------------------------------|


E|---------------------------------|-------------------------------|---------------------------------|
B|---------------------------------|-------------------------------|---------------------------------|
G|-8---7---8-------8---7---8-------|-7----------8----------10--12--|-13--12--13------13--12--13------|
D|-7-----------7---7-----------7---|-6----6--6--6----6--6----------|-10----------10--10----------10--|
A|---------------------------------|-------------------------------|---------------------------------|
D|---------------------------------|-------------------------------|---------------------------------|


E|---------------------------------|--------------------------------------|-------------|
B|---------------------------------|-------------1-2-1--------------------|-------------|
G|-13--12--13------13--12--13------|-3------------------3--1--------------|-------------|
D|-11----------11--11----------11--|-3------------------------3-----------|-------------|
A|---------------------------------|-1-----1--1------------------4--3--1--|-------------|
D|---------------------------------|--------------------------------------|-5-----2-----|


E|--------|--------|--------|--------|--------|--------|--------|--------|--------|
B|--------|--------|--------|--------|--------|--------|--------|--------|--------|
G|--------|--------|--------|--------|--------|--------|--------|--------|--------|
D|--------|--------|--------|--------|--------|--------|--------|--------|--------|
A|--------|--------|--------|--------|--------|--------|--------|--------|--------|
D|--------|--------|--------|--------|--------|--------|--------|--------|--------|


E|--------|--------|--------|--------|--------|--------|--------|--------|--------|
B|--------|--------|--------|--------|--------|--------|--------|--------|--------|
G|--------|--------|--------|--------|--------|--------|--------|--------|--------|
D|--------|--------|--------|--------|--------|--------|--------|--------|--------|
A|--------|--------|--------|--------|--------|--------|--------|--------|--------|
D|--------|--------|--------|--------|--------|--------|--------|--------|--------|


E|--------|--------|--------|--------|--------|--------|--------|--------|--------|
B|--------|--------|--------|--------|--------|--------|--------|--------|--------|
G|--------|--------|--------|--------|--------|--------|--------|--------|--------|
D|--------|--------|--------|--------|--------|--------|--------|--------|--------|
A|--------|--------|--------|--------|--------|--------|--------|--------|--------|
D|--------|--------|--------|--------|--------|--------|--------|--------|--------|


E|--------|--------|--------|--------|--------|--------|--------|--------|--------|
B|--------|--------|--------|--------|--------|--------|--------|--------|--------|
G|--------|--------|--------|--------|--------|--------|--------|--------|--------|
D|--------|--------|--------|--------|--------|--------|--------|--------|--------|
A|--------|--------|--------|--------|--------|--------|--------|--------|--------|
D|--------|--------|--------|--------|--------|--------|--------|--------|--------|


E|--------|--------|--------|--------|--------|--------|--------|--------|--------|
B|--------|--------|--------|--------|--------|--------|--------|--------|--------|
G|--------|--------|--------|--------|--------|--------|--------|--------|--------|
D|--------|--------|--------|--------|--------|--------|--------|--------|--------|
A|--------|--------|--------|--------|--------|--------|--------|--------|--------|
D|--------|--------|--------|--------|--------|--------|--------|--------|--------|


E|--------|--------|--------|--------|------------------------|-----------------------------|
B|--------|--------|--------|--------|------------------------|-----------------------------|
G|--------|--------|--------|-0------|-0----7-----7---8---10--|-10--12----12--13---12-13-12-|
D|--------|--------|--------|--------|------------------------|-----------------------------|
A|--------|--------|--------|--------|------------------------|-----------------------------|
D|--------|--------|--------|--------|------------------------|-----------------------------|


E|----------------------------------|-------------11---10--8--7----|-----------10----8--10-8--7---|
B|----------------------------------|-----8---9--------------------|-8----9-----------------------|
G|-11--12--12--4---4----------------|------------------------------|------------------------------|
D|---------------------6---5-6-5----|-5----------------------------|------------------------------|
A|----------------------------------|------------------------------|------------------------------|
D|----------------------------------|------------------------------|------------------------------|


E|-7--------------13-13---13--11--13--|-15---15---1315161513161916151920191620222019|
B|-----8---8--9-----------------------|---------------------------------------------|
G|------------------------------------|---------------------------------------------|
D|------------------------------------|---------------------------------------------|
A|------------------------------------|---------------------------------------------|
D|------------------------------------|---------------------------------------------|


E|-24--24-----12-1213121210-101210-9--9-109--6--6--|-6-5-5--5-6-5-9-5-----------------------------------------------|
B|-------------------------------------------------|-------------------8-108-6-6--8--6--5--5--6--8--108---6-5---5---|
G|-------------------------------------------------|----------------------------------------------------------7---6-|
D|-------------------------------------------------|----------------------------------------------------------------|
A|-------------------------------------------------|----------------------------------------------------------------|
D|-------------------------------------------------|----------------------------------------------------------------|


E|-------------------------------------------------|-----------------------------------------------------------|
B|-------------------------------------------------|-----------------------------------------------------------|
G|-6--------7---7--7--6----------------------------|--------------------------------6-7-9--9---7-6-------------|
D|------7-5--------------7-7-5---------------------|------------------5-7-8-7-5-7-8----------------8-7-5---7-8-|
A|-----------------------------7-4--5-7-4----------|-4-5-7--7-5-4-5-7------------------------------------------|
D|----------------------------------------7-5---7--|-----------------------------------------------------------|


E|--------------------------------------------|-9-1012109---9------------------------------------------------|
B|--------------------------------------1011--|-----------11--11109-9---9------------------------------------|
G|---------10--10-10-9-1012-12--109-1012------|---------------------------1012109---1012109------------------|
D|-7----7-------------------------------------|---------------------------------------------12118------------|
A|--------------------------------------------|---------------------------------------------------12108------|
D|--------------------------------------------|---------------------------------------------------------1411-|


E|-----------------------------------------------|---------------------------------------------------------------1517|
B|-----------------------------------------------|---------------------------------------------------------141517----|
G|-----------------------------------------------|-------------------------------1214151412----------121415----------|
D|---------------------------------------------11|-12141211----------111214111214----------1412111214----------------|
A|-------------1012131210----------101213101213--|---------1312101213------------------------------------------------|
D|-11----111214----------1412111214--------------|-------------------------------------------------------------------|


E|-18----17-17-17-15-15--15-11-121110--|----------------------------------------------------------|
B|-----------------------------------13|-1110----11--10--10---------------------------------------|
G|-------------------------------------|-----1210------12--12-1210--10----------------------------|
D|-------------------------------------|--------------------------12--12--108-----1011108---------|
A|-------------------------------------|--------------------------------------108---------108-----|
D|-------------------------------------|------------------------------------------------------1210|


E|--------------------------------------13131212--------|-17---0--1718171517181715---------------------|
B|------------------------------15151414--------1514----|----------------------------------------------|
G|----------------------14141212--------------------1514|-------------------------14151412-------------|
D|--------------12121111--------------------------------|---------------------------------15141211-----|
A|------12121010----------------------------------------|-----------------------------------------12---|
D|-12---------------------------------------------------|----------------------------------------------|


E|----------------------------------------------------------20-18-17-------|-------18201815--------------------------------------|
B|----------------------------------------18-16-15-------------------20-18-|-20--20--------181518201815--------------------------|
G|----12-10-------------17-15-14-------14----------17-15-17----------------|---------------------------1817171715--------17-15---|
D|----------12-------------------17-15-------------------------------------|-------------------------------------1715------------|
A|-10----------13-10-13----------------------------------------------------|-----------------------------------------1715--------|
D|-------------------------------------------------------------------------|-----------------------------------------------------|


E|-1011108-----------------8-11108-13151311------------13151311----|-16181615----------------151816151820181618201816------------|
B|---------118-9-8-------9-----------------15111311------------1511|---------18151615------16------------------------20-18-16----|
G|-----------------108-10--------------------------1312------------|-----------------171517-----------------------------------19-|
D|-----------------------------------------------------------------|-------------------------------------------------------------|
A|-----------------------------------------------------------------|-------------------------------------------------------------|
D|-----------------------------------------------------------------|-------------------------------------------------------------|


E|--------|-------------|--------|--------|--------|--------|--------|--------|---------------------------------|
B|--------|-------------|--------|--------|--------|--------|--------|--------|---------------------------------|
G|-17-----|-17----------|--------|--------|--------|--------|--------|--------|-8---7---8-------8---7---8-------|
D|--------|-------------|--------|--------|--------|--------|--------|--------|-5-----------5---5-----------5---|
A|--------|-------------|--------|--------|--------|--------|--------|--------|---------------------------------|
D|--------|-------------|--------|--------|--------|--------|--------|--------|---------------------------------|


E|---------------------------------|---------------------------------|-------------------------------|
B|---------------------------------|---------------------------------|-------------------------------|
G|-8---7---8-------8---7---8-------|-8---7---8-------8---7---8-------|-7----------8----------10--12--|
D|-6-----------6---6-----------6---|-7-----------7---7-----------7---|-6----6--6--6----6--6----------|
A|---------------------------------|---------------------------------|-------------------------------|
D|---------------------------------|---------------------------------|-------------------------------|


E|---------------------------------|---------------------------------|------------------------------------------------|
B|---------------------------------|---------------------------------|----------------1816----18161816----------------|
G|-13--12--13------13--12--13------|-13--12--13------13--12--13------|-3----3---------1817181718171817181715----------|
D|-10----------10--10----------10--|-11----------11--11----------11--|-3----3-------------2018--------2018161813151311|
A|---------------------------------|---------------------------------|-1----1---1--1------------------------20--------|
D|---------------------------------|---------------------------------|------------------------------------------------|


E|-------------|--------|--------|--------|--------|--------|--------|--------|--------|
B|-------------|--------|--------|--------|--------|--------|--------|--------|--------|
G|-------------|--------|--------|--------|--------|--------|--------|--------|--------|
D|-------------|--------|--------|--------|--------|--------|--------|--------|--------|
A|-------------|--------|--------|--------|--------|--------|--------|--------|--------|
D|-5-----2-----|--------|--------|--------|--------|--------|--------|--------|--------|


E|--------|--------|--------|--------|--------|--------|--------|--------|----------------|
B|--------|--------|--------|--------|--------|--------|--------|--------|----------------|
G|--------|--------|--------|--------|--------|--------|--------|--------|----------------|
D|--------|--------|--------|--------|--------|--------|--------|--------|----------------|
A|--------|--------|--------|--------|--------|--------|--------|--------|----------------|
D|--------|--------|--------|--------|--------|--------|--------|--------|-0----------0---|


E|----------------|-----------------------|-----------------------|--------|--------|
B|----------------|-----------------------|-----------------------|--------|--------|
G|----------------|-----------------------|-----------------------|--------|--------|
D|----------------|-----------------------|-------13-12-10--------|--------|--------|
A|----------------|-----------------------|-----------------------|--------|--------|
D|--------0-------|-----------0-----------|-----------------------|--------|--------|


E|--------|--------|--------|--------|--------|--------|--------|--------|--------|
B|--------|--------|--------|--------|--------|--------|--------|--------|--------|
G|--------|--------|--------|--------|--------|--------|--------|--------|--------|
D|--------|--------|--------|--------|--------|--------|--------|--------|--------|
A|--------|--------|--------|--------|--------|--------|--------|--------|--------|
D|--------|--------|--------|--------|--------|--------|--------|--------|--------|


E|--------|--------|--------|--------|--------|--------|--------|--------|--------|
B|--------|--------|--------|--------|--------|--------|--------|--------|--------|
G|--------|--------|--------|--------|--------|--------|--------|--------|--------|
D|--------|--------|--------|--------|--------|--------|--------|--------|--------|
A|--------|--------|--------|--------|--------|--------|--------|--------|--------|
D|--------|--------|--------|--------|--------|--------|--------|--------|--------|


E|--------|--------|--------|--------|--------|--------|--------|--------|--------|
B|--------|--------|--------|--------|--------|--------|--------|--------|--------|
G|--------|--------|--------|--------|--------|--------|--------|--------|--------|
D|--------|--------|--------|--------|--------|--------|--------|--------|--------|
A|--------|--------|--------|--------|--------|--------|--------|--------|--------|
D|--------|--------|--------|--------|--------|--------|--------|--------|--------|


E|--------|
B|--------|
G|--------|
D|--------|
A|--------|
D|--------|





Track 7: Acoustic Guitar (John Petrucci)

E|--------|--------|--------|--------|--------|--------|--------|--------|--------|
B|--------|--------|--------|--------|--------|--------|--------|--------|--------|
G|--------|--------|--------|--------|--------|--------|--------|--------|--------|
D|--------|--------|--------|--------|--------|--------|--------|--------|--------|
A|--------|--------|--------|--------|--------|--------|--------|--------|--------|
D|--------|--------|--------|--------|--------|--------|--------|--------|--------|


E|--------|--------|--------|--------|--------|--------|--------|--------|--------|
B|--------|--------|--------|--------|--------|--------|--------|--------|--------|
G|--------|--------|--------|--------|--------|--------|--------|--------|--------|
D|--------|--------|--------|--------|--------|--------|--------|--------|--------|
A|--------|--------|--------|--------|--------|--------|--------|--------|--------|
D|--------|--------|--------|--------|--------|--------|--------|--------|--------|


E|--------|--------|--------|--------|--------|--------|--------|--------|--------|
B|--------|--------|--------|--------|--------|--------|--------|--------|--------|
G|--------|--------|--------|--------|--------|--------|--------|--------|--------|
D|--------|--------|--------|--------|--------|--------|--------|--------|--------|
A|--------|--------|--------|--------|--------|--------|--------|--------|--------|
D|--------|--------|--------|--------|--------|--------|--------|--------|--------|


E|--------|--------|--------|--------|--------|--------|--------|--------|--------|
B|--------|--------|--------|--------|--------|--------|--------|--------|--------|
G|--------|--------|--------|--------|--------|--------|--------|--------|--------|
D|--------|--------|--------|--------|--------|--------|--------|--------|--------|
A|--------|--------|--------|--------|--------|--------|--------|--------|--------|
D|--------|--------|--------|--------|--------|--------|--------|--------|--------|


E|--------|--------|--------|--------|--------|--------|--------|--------|--------|
B|--------|--------|--------|--------|--------|--------|--------|--------|--------|
G|--------|--------|--------|--------|--------|--------|--------|--------|--------|
D|--------|--------|--------|--------|--------|--------|--------|--------|--------|
A|--------|--------|--------|--------|--------|--------|--------|--------|--------|
D|--------|--------|--------|--------|--------|--------|--------|--------|--------|


E|--------|--------|--------|--------|--------|--------|--------|--------|--------|
B|--------|--------|--------|--------|--------|--------|--------|--------|--------|
G|--------|--------|--------|--------|--------|--------|--------|--------|--------|
D|--------|--------|--------|--------|--------|--------|--------|--------|--------|
A|--------|--------|--------|--------|--------|--------|--------|--------|--------|
D|--------|--------|--------|--------|--------|--------|--------|--------|--------|


E|--------|--------|--------|--------|--------|--------|--------|--------|--------|
B|--------|--------|--------|--------|--------|--------|--------|--------|--------|
G|--------|--------|--------|--------|--------|--------|--------|--------|--------|
D|--------|--------|--------|--------|--------|--------|--------|--------|--------|
A|--------|--------|--------|--------|--------|--------|--------|--------|--------|
D|--------|--------|--------|--------|--------|--------|--------|--------|--------|


E|--------|--------|--------|--------|--------|--------|--------|--------|--------|
B|--------|--------|--------|--------|--------|--------|--------|--------|--------|
G|--------|--------|--------|--------|--------|--------|--------|--------|--------|
D|--------|--------|--------|--------|--------|--------|--------|--------|--------|
A|--------|--------|--------|--------|--------|--------|--------|--------|--------|
D|--------|--------|--------|--------|--------|--------|--------|--------|--------|


E|--------|--------|--------|--------|--------|--------|--------|--------|--------|
B|--------|--------|--------|--------|--------|--------|--------|--------|--------|
G|--------|--------|--------|--------|--------|--------|--------|--------|--------|
D|--------|--------|--------|--------|--------|--------|--------|--------|--------|
A|--------|--------|--------|--------|--------|--------|--------|--------|--------|
D|--------|--------|--------|--------|--------|--------|--------|--------|--------|


E|--------|--------|--------|--------|--------|--------|-----------------------------------------------------------------|
B|--------|--------|--------|--------|--------|--------|---------------------------------------8-9-119-8-----------8-9-11|
G|--------|--------|--------|--------|--------|--------|-------7-8-108-7-----------7-8-107-8-10----------108-7-8-10------|
D|--------|--------|--------|--------|--------|--------|-6-8-10----------108-6-8-10--------------------------------------|
A|--------|--------|--------|--------|--------|--------|-----------------------------------------------------------------|
D|--------|--------|--------|--------|--------|--------|-----------------------------------------------------------------|


E|-------8-1011108-131110151311----------111315131118201816--------|--------|--------|
B|-8-9-11----------------------1513111315------------------201816--|--------|--------|
G|---------------------------------------------------------------19|--------|--------|
D|-----------------------------------------------------------------|--------|--------|
A|-----------------------------------------------------------------|--------|--------|
D|-----------------------------------------------------------------|--------|--------|


E|--------|--------|--------|--------|--------|--------|--------|--------|--------|
B|--------|--------|--------|--------|--------|--------|--------|--------|--------|
G|--------|--------|--------|--------|--------|--------|--------|--------|--------|
D|--------|--------|--------|--------|--------|--------|--------|--------|--------|
A|--------|--------|--------|--------|--------|--------|--------|--------|--------|
D|--------|--------|--------|--------|--------|--------|--------|--------|--------|


E|--------|--------|--------|--------|--------|--------|--------|--------|--------|
B|--------|--------|--------|--------|--------|--------|--------|--------|--------|
G|--------|--------|--------|--------|--------|--------|--------|--------|--------|
D|--------|--------|--------|--------|--------|--------|--------|--------|--------|
A|--------|--------|--------|--------|--------|--------|--------|--------|--------|
D|--------|--------|--------|--------|--------|--------|--------|--------|--------|


E|--------|--------|--------|--------|--------|--------|--------|--------|--------|
B|--------|--------|--------|--------|--------|--------|--------|--------|--------|
G|--------|--------|--------|--------|--------|--------|--------|--------|--------|
D|--------|--------|--------|--------|--------|--------|--------|--------|--------|
A|--------|--------|--------|--------|--------|--------|--------|--------|--------|
D|--------|--------|--------|--------|--------|--------|--------|--------|--------|


E|--------|--------|--------|--------|--------|--------|--------|--------|--------|
B|--------|--------|--------|--------|--------|--------|--------|--------|--------|
G|--------|--------|--------|--------|--------|--------|--------|--------|--------|
D|--------|--------|--------|--------|--------|--------|--------|--------|--------|
A|--------|--------|--------|--------|--------|--------|--------|--------|--------|
D|--------|--------|--------|--------|--------|--------|--------|--------|--------|


E|--------|--------|--------|--------|--------|--------|--------|--------|--------|
B|--------|--------|--------|--------|--------|--------|--------|--------|--------|
G|--------|--------|--------|--------|--------|--------|--------|--------|--------|
D|--------|--------|--------|--------|--------|--------|--------|--------|--------|
A|--------|--------|--------|--------|--------|--------|--------|--------|--------|
D|--------|--------|--------|--------|--------|--------|--------|--------|--------|


E|--------|--------|--------|--------|--------|--------|--------|--------|--------|
B|--------|--------|--------|--------|--------|--------|--------|--------|--------|
G|--------|--------|--------|--------|--------|--------|--------|--------|--------|
D|--------|--------|--------|--------|--------|--------|--------|--------|--------|
A|--------|--------|--------|--------|--------|--------|--------|--------|--------|
D|--------|--------|--------|--------|--------|--------|--------|--------|--------|


E|--------|--------|--------|--------|--------|--------|--------|--------|--------|
B|--------|--------|--------|--------|--------|--------|--------|--------|--------|
G|--------|--------|--------|--------|--------|--------|--------|--------|--------|
D|--------|--------|--------|--------|--------|--------|--------|--------|--------|
A|--------|--------|--------|--------|--------|--------|--------|--------|--------|
D|--------|--------|--------|--------|--------|--------|--------|--------|--------|


E|--------|--------|--------|--------|--------|--------|--------|--------|--------|
B|--------|--------|--------|--------|--------|--------|--------|--------|--------|
G|--------|--------|--------|--------|--------|--------|--------|--------|--------|
D|--------|--------|--------|--------|--------|--------|--------|--------|--------|
A|--------|--------|--------|--------|--------|--------|--------|--------|--------|
D|--------|--------|--------|--------|--------|--------|--------|--------|--------|


E|--------|--------|--------|--------|--------|--------|--------|--------|--------|
B|--------|--------|--------|--------|--------|--------|--------|--------|--------|
G|--------|--------|--------|--------|--------|--------|--------|--------|--------|
D|--------|--------|--------|--------|--------|--------|--------|--------|--------|
A|--------|--------|--------|--------|--------|--------|--------|--------|--------|
D|--------|--------|--------|--------|--------|--------|--------|--------|--------|


E|--------|--------|--------|--------|--------|--------|--------|--------|--------|
B|--------|--------|--------|--------|--------|--------|--------|--------|--------|
G|--------|--------|--------|--------|--------|--------|--------|--------|--------|
D|--------|--------|--------|--------|--------|--------|--------|--------|--------|
A|--------|--------|--------|--------|--------|--------|--------|--------|--------|
D|--------|--------|--------|--------|--------|--------|--------|--------|--------|


E|--------|--------|--------|--------|--------|--------|--------|--------|--------|
B|--------|--------|--------|--------|--------|--------|--------|--------|--------|
G|--------|--------|--------|--------|--------|--------|--------|--------|--------|
D|--------|--------|--------|--------|--------|--------|--------|--------|--------|
A|--------|--------|--------|--------|--------|--------|--------|--------|--------|
D|--------|--------|--------|--------|--------|--------|--------|--------|--------|


E|--------|--------|--------|--------|--------|--------|--------|--------|--------|
B|--------|--------|--------|--------|--------|--------|--------|--------|--------|
G|--------|--------|--------|--------|--------|--------|--------|--------|--------|
D|--------|--------|--------|--------|--------|--------|--------|--------|--------|
A|--------|--------|--------|--------|--------|--------|--------|--------|--------|
D|--------|--------|--------|--------|--------|--------|--------|--------|--------|


E|--------|--------|--------|--------|--------|--------|--------|--------|--------|
B|--------|--------|--------|--------|--------|--------|--------|--------|--------|
G|--------|--------|--------|--------|--------|--------|--------|--------|--------|
D|--------|--------|--------|--------|--------|--------|--------|--------|--------|
A|--------|--------|--------|--------|--------|--------|--------|--------|--------|
D|--------|--------|--------|--------|--------|--------|--------|--------|--------|


E|--------|--------|--------|--------|--------|--------|--------|--------|--------|
B|--------|--------|--------|--------|--------|--------|--------|--------|--------|
G|--------|--------|--------|--------|--------|--------|--------|--------|--------|
D|--------|--------|--------|--------|--------|--------|--------|--------|--------|
A|--------|--------|--------|--------|--------|--------|--------|--------|--------|
D|--------|--------|--------|--------|--------|--------|--------|--------|--------|


E|--------|--------|--------|--------|--------|--------|--------|--------|--------|
B|--------|--------|--------|--------|--------|--------|--------|--------|--------|
G|--------|--------|--------|--------|--------|--------|--------|--------|--------|
D|--------|--------|--------|--------|--------|--------|--------|--------|--------|
A|--------|--------|--------|--------|--------|--------|--------|--------|--------|
D|--------|--------|--------|--------|--------|--------|--------|--------|--------|


E|--------|--------|--------|--------|--------|--------|--------|--------|--------|
B|--------|--------|--------|--------|--------|--------|--------|--------|--------|
G|--------|--------|--------|--------|--------|--------|--------|--------|--------|
D|--------|--------|--------|--------|--------|--------|--------|--------|--------|
A|--------|--------|--------|--------|--------|--------|--------|--------|--------|
D|--------|--------|--------|--------|--------|--------|--------|--------|--------|


E|--------|--------|--------|--------|--------|--------|--------|--------|--------|
B|--------|--------|--------|--------|--------|--------|--------|--------|--------|
G|--------|--------|--------|--------|--------|--------|--------|--------|--------|
D|--------|--------|--------|--------|--------|--------|--------|--------|--------|
A|--------|--------|--------|--------|--------|--------|--------|--------|--------|
D|--------|--------|--------|--------|--------|--------|--------|--------|--------|


E|--------|--------|--------|--------|--------|--------|--------|--------|--------|
B|--------|--------|--------|--------|--------|--------|--------|--------|--------|
G|--------|--------|--------|--------|--------|--------|--------|--------|--------|
D|--------|--------|--------|--------|--------|--------|--------|--------|--------|
A|--------|--------|--------|--------|--------|--------|--------|--------|--------|
D|--------|--------|--------|--------|--------|--------|--------|--------|--------|


E|--------|--------|--------|--------|--------|--------|--------|--------|--------|
B|--------|--------|--------|--------|--------|--------|--------|--------|--------|
G|--------|--------|--------|--------|--------|--------|--------|--------|--------|
D|--------|--------|--------|--------|--------|--------|--------|--------|--------|
A|--------|--------|--------|--------|--------|--------|--------|--------|--------|
D|--------|--------|--------|--------|--------|--------|--------|--------|--------|


E|--------|--------|--------|--------|--------|--------|--------|--------|--------|
B|--------|--------|--------|--------|--------|--------|--------|--------|--------|
G|--------|--------|--------|--------|--------|--------|--------|--------|--------|
D|--------|--------|--------|--------|--------|--------|--------|--------|--------|
A|--------|--------|--------|--------|--------|--------|--------|--------|--------|
D|--------|--------|--------|--------|--------|--------|--------|--------|--------|


E|--------|--------|--------|--------|--------|--------|--------|--------|--------|
B|--------|--------|--------|--------|--------|--------|--------|--------|--------|
G|--------|--------|--------|--------|--------|--------|--------|--------|--------|
D|--------|--------|--------|--------|--------|--------|--------|--------|--------|
A|--------|--------|--------|--------|--------|--------|--------|--------|--------|
D|--------|--------|--------|--------|--------|--------|--------|--------|--------|


E|--------|--------|--------|--------|--------|--------|--------|--------|--------|
B|--------|--------|--------|--------|--------|--------|--------|--------|--------|
G|--------|--------|--------|--------|--------|--------|--------|--------|--------|
D|--------|--------|--------|--------|--------|--------|--------|--------|--------|
A|--------|--------|--------|--------|--------|--------|--------|--------|--------|
D|--------|--------|--------|--------|--------|--------|--------|--------|--------|


E|--------|--------|--------|--------|--------|--------|--------|--------|--------|
B|--------|--------|--------|--------|--------|--------|--------|--------|--------|
G|--------|--------|--------|--------|--------|--------|--------|--------|--------|
D|--------|--------|--------|--------|--------|--------|--------|--------|--------|
A|--------|--------|--------|--------|--------|--------|--------|--------|--------|
D|--------|--------|--------|--------|--------|--------|--------|--------|--------|


E|--------|--------|--------|--------|--------|
B|--------|--------|--------|--------|--------|
G|--------|--------|--------|--------|--------|
D|--------|--------|--------|--------|--------|
A|--------|--------|--------|--------|--------|
D|--------|--------|--------|--------|--------|





Track 8: Acoustic Guitar (John Petrucci)

E|--------|--------|--------|--------|--------|--------|--------|--------|--------|
B|--------|--------|--------|--------|--------|--------|--------|--------|--------|
G|--------|--------|--------|--------|--------|--------|--------|--------|--------|
D|--------|--------|--------|--------|--------|--------|--------|--------|--------|
A|--------|--------|--------|--------|--------|--------|--------|--------|--------|
D|--------|--------|--------|--------|--------|--------|--------|--------|--------|


E|--------|--------|--------|--------|--------|--------|--------|--------|--------|
B|--------|--------|--------|--------|--------|--------|--------|--------|--------|
G|--------|--------|--------|--------|--------|--------|--------|--------|--------|
D|--------|--------|--------|--------|--------|--------|--------|--------|--------|
A|--------|--------|--------|--------|--------|--------|--------|--------|--------|
D|--------|--------|--------|--------|--------|--------|--------|--------|--------|


E|--------|--------|--------|--------|--------|--------|--------|--------|--------|
B|--------|--------|--------|--------|--------|--------|--------|--------|--------|
G|--------|--------|--------|--------|--------|--------|--------|--------|--------|
D|--------|--------|--------|--------|--------|--------|--------|--------|--------|
A|--------|--------|--------|--------|--------|--------|--------|--------|--------|
D|--------|--------|--------|--------|--------|--------|--------|--------|--------|


E|--------|--------|--------|--------|--------|--------|--------|--------|--------|
B|--------|--------|--------|--------|--------|--------|--------|--------|--------|
G|--------|--------|--------|--------|--------|--------|--------|--------|--------|
D|--------|--------|--------|--------|--------|--------|--------|--------|--------|
A|--------|--------|--------|--------|--------|--------|--------|--------|--------|
D|--------|--------|--------|--------|--------|--------|--------|--------|--------|


E|--------|--------|--------|--------|--------|--------|--------|--------|--------|
B|--------|--------|--------|--------|--------|--------|--------|--------|--------|
G|--------|--------|--------|--------|--------|--------|--------|--------|--------|
D|--------|--------|--------|--------|--------|--------|--------|--------|--------|
A|--------|--------|--------|--------|--------|--------|--------|--------|--------|
D|--------|--------|--------|--------|--------|--------|--------|--------|--------|


E|--------|--------|--------|--------|--------|--------|--------|--------|--------|
B|--------|--------|--------|--------|--------|--------|--------|--------|--------|
G|--------|--------|--------|--------|--------|--------|--------|--------|--------|
D|--------|--------|--------|--------|--------|--------|--------|--------|--------|
A|--------|--------|--------|--------|--------|--------|--------|--------|--------|
D|--------|--------|--------|--------|--------|--------|--------|--------|--------|


E|--------|--------|--------|--------|--------|--------|--------|--------|--------|
B|--------|--------|--------|--------|--------|--------|--------|--------|--------|
G|--------|--------|--------|--------|--------|--------|--------|--------|--------|
D|--------|--------|--------|--------|--------|--------|--------|--------|--------|
A|--------|--------|--------|--------|--------|--------|--------|--------|--------|
D|--------|--------|--------|--------|--------|--------|--------|--------|--------|


E|--------|--------|--------|--------|--------|--------|--------|--------|--------|
B|--------|--------|--------|--------|--------|--------|--------|--------|--------|
G|--------|--------|--------|--------|--------|--------|--------|--------|--------|
D|--------|--------|--------|--------|--------|--------|--------|--------|--------|
A|--------|--------|--------|--------|--------|--------|--------|--------|--------|
D|--------|--------|--------|--------|--------|--------|--------|--------|--------|


E|--------|--------|--------|--------|--------|--------|--------|--------|--------|
B|--------|--------|--------|--------|--------|--------|--------|--------|--------|
G|--------|--------|--------|--------|--------|--------|--------|--------|--------|
D|--------|--------|--------|--------|--------|--------|--------|--------|--------|
A|--------|--------|--------|--------|--------|--------|--------|--------|--------|
D|--------|--------|--------|--------|--------|--------|--------|--------|--------|


E|--------|--------|--------|--------|--------|--------|--------|--------|--------|
B|--------|--------|--------|--------|--------|--------|--------|--------|--------|
G|--------|--------|--------|--------|--------|--------|--------|--------|--------|
D|--------|--------|--------|--------|--------|--------|--------|--------|--------|
A|--------|--------|--------|--------|--------|--------|--------|--------|--------|
D|--------|--------|--------|--------|--------|--------|--------|--------|--------|


E|--------|--------|--------|--------|--------|--------|--------|--------|--------|
B|--------|--------|--------|--------|--------|--------|--------|--------|--------|
G|--------|--------|--------|--------|--------|--------|--------|--------|--------|
D|--------|--------|--------|--------|--------|--------|--------|--------|--------|
A|--------|--------|--------|--------|--------|--------|--------|--------|--------|
D|--------|--------|--------|--------|--------|--------|--------|--------|--------|


E|--------|--------|--------|--------|--------|--------|--------|--------|--------|
B|--------|--------|--------|--------|--------|--------|--------|--------|--------|
G|--------|--------|--------|--------|--------|--------|--------|--------|--------|
D|--------|--------|--------|--------|--------|--------|--------|--------|--------|
A|--------|--------|--------|--------|--------|--------|--------|--------|--------|
D|--------|--------|--------|--------|--------|--------|--------|--------|--------|


E|--------|--------|--------|--------|--------|--------|--------|--------|--------|
B|--------|--------|--------|--------|--------|--------|--------|--------|--------|
G|--------|--------|--------|--------|--------|--------|--------|--------|--------|
D|--------|--------|--------|--------|--------|--------|--------|--------|--------|
A|--------|--------|--------|--------|--------|--------|--------|--------|--------|
D|--------|--------|--------|--------|--------|--------|--------|--------|--------|


E|--------|--------|--------|--------|--------|--------|--------|--------|--------|
B|--------|--------|--------|--------|--------|--------|--------|--------|--------|
G|--------|--------|--------|--------|--------|--------|--------|--------|--------|
D|--------|--------|--------|--------|--------|--------|--------|--------|--------|
A|--------|--------|--------|--------|--------|--------|--------|--------|--------|
D|--------|--------|--------|--------|--------|--------|--------|--------|--------|


E|--------|--------|--------|--------|--------|--------|--------|--------|--------|
B|--------|--------|--------|--------|--------|--------|--------|--------|--------|
G|--------|--------|--------|--------|--------|--------|--------|--------|--------|
D|--------|--------|--------|--------|--------|--------|--------|--------|--------|
A|--------|--------|--------|--------|--------|--------|--------|--------|--------|
D|--------|--------|--------|--------|--------|--------|--------|--------|--------|


E|--------|--------|--------|--------|--------|--------|--------|--------|--------|
B|--------|--------|--------|--------|--------|--------|--------|--------|--------|
G|--------|--------|--------|--------|--------|--------|--------|--------|--------|
D|--------|--------|--------|--------|--------|--------|--------|--------|--------|
A|--------|--------|--------|--------|--------|--------|--------|--------|--------|
D|--------|--------|--------|--------|--------|--------|--------|--------|--------|


E|--------|--------|--------|--------|--------|--------|--------|--------|--------|
B|--------|--------|--------|--------|--------|--------|--------|--------|--------|
G|--------|--------|--------|--------|--------|--------|--------|--------|--------|
D|--------|--------|--------|--------|--------|--------|--------|--------|--------|
A|--------|--------|--------|--------|--------|--------|--------|--------|--------|
D|--------|--------|--------|--------|--------|--------|--------|--------|--------|


E|--------|--------|--------|--------|--------|--------|--------|--------|--------|
B|--------|--------|--------|--------|--------|--------|--------|--------|--------|
G|--------|--------|--------|--------|--------|--------|--------|--------|--------|
D|--------|--------|--------|--------|--------|--------|--------|--------|--------|
A|--------|--------|--------|--------|--------|--------|--------|--------|--------|
D|--------|--------|--------|--------|--------|--------|--------|--------|--------|


E|--------|--------|--------|--------|--------|--------|--------|--------|--------|
B|--------|--------|--------|--------|--------|--------|--------|--------|--------|
G|--------|--------|--------|--------|--------|--------|--------|--------|--------|
D|--------|--------|--------|--------|--------|--------|--------|--------|--------|
A|--------|--------|--------|--------|--------|--------|--------|--------|--------|
D|--------|--------|--------|--------|--------|--------|--------|--------|--------|


E|--------|--------|--------|--------|--------|--------|--------|--------|--------|
B|--------|--------|--------|--------|--------|--------|--------|--------|--------|
G|--------|--------|--------|--------|--------|--------|--------|--------|--------|
D|--------|--------|--------|--------|--------|--------|--------|--------|--------|
A|--------|--------|--------|--------|--------|--------|--------|--------|--------|
D|--------|--------|--------|--------|--------|--------|--------|--------|--------|


E|--------|--------|--------|--------|--------|--------|--------|--------|--------|
B|--------|--------|--------|--------|--------|--------|--------|--------|--------|
G|--------|--------|--------|--------|--------|--------|--------|--------|--------|
D|--------|--------|--------|--------|--------|--------|--------|--------|--------|
A|--------|--------|--------|--------|--------|--------|--------|--------|--------|
D|--------|--------|--------|--------|--------|--------|--------|--------|--------|


E|--------|--------|--------|--------|--------|--------|--------|--------|--------|
B|--------|--------|--------|--------|--------|--------|--------|--------|--------|
G|--------|--------|--------|--------|--------|--------|--------|--------|--------|
D|--------|--------|--------|--------|--------|--------|--------|--------|--------|
A|--------|--------|--------|--------|--------|--------|--------|--------|--------|
D|--------|--------|--------|--------|--------|--------|--------|--------|--------|


E|--------|--------|--------|--------|--------|--------|--------|--------|--------|
B|--------|--------|--------|--------|--------|--------|--------|--------|--------|
G|--------|--------|--------|--------|--------|--------|--------|--------|--------|
D|--------|--------|--------|--------|--------|--------|--------|--------|--------|
A|--------|--------|--------|--------|--------|--------|--------|--------|--------|
D|--------|--------|--------|--------|--------|--------|--------|--------|--------|


E|--------|--------|--------|--------|--------|--------|--------|--------|--------|
B|--------|--------|--------|--------|--------|--------|--------|--------|--------|
G|--------|--------|--------|--------|--------|--------|--------|--------|--------|
D|--------|--------|--------|--------|--------|--------|--------|--------|--------|
A|--------|--------|--------|--------|--------|--------|--------|--------|--------|
D|--------|--------|--------|--------|--------|--------|--------|--------|--------|


E|--------|--------|--------|--------|--------|--------|--------|--------|--------|
B|--------|--------|--------|--------|--------|--------|--------|--------|--------|
G|--------|--------|--------|--------|--------|--------|--------|--------|--------|
D|--------|--------|--------|--------|--------|--------|--------|--------|--------|
A|--------|--------|--------|--------|--------|--------|--------|--------|--------|
D|--------|--------|--------|--------|--------|--------|--------|--------|--------|


E|--------|--------|--------|--------|--------|--------|--------|--------|--------|
B|--------|--------|--------|--------|--------|--------|--------|--------|--------|
G|--------|--------|--------|--------|--------|--------|--------|--------|--------|
D|--------|--------|--------|--------|--------|--------|--------|--------|--------|
A|--------|--------|--------|--------|--------|--------|--------|--------|--------|
D|--------|--------|--------|--------|--------|--------|--------|--------|--------|


E|--------|--------|--------|--------|--------|--------|--------|--------|--------|
B|--------|--------|--------|--------|--------|--------|--------|--------|--------|
G|--------|--------|--------|--------|--------|--------|--------|--------|--------|
D|--------|--------|--------|--------|--------|--------|--------|--------|--------|
A|--------|--------|--------|--------|--------|--------|--------|--------|--------|
D|--------|--------|--------|--------|--------|--------|--------|--------|--------|


E|--------|--------|--------|--------|--------|--------|--------|--------|--------|
B|--------|--------|--------|--------|--------|--------|--------|--------|--------|
G|--------|--------|--------|--------|--------|--------|--------|--------|--------|
D|--------|--------|--------|--------|--------|--------|--------|--------|--------|
A|--------|--------|--------|--------|--------|--------|--------|--------|--------|
D|--------|--------|--------|--------|--------|--------|--------|--------|--------|


E|--------|--------|--------|--------|--------|--------|--------|--------|--------|
B|--------|--------|--------|--------|--------|--------|--------|--------|--------|
G|--------|--------|--------|--------|--------|--------|--------|--------|--------|
D|--------|--------|--------|--------|--------|--------|--------|--------|--------|
A|--------|--------|--------|--------|--------|--------|--------|--------|--------|
D|--------|--------|--------|--------|--------|--------|--------|--------|--------|


E|--------|--------|--------|--------|--------|--------|--------|--------|--------|
B|--------|--------|--------|--------|--------|--------|--------|--------|--------|
G|--------|--------|--------|--------|--------|--------|--------|--------|--------|
D|--------|--------|--------|--------|--------|--------|--------|--------|--------|
A|--------|--------|--------|--------|--------|--------|--------|--------|--------|
D|--------|--------|--------|--------|--------|--------|--------|--------|--------|


E|--------|--------|--------|--------|--------|--------|--------|--------|--------|
B|--------|--------|--------|--------|--------|--------|--------|--------|--------|
G|--------|--------|--------|--------|--------|--------|--------|--------|--------|
D|--------|--------|--------|--------|--------|--------|--------|--------|--------|
A|--------|--------|--------|--------|--------|--------|--------|--------|--------|
D|--------|--------|--------|--------|--------|--------|--------|--------|--------|


E|--------|--------|--------|--------|--------|--------|--------|--------|--------|
B|--------|--------|--------|--------|--------|--------|--------|--------|--------|
G|--------|--------|--------|--------|--------|--------|--------|--------|--------|
D|--------|--------|--------|--------|--------|--------|--------|--------|--------|
A|--------|--------|--------|--------|--------|--------|--------|--------|--------|
D|--------|--------|--------|--------|--------|--------|--------|--------|--------|


E|--------|--------|--------|--------|--------|--------|--------|--------|--------|
B|--------|--------|--------|--------|--------|--------|--------|--------|--------|
G|--------|--------|--------|--------|--------|--------|--------|--------|--------|
D|--------|--------|--------|--------|--------|--------|--------|--------|--------|
A|--------|--------|--------|--------|--------|--------|--------|--------|--------|
D|--------|--------|--------|--------|--------|--------|--------|--------|--------|


E|--------|--------|--------|--------|--------|--------|
B|--------|--------|--------|--------|--------|--------|
G|--------|--------|--------|--------|--------|--------|
D|--------|--------|--------|--------|--------|--------|
A|--------|--------|--------|--------|--------|--------|
D|--------|--------|--------|--------|--------|--------|





Track 9: Acoustic Guitar (John Petrucci)

E|--------|--------|--------|--------|--------|--------|--------|--------|--------|
B|--------|--------|--------|--------|--------|--------|--------|--------|--------|
G|--------|--------|--------|--------|--------|--------|--------|--------|--------|
D|--------|--------|--------|--------|--------|--------|--------|--------|--------|
A|--------|--------|--------|--------|--------|--------|--------|--------|--------|
D|--------|--------|--------|--------|--------|--------|--------|--------|--------|


E|--------|--------|--------|--------|--------|--------|--------|--------|--------|
B|--------|--------|--------|--------|--------|--------|--------|--------|--------|
G|--------|--------|--------|--------|--------|--------|--------|--------|--------|
D|--------|--------|--------|--------|--------|--------|--------|--------|--------|
A|--------|--------|--------|--------|--------|--------|--------|--------|--------|
D|--------|--------|--------|--------|--------|--------|--------|--------|--------|


E|--------|--------|--------|--------|--------|--------|--------|--------|--------|
B|--------|--------|--------|--------|--------|--------|--------|--------|--------|
G|--------|--------|--------|--------|--------|--------|--------|--------|--------|
D|--------|--------|--------|--------|--------|--------|--------|--------|--------|
A|--------|--------|--------|--------|--------|--------|--------|--------|--------|
D|--------|--------|--------|--------|--------|--------|--------|--------|--------|


E|--------|--------|--------|--------|--------|--------|--------|--------|--------|
B|--------|--------|--------|--------|--------|--------|--------|--------|--------|
G|--------|--------|--------|--------|--------|--------|--------|--------|--------|
D|--------|--------|--------|--------|--------|--------|--------|--------|--------|
A|--------|--------|--------|--------|--------|--------|--------|--------|--------|
D|--------|--------|--------|--------|--------|--------|--------|--------|--------|


E|--------|--------|--------|--------|--------|--------|--------|--------|--------|
B|--------|--------|--------|--------|--------|--------|--------|--------|--------|
G|--------|--------|--------|--------|--------|--------|--------|--------|--------|
D|--------|--------|--------|--------|--------|--------|--------|--------|--------|
A|--------|--------|--------|--------|--------|--------|--------|--------|--------|
D|--------|--------|--------|--------|--------|--------|--------|--------|--------|


E|--------|--------|--------|--------|--------|--------|--------|--------|--------|
B|--------|--------|--------|--------|--------|--------|--------|--------|--------|
G|--------|--------|--------|--------|--------|--------|--------|--------|--------|
D|--------|--------|--------|--------|--------|--------|--------|--------|--------|
A|--------|--------|--------|--------|--------|--------|--------|--------|--------|
D|--------|--------|--------|--------|--------|--------|--------|--------|--------|


E|--------|--------|--------|--------|--------|--------|--------|--------|--------|
B|--------|--------|--------|--------|--------|--------|--------|--------|--------|
G|--------|--------|--------|--------|--------|--------|--------|--------|--------|
D|--------|--------|--------|--------|--------|--------|--------|--------|--------|
A|--------|--------|--------|--------|--------|--------|--------|--------|--------|
D|--------|--------|--------|--------|--------|--------|--------|--------|--------|


E|--------|--------|--------|--------|--------|--------|--------|--------|--------|
B|--------|--------|--------|--------|--------|--------|--------|--------|--------|
G|--------|--------|--------|--------|--------|--------|--------|--------|--------|
D|--------|--------|--------|--------|--------|--------|--------|--------|--------|
A|--------|--------|--------|--------|--------|--------|--------|--------|--------|
D|--------|--------|--------|--------|--------|--------|--------|--------|--------|


E|--------|--------|--------|--------|--------|--------|--------|--------|--------|
B|--------|--------|--------|--------|--------|--------|--------|--------|--------|
G|--------|--------|--------|--------|--------|--------|--------|--------|--------|
D|--------|--------|--------|--------|--------|--------|--------|--------|--------|
A|--------|--------|--------|--------|--------|--------|--------|--------|--------|
D|--------|--------|--------|--------|--------|--------|--------|--------|--------|


E|--------|--------|--------|--------|--------|--------|--------|--------|--------|
B|--------|--------|--------|--------|--------|--------|--------|--------|--------|
G|--------|--------|--------|--------|--------|--------|--------|--------|-17-----|
D|--------|--------|--------|--------|--------|--------|--------|--------|--------|
A|--------|--------|--------|--------|--------|--------|--------|--------|--------|
D|--------|--------|--------|--------|--------|--------|--------|--------|--------|


E|--------|--------|--------|--------|--------|--------|--------|--------|--------|
B|--------|--------|--------|--------|--------|--------|--------|--------|--------|
G|--------|--------|--------|--------|--------|--------|--------|--------|--------|
D|--------|--------|--------|--------|--------|--------|--------|--------|--------|
A|--------|--------|--------|--------|--------|--------|--------|--------|--------|
D|--------|--------|--------|--------|--------|--------|--------|--------|--------|


E|--------|--------|--------|--------|--------|--------|--------|--------|--------|
B|--------|--------|--------|--------|--------|--------|--------|--------|--------|
G|--------|--------|--------|--------|--------|--------|--------|--------|--------|
D|--------|--------|--------|--------|--------|--------|--------|--------|--------|
A|--------|--------|--------|--------|--------|--------|--------|--------|--------|
D|--------|--------|--------|--------|--------|--------|--------|--------|--------|


E|--------|--------|--------|--------|--------|--------|--------|--------|--------|
B|--------|--------|--------|--------|--------|--------|--------|--------|--------|
G|--------|--------|--------|--------|--------|--------|--------|--------|--------|
D|--------|--------|--------|--------|--------|--------|--------|--------|--------|
A|--------|--------|--------|--------|--------|--------|--------|--------|--------|
D|--------|--------|--------|--------|--------|--------|--------|--------|--------|


E|--------|--------|--------|--------|--------|--------|--------|--------|--------|
B|--------|--------|--------|--------|--------|--------|--------|--------|--------|
G|--------|--------|--------|--------|--------|--------|--------|--------|--------|
D|--------|--------|--------|--------|--------|--------|--------|--------|--------|
A|--------|--------|--------|--------|--------|--------|--------|--------|--------|
D|--------|--------|--------|--------|--------|--------|--------|--------|--------|


E|--------|--------|--------|--------|--------|--------|--------|--------|--------|
B|--------|--------|--------|--------|--------|--------|--------|--------|--------|
G|--------|--------|--------|--------|--------|--------|--------|--------|--------|
D|--------|--------|--------|--------|--------|--------|--------|--------|--------|
A|--------|--------|--------|--------|--------|--------|--------|--------|--------|
D|--------|--------|--------|--------|--------|--------|--------|--------|--------|


E|--------|--------|--------|--------|--------|--------|--------|--------|--------|
B|--------|--------|--------|--------|--------|--------|--------|--------|--------|
G|--------|--------|--------|--------|--------|--------|--------|--------|--------|
D|--------|--------|--------|--------|--------|--------|--------|--------|--------|
A|--------|--------|--------|--------|--------|--------|--------|--------|--------|
D|--------|--------|--------|--------|--------|--------|--------|--------|--------|


E|--------|--------|--------|--------|--------|--------|--------|--------|--------|
B|--------|--------|--------|--------|--------|--------|--------|--------|--------|
G|--------|--------|--------|--------|--------|--------|--------|--------|--------|
D|--------|--------|--------|--------|--------|--------|--------|--------|--------|
A|--------|--------|--------|--------|--------|--------|--------|--------|--------|
D|--------|--------|--------|--------|--------|--------|--------|--------|--------|


E|--------|--------|--------|--------|--------|--------|--------|--------|--------|
B|--------|--------|--------|--------|--------|--------|--------|--------|--------|
G|--------|--------|--------|--------|--------|--------|--------|--------|--------|
D|--------|--------|--------|--------|--------|--------|--------|--------|--------|
A|--------|--------|--------|--------|--------|--------|--------|--------|--------|
D|--------|--------|--------|--------|--------|--------|--------|--------|--------|


E|--------|--------|--------|--------|--------|--------|--------|--------|--------|
B|--------|--------|--------|--------|--------|--------|--------|--------|--------|
G|--------|--------|--------|--------|--------|--------|--------|--------|--------|
D|--------|--------|--------|--------|--------|--------|--------|--------|--------|
A|--------|--------|--------|--------|--------|--------|--------|--------|--------|
D|--------|--------|--------|--------|--------|--------|--------|--------|--------|


E|--------|--------|--------|--------|--------|--------|--------|--------|--------|
B|--------|--------|--------|--------|--------|--------|--------|--------|--------|
G|--------|--------|--------|--------|--------|--------|--------|--------|--------|
D|--------|--------|--------|--------|--------|--------|--------|--------|--------|
A|--------|--------|--------|--------|--------|--------|--------|--------|--------|
D|--------|--------|--------|--------|--------|--------|--------|--------|--------|


E|--------|--------|--------|--------|--------|--------|--------|--------|--------|
B|--------|--------|--------|--------|--------|--------|--------|--------|--------|
G|--------|--------|--------|--------|--------|--------|--------|--------|--------|
D|--------|--------|--------|--------|--------|--------|--------|--------|--------|
A|--------|--------|--------|--------|--------|--------|--------|--------|--------|
D|--------|--------|--------|--------|--------|--------|--------|--------|--------|


E|--------|--------|--------|--------|--------|--------|--------|--------|--------|
B|--------|--------|--------|--------|--------|--------|--------|--------|--------|
G|--------|--------|--------|--------|--------|--------|--------|--------|--------|
D|--------|--------|--------|--------|--------|--------|--------|--------|--------|
A|--------|--------|--------|--------|--------|--------|--------|--------|--------|
D|--------|--------|--------|--------|--------|--------|--------|--------|--------|


E|--------|--------|--------|--------|--------|--------|--------|--------|--------|
B|--------|--------|--------|--------|--------|--------|--------|--------|--------|
G|--------|--------|--------|--------|--------|--------|--------|--------|--------|
D|--------|--------|--------|--------|--------|--------|--------|--------|--------|
A|--------|--------|--------|--------|--------|--------|--------|--------|--------|
D|--------|--------|--------|--------|--------|--------|--------|--------|--------|


E|--------|--------|--------|--------|--------|--------|--------|--------|--------|
B|--------|--------|--------|--------|--------|--------|--------|--------|--------|
G|--------|--------|--------|--------|--------|--------|--------|--------|--------|
D|--------|--------|--------|--------|--------|--------|--------|--------|--------|
A|--------|--------|--------|--------|--------|--------|--------|--------|--------|
D|--------|--------|--------|--------|--------|--------|--------|--------|--------|


E|--------|--------|--------|--------|--------|--------|--------|--------|--------|
B|--------|--------|--------|--------|--------|--------|--------|--------|--------|
G|--------|--------|--------|--------|--------|--------|--------|--------|--------|
D|--------|--------|--------|--------|--------|--------|--------|--------|--------|
A|--------|--------|--------|--------|--------|--------|--------|--------|--------|
D|--------|--------|--------|--------|--------|--------|--------|--------|--------|


E|--------|--------|--------|--------|--------|--------|--------|--------|--------|
B|--------|--------|--------|--------|--------|--------|--------|--------|--------|
G|--------|--------|--------|--------|--------|--------|--------|--------|--------|
D|--------|--------|--------|--------|--------|--------|--------|--------|--------|
A|--------|--------|--------|--------|--------|--------|--------|--------|--------|
D|--------|--------|--------|--------|--------|--------|--------|--------|--------|


E|--------|--------|--------|--------|--------|--------|--------|--------|--------|
B|--------|--------|--------|--------|--------|--------|--------|--------|--------|
G|--------|--------|--------|--------|--------|--------|--------|--------|--------|
D|--------|--------|--------|--------|--------|--------|--------|--------|--------|
A|--------|--------|--------|--------|--------|--------|--------|--------|--------|
D|--------|--------|--------|--------|--------|--------|--------|--------|--------|


E|--------|--------|--------|--------|--------|--------|--------|--------|--------|
B|--------|--------|--------|--------|--------|--------|--------|--------|--------|
G|--------|--------|--------|--------|--------|--------|--------|--------|--------|
D|--------|--------|--------|--------|--------|--------|--------|--------|--------|
A|--------|--------|--------|--------|--------|--------|--------|--------|--------|
D|--------|--------|--------|--------|--------|--------|--------|--------|--------|


E|--------|--------|--------|--------|--------|--------|--------|--------|--------|
B|--------|--------|--------|--------|--------|--------|--------|--------|--------|
G|--------|--------|--------|--------|--------|--------|--------|--------|--------|
D|--------|--------|--------|--------|--------|--------|--------|--------|--------|
A|--------|--------|--------|--------|--------|--------|--------|--------|--------|
D|--------|--------|--------|--------|--------|--------|--------|--------|--------|


E|--------|--------|--------|--------|--------|--------|--------|--------|--------|
B|--------|--------|--------|--------|--------|--------|--------|--------|--------|
G|--------|--------|--------|--------|--------|--------|--------|--------|--------|
D|--------|--------|--------|--------|--------|--------|--------|--------|--------|
A|--------|--------|--------|--------|--------|--------|--------|--------|--------|
D|--------|--------|--------|--------|--------|--------|--------|--------|--------|


E|--------|--------|--------|--------|--------|--------|--------|--------|--------|
B|--------|--------|--------|--------|--------|--------|--------|--------|--------|
G|--------|--------|--------|--------|--------|--------|--------|--------|--------|
D|--------|--------|--------|--------|--------|--------|--------|--------|--------|
A|--------|--------|--------|--------|--------|--------|--------|--------|--------|
D|--------|--------|--------|--------|--------|--------|--------|--------|--------|


E|--------|--------|--------|--------|--------|--------|--------|--------|--------|
B|--------|--------|--------|--------|--------|--------|--------|--------|--------|
G|--------|--------|--------|--------|--------|--------|--------|--------|--------|
D|--------|--------|--------|--------|--------|--------|--------|--------|--------|
A|--------|--------|--------|--------|--------|--------|--------|--------|--------|
D|--------|--------|--------|--------|--------|--------|--------|--------|--------|


E|--------|--------|--------|--------|--------|--------|--------|--------|--------|
B|--------|--------|--------|--------|--------|--------|--------|--------|--------|
G|--------|--------|--------|--------|--------|--------|--------|--------|--------|
D|--------|--------|--------|--------|--------|--------|--------|--------|--------|
A|--------|--------|--------|--------|--------|--------|--------|--------|--------|
D|--------|--------|--------|--------|--------|--------|--------|--------|--------|


E|--------|--------|--------|--------|--------|--------|
B|--------|--------|--------|--------|--------|--------|
G|--------|--------|--------|--------|--------|--------|
D|--------|--------|--------|--------|--------|--------|
A|--------|--------|--------|--------|--------|--------|
D|--------|--------|--------|--------|--------|--------|





Track 10: Acoustic Guitar (John Petrucci)

E|--------|--------|--------|--------|--------|--------|--------|--------|--------|
B|--------|--------|--------|--------|--------|--------|--------|--------|--------|
G|--------|--------|--------|--------|--------|--------|--------|--------|--------|
D|--------|--------|--------|--------|--------|--------|--------|--------|--------|
A|--------|--------|--------|--------|--------|--------|--------|--------|--------|
D|--------|--------|--------|--------|--------|--------|--------|--------|--------|


E|--------|--------|--------|--------|--------|--------|--------|--------|--------|
B|--------|--------|--------|--------|--------|--------|--------|--------|--------|
G|--------|--------|--------|--------|--------|--------|--------|--------|--------|
D|--------|--------|--------|--------|--------|--------|--------|--------|--------|
A|--------|--------|--------|--------|--------|--------|--------|--------|--------|
D|--------|--------|--------|--------|--------|--------|--------|--------|--------|


E|--------|--------|--------|--------|--------|--------|--------|--------|--------|
B|--------|--------|--------|--------|--------|--------|--------|--------|--------|
G|--------|--------|--------|--------|--------|--------|--------|--------|--------|
D|--------|--------|--------|--------|--------|--------|--------|--------|--------|
A|--------|--------|--------|--------|--------|--------|--------|--------|--------|
D|--------|--------|--------|--------|--------|--------|--------|--------|--------|


E|--------|--------|--------|--------|--------|--------|--------|--------|--------|
B|--------|--------|--------|--------|--------|--------|--------|--------|--------|
G|--------|--------|--------|--------|--------|--------|--------|--------|--------|
D|--------|--------|--------|--------|--------|--------|--------|--------|--------|
A|--------|--------|--------|--------|--------|--------|--------|--------|--------|
D|--------|--------|--------|--------|--------|--------|--------|--------|--------|


E|--------|--------|--------|--------|--------|--------|--------|--------|--------|
B|--------|--------|--------|--------|--------|--------|--------|--------|--------|
G|--------|--------|--------|--------|--------|--------|--------|--------|--------|
D|--------|--------|--------|--------|--------|--------|--------|--------|--------|
A|--------|--------|--------|--------|--------|--------|--------|--------|--------|
D|--------|--------|--------|--------|--------|--------|--------|--------|--------|


E|--------|--------|--------|--------|--------|--------|--------|--------|--------|
B|--------|--------|--------|--------|--------|--------|--------|--------|--------|
G|--------|--------|--------|--------|--------|--------|--------|--------|--------|
D|--------|--------|--------|--------|--------|--------|--------|--------|--------|
A|--------|--------|--------|--------|--------|--------|--------|--------|--------|
D|--------|--------|--------|--------|--------|--------|--------|--------|--------|


E|--------|--------|--------|--------|--------|--------|--------|--------|--------|
B|--------|--------|--------|--------|--------|--------|--------|--------|--------|
G|--------|--------|--------|--------|--------|--------|--------|--------|--------|
D|--------|--------|--------|--------|--------|--------|--------|--------|--------|
A|--------|--------|--------|--------|--------|--------|--------|--------|--------|
D|--------|--------|--------|--------|--------|--------|--------|--------|--------|


E|--------|--------|--------|--------|--------|--------|--------|--------|--------|
B|--------|--------|--------|--------|--------|--------|--------|--------|--------|
G|--------|--------|--------|--------|--------|--------|--------|--------|--------|
D|--------|--------|--------|--------|--------|--------|--------|--------|--------|
A|--------|--------|--------|--------|--------|--------|--------|--------|--------|
D|--------|--------|--------|--------|--------|--------|--------|--------|--------|


E|--------|--------|--------|--------|--------|--------|--------|--------|--------|
B|--------|--------|--------|--------|--------|--------|--------|--------|--------|
G|--------|--------|--------|--------|--------|--------|--------|--------|--------|
D|--------|--------|--------|--------|--------|--------|--------|--------|--------|
A|--------|--------|--------|--------|--------|--------|--------|--------|--------|
D|--------|--------|--------|--------|--------|--------|--------|--------|--------|


E|--------|--------|--------|--------|--------|--------|--------|--------|--------|
B|--------|--------|--------|--------|--------|--------|--------|--------|--------|
G|--------|--------|--------|--------|--------|--------|--------|--------|--------|
D|--------|--------|--------|--------|--------|--------|--------|--------|--------|
A|--------|--------|--------|--------|--------|--------|--------|--------|--------|
D|--------|--------|--------|--------|--------|--------|--------|--------|--------|


E|--------|--------|--------|--------|--------|--------|--------|--------|--------|
B|--------|--------|--------|--------|--------|--------|--------|--------|--------|
G|--------|--------|--------|--------|--------|--------|--------|--------|--------|
D|--------|--------|--------|--------|--------|--------|--------|--------|--------|
A|--------|--------|--------|--------|--------|--------|--------|--------|--------|
D|--------|--------|--------|--------|--------|--------|--------|--------|--------|


E|--------|--------|--------|--------|--------|--------|--------|--------|--------|
B|--------|--------|--------|--------|--------|--------|--------|--------|--------|
G|--------|--------|--------|--------|--------|--------|--------|--------|--------|
D|--------|--------|--------|--------|--------|--------|--------|--------|--------|
A|--------|--------|--------|--------|--------|--------|--------|--------|--------|
D|--------|--------|--------|--------|--------|--------|--------|--------|--------|


E|--------|--------|--------|--------|--------|--------|--------|--------|--------|
B|--------|--------|--------|--------|--------|--------|--------|--------|--------|
G|--------|--------|--------|--------|--------|--------|--------|--------|--------|
D|--------|--------|--------|--------|--------|--------|--------|--------|--------|
A|--------|--------|--------|--------|--------|--------|--------|--------|--------|
D|--------|--------|--------|--------|--------|--------|--------|--------|--------|


E|--------|--------|--------|--------|--------|--------|--------|--------|--------|
B|--------|--------|--------|--------|--------|--------|--------|--------|--------|
G|--------|--------|--------|--------|--------|--------|--------|--------|--------|
D|--------|--------|--------|--------|--------|--------|--------|--------|-7------|
A|--------|--------|--------|--------|--------|--------|--------|--------|-5------|
D|--------|--------|--------|--------|--------|--------|--------|--------|--------|


E|--------|-------------|--------|--------|--------|--------|--------|--------|-----------------------|
B|--------|-------------|--------|--------|--------|--------|--------|--------|-----------------------|
G|-3------|--------3----|--------|--------|-5------|-3------|-7------|-9------|-9-----9---10------10--|
D|-2------|-5-----------|-7------|-7------|--------|--------|-7------|-7------|-7-----7---8-------8---|
A|-5------|-5------5----|-5------|-5------|-5------|-5------|-5------|--------|-----------------------|
D|--------|-------------|--------|--------|--------|--------|--------|--------|-----------------------|


E|--------|---------------------|--------------------|--------|--------|---------------------|
B|--------|-10------------------|-----------10-------|--------|--------|---------------------|
G|-9------|-------9---9---------|-9-----9--------10--|-9------|-9------|-9---10----12---14---|
D|-7------|-7-----7---7---------|-7-----7------------|-7------|-7------|-7-------------------|
A|--------|---------------------|--------------------|--------|--------|---------------------|
D|--------|---------------------|--------------------|--------|--------|---------------------|


E|-----------------------|-----------------------|--------|--------|-----------------------|
B|-----------------------|-----------------------|--------|--------|-----------------------|
G|-12--12-14---15----15--|-15--15-17---19----19--|-14-----|-14-----|-12--12-14---15----15--|
D|-----------------------|-----------------------|--------|--------|-----------------------|
A|-10--10-12---13----13--|-13--13-15---17----17--|-16-----|-16-----|-10--10-12---13----13--|
D|-----------------------|-----------------------|--------|--------|-----------------------|


E|-----------------------|--------|--------|--------|--------|--------|--------|--------|
B|-----------------------|--------|--------|--------|--------|--------|--------|--------|
G|-15--15-17---19----19--|--------|--------|--------|--------|--------|--------|--------|
D|-----------------------|--------|--------|--------|--------|--------|--------|--------|
A|-13--13-15---17----17--|--------|--------|--------|--------|--------|--------|--------|
D|-----------------------|--------|--------|--------|--------|--------|--------|--------|


E|--------|--------|--------|--------|--------|--------|--------|--------|--------|
B|--------|--------|--------|--------|--------|--------|--------|--------|--------|
G|--------|--------|--------|--------|--------|--------|--------|--------|--------|
D|--------|--------|--------|--------|--------|--------|--------|--------|--------|
A|--------|--------|--------|--------|--------|--------|--------|--------|--------|
D|--------|--------|--------|--------|--------|--------|--------|--------|--------|


E|--------|--------|--------|--------|--------|--------|--------|--------|--------|
B|--------|--------|--------|--------|--------|--------|--------|--------|--------|
G|--------|--------|--------|--------|--------|--------|--------|--------|--------|
D|--------|--------|--------|--------|--------|--------|--------|--------|--------|
A|--------|--------|--------|--------|--------|--------|--------|--------|--------|
D|--------|--------|--------|--------|--------|--------|--------|--------|--------|


E|--------|--------|--------|--------|--------|--------|--------|--------|--------|
B|--------|--------|--------|--------|--------|--------|--------|--------|--------|
G|--------|--------|--------|--------|--------|--------|--------|--------|--------|
D|--------|--------|--------|--------|--------|--------|--------|--------|--------|
A|--------|--------|--------|--------|--------|--------|--------|--------|--------|
D|--------|--------|--------|--------|--------|--------|--------|--------|--------|


E|--------|--------|--------|--------|--------|--------|--------|--------|--------|
B|--------|--------|--------|--------|--------|--------|--------|--------|--------|
G|--------|--------|--------|--------|--------|--------|--------|--------|--------|
D|--------|--------|--------|--------|--------|--------|--------|--------|--------|
A|--------|--------|--------|--------|--------|--------|--------|--------|--------|
D|--------|--------|--------|--------|--------|--------|--------|--------|--------|


E|--------|--------|--------|--------|--------|--------|--------|--------|--------|
B|--------|--------|--------|--------|--------|--------|--------|--------|--------|
G|--------|--------|--------|--------|--------|--------|--------|--------|--------|
D|--------|--------|--------|--------|--------|--------|--------|--------|--------|
A|--------|--------|--------|--------|--------|--------|--------|--------|--------|
D|--------|--------|--------|--------|--------|--------|--------|--------|--------|


E|--------|--------|--------|--------|--------|--------|--------|--------|--------|
B|--------|--------|--------|--------|--------|--------|--------|--------|--------|
G|--------|--------|--------|--------|--------|--------|--------|--------|--------|
D|--------|--------|--------|--------|--------|--------|--------|--------|--------|
A|--------|--------|--------|--------|--------|--------|--------|--------|--------|
D|--------|--------|--------|--------|--------|--------|--------|--------|--------|


E|--------|--------|--------|--------|--------|--------|--------|--------|--------|
B|--------|--------|--------|--------|--------|--------|--------|--------|--------|
G|--------|--------|--------|--------|--------|--------|--------|--------|--------|
D|--------|--------|--------|--------|--------|--------|--------|--------|--------|
A|--------|--------|--------|--------|--------|--------|--------|--------|--------|
D|--------|--------|--------|--------|--------|--------|--------|--------|--------|


E|--------|--------|--------|--------|--------|--------|--------|--------|--------|
B|--------|--------|--------|--------|--------|--------|--------|--------|--------|
G|--------|--------|--------|--------|--------|--------|--------|--------|--------|
D|--------|--------|--------|--------|--------|--------|--------|--------|--------|
A|--------|--------|--------|--------|--------|--------|--------|--------|--------|
D|--------|--------|--------|--------|--------|--------|--------|--------|--------|


E|--------|--------|--------|--------|--------|--------|--------|--------|--------|
B|--------|--------|--------|--------|--------|--------|--------|--------|--------|
G|--------|--------|--------|--------|--------|--------|--------|--------|--------|
D|--------|--------|--------|--------|--------|--------|--------|--------|--------|
A|--------|--------|--------|--------|--------|--------|--------|--------|--------|
D|--------|--------|--------|--------|--------|--------|--------|--------|--------|


E|--------|--------|--------|--------|--------|--------|--------|--------|--------|
B|--------|--------|--------|--------|--------|--------|--------|--------|--------|
G|--------|--------|--------|--------|--------|--------|--------|--------|--------|
D|--------|--------|--------|--------|--------|--------|--------|--------|--------|
A|--------|--------|--------|--------|--------|--------|--------|--------|--------|
D|--------|--------|--------|--------|--------|--------|--------|--------|--------|


E|--------|--------|--------|--------|--------|--------|--------|--------|--------|
B|--------|--------|--------|--------|--------|--------|--------|--------|--------|
G|--------|--------|--------|--------|--------|--------|--------|--------|--------|
D|--------|--------|--------|--------|--------|--------|--------|--------|--------|
A|--------|--------|--------|--------|--------|--------|--------|--------|--------|
D|--------|--------|--------|--------|--------|--------|--------|--------|--------|


E|--------|--------|--------|--------|--------|--------|--------|--------|--------|
B|--------|--------|--------|--------|--------|--------|--------|--------|--------|
G|--------|--------|--------|--------|--------|--------|--------|--------|--------|
D|--------|--------|--------|--------|--------|--------|--------|--------|--------|
A|--------|--------|--------|--------|--------|--------|--------|--------|--------|
D|--------|--------|--------|--------|--------|--------|--------|--------|--------|


E|--------|--------|--------|--------|--------|--------|--------|--------|--------|
B|--------|--------|--------|--------|--------|--------|--------|--------|--------|
G|--------|--------|--------|--------|--------|--------|--------|--------|--------|
D|--------|--------|--------|--------|--------|--------|--------|--------|--------|
A|--------|--------|--------|--------|--------|--------|--------|--------|--------|
D|--------|--------|--------|--------|--------|--------|--------|--------|--------|


E|--------|--------|--------|--------|--------|--------|--------|--------|--------|
B|--------|--------|--------|--------|--------|--------|--------|--------|--------|
G|--------|--------|--------|--------|--------|--------|--------|--------|--------|
D|--------|--------|--------|--------|--------|--------|--------|--------|--------|
A|--------|--------|--------|--------|--------|--------|--------|--------|--------|
D|--------|--------|--------|--------|--------|--------|--------|--------|--------|


E|--------|--------|--------|--------|--------|--------|--------|--------|--------|
B|--------|--------|--------|--------|--------|--------|--------|--------|--------|
G|--------|--------|--------|--------|--------|--------|--------|--------|--------|
D|--------|--------|--------|--------|--------|--------|--------|--------|--------|
A|--------|--------|--------|--------|--------|--------|--------|--------|--------|
D|--------|--------|--------|--------|--------|--------|--------|--------|--------|


E|--------|--------|--------|--------|--------|--------|--------|--------|--------|
B|--------|--------|--------|--------|--------|--------|--------|--------|--------|
G|--------|--------|--------|--------|--------|--------|--------|--------|--------|
D|--------|--------|--------|--------|--------|--------|--------|--------|--------|
A|--------|--------|--------|--------|--------|--------|--------|--------|--------|
D|--------|--------|--------|--------|--------|--------|--------|--------|--------|


E|--------|--------|--------|--------|--------|
B|--------|--------|--------|--------|--------|
G|--------|--------|--------|--------|--------|
D|--------|--------|--------|--------|--------|
A|--------|--------|--------|--------|--------|
D|--------|--------|--------|--------|--------|





Track 11: Acoustic Guitar (John Petrucci)

E|--------|--------|--------|--------|--------|--------|--------|--------|--------|
B|--------|--------|--------|--------|--------|--------|--------|--------|--------|
G|--------|--------|--------|--------|--------|--------|--------|--------|--------|
D|--------|--------|--------|--------|--------|--------|--------|--------|--------|
A|--------|--------|--------|--------|--------|--------|--------|--------|--------|
D|--------|--------|--------|--------|--------|--------|--------|--------|--------|


E|--------|--------|--------|--------|--------|--------|--------|--------|--------|
B|--------|--------|--------|--------|--------|--------|--------|--------|--------|
G|--------|--------|--------|--------|--------|--------|--------|--------|--------|
D|--------|--------|--------|--------|--------|--------|--------|--------|--------|
A|--------|--------|--------|--------|--------|--------|--------|--------|--------|
D|--------|--------|--------|--------|--------|--------|--------|--------|--------|


E|--------|--------|--------|--------|--------|--------|--------|--------|--------|
B|--------|--------|--------|--------|--------|--------|--------|--------|--------|
G|--------|--------|--------|--------|--------|--------|--------|--------|--------|
D|--------|--------|--------|--------|--------|--------|--------|--------|--------|
A|--------|--------|--------|--------|--------|--------|--------|--------|--------|
D|--------|--------|--------|--------|--------|--------|--------|--------|--------|


E|--------|--------|--------|--------|--------|--------|--------|--------|--------|
B|--------|--------|--------|--------|--------|--------|--------|--------|--------|
G|--------|--------|--------|--------|--------|--------|--------|--------|--------|
D|--------|--------|--------|--------|--------|--------|--------|--------|--------|
A|--------|--------|--------|--------|--------|--------|--------|--------|--------|
D|--------|--------|--------|--------|--------|--------|--------|--------|--------|


E|--------|--------|--------|--------|--------|--------|--------|--------|--------|
B|--------|--------|--------|--------|--------|--------|--------|--------|--------|
G|--------|--------|--------|--------|--------|--------|--------|--------|--------|
D|--------|--------|--------|--------|--------|--------|--------|--------|--------|
A|--------|--------|--------|--------|--------|--------|--------|--------|--------|
D|--------|--------|--------|--------|--------|--------|--------|--------|--------|


E|--------|--------|--------|--------|--------|--------|--------|--------|--------|
B|--------|--------|--------|--------|--------|--------|--------|--------|--------|
G|--------|--------|--------|--------|--------|--------|--------|--------|--------|
D|--------|--------|--------|--------|--------|--------|--------|--------|--------|
A|--------|--------|--------|--------|--------|--------|--------|--------|--------|
D|--------|--------|--------|--------|--------|--------|--------|--------|--------|


E|--------|--------|--------|--------|--------|--------|--------|--------|--------|
B|--------|--------|--------|--------|--------|--------|--------|--------|--------|
G|--------|--------|--------|--------|--------|--------|--------|--------|--------|
D|--------|--------|--------|--------|--------|--------|--------|--------|--------|
A|--------|--------|--------|--------|--------|--------|--------|--------|--------|
D|--------|--------|--------|--------|--------|--------|--------|--------|--------|


E|--------|--------|--------|--------|--------|--------|--------|--------|--------|
B|--------|--------|--------|--------|--------|--------|--------|--------|--------|
G|--------|--------|--------|--------|--------|--------|--------|--------|--------|
D|--------|--------|--------|--------|--------|--------|--------|--------|--------|
A|--------|--------|--------|--------|--------|--------|--------|--------|--------|
D|--------|--------|--------|--------|--------|--------|--------|--------|--------|


E|--------|--------|--------|--------|--------|--------|--------|--------|--------|
B|--------|--------|--------|--------|--------|--------|--------|--------|--------|
G|--------|--------|--------|--------|--------|--------|--------|--------|--------|
D|--------|--------|--------|--------|--------|--------|--------|--------|--------|
A|--------|--------|--------|--------|--------|--------|--------|--------|--------|
D|--------|--------|--------|--------|--------|--------|--------|--------|--------|


E|--------|--------|--------|--------|--------|--------|--------|--------|--------|
B|--------|--------|--------|--------|--------|--------|--------|--------|--------|
G|--------|--------|--------|--------|--------|--------|--------|--------|--------|
D|--------|--------|--------|--------|--------|--------|--------|--------|--------|
A|--------|--------|--------|--------|--------|--------|--------|--------|--------|
D|--------|--------|--------|--------|--------|--------|--------|--------|--------|


E|--------|--------|--------|--------|--------|--------|--------|--------|--------|
B|--------|--------|--------|--------|--------|--------|--------|--------|--------|
G|--------|--------|--------|--------|--------|--------|--------|--------|--------|
D|--------|--------|--------|--------|--------|--------|--------|--------|--------|
A|--------|--------|--------|--------|--------|--------|--------|--------|--------|
D|--------|--------|--------|--------|--------|--------|--------|--------|--------|


E|--------|--------|--------|--------|--------|--------|--------|--------|--------|
B|--------|--------|--------|--------|--------|--------|--------|--------|--------|
G|--------|--------|--------|--------|--------|--------|--------|--------|--------|
D|--------|--------|--------|--------|--------|--------|--------|--------|--------|
A|--------|--------|--------|--------|--------|--------|--------|--------|--------|
D|--------|--------|--------|--------|--------|--------|--------|--------|--------|


E|--------|--------|--------|--------|--------|--------|--------|--------|--------|
B|--------|--------|--------|--------|--------|--------|--------|--------|--------|
G|--------|--------|--------|--------|--------|--------|--------|--------|--------|
D|--------|--------|--------|--------|--------|--------|--------|--------|--------|
A|--------|--------|--------|--------|--------|--------|--------|--------|--------|
D|--------|--------|--------|--------|--------|--------|--------|--------|--------|


E|--------|--------|--------|--------|--------|--------|--------|--------|--------|
B|--------|--------|--------|--------|--------|--------|--------|--------|--------|
G|--------|--------|--------|--------|--------|--------|--------|--------|--------|
D|--------|--------|--------|--------|--------|--------|--------|--------|--------|
A|--------|--------|--------|--------|--------|--------|--------|--------|--------|
D|--------|--------|--------|--------|--------|--------|--------|--------|--------|


E|--------|--------|--------|--------|--------|--------|--------|--------|--------|
B|--------|--------|--------|--------|--------|--------|--------|--------|--------|
G|--------|--------|--------|--------|--------|--------|--------|--------|--------|
D|--------|--------|--------|--------|--------|--------|--------|--------|--------|
A|--------|--------|--------|--------|--------|--------|--------|--------|--------|
D|--------|--------|--------|--------|--------|--------|--------|--------|--------|


E|--------|--------|--------|--------|--------|--------|--------|--------|--------|
B|--------|--------|--------|--------|--------|--------|--------|--------|--------|
G|--------|--------|--------|--------|--------|--------|--------|--------|--------|
D|--------|--------|--------|--------|--------|--------|--------|--------|--------|
A|--------|--------|--------|--------|--------|--------|--------|--------|--------|
D|--------|--------|--------|--------|--------|--------|--------|--------|--------|


E|--------|--------|--------|-----------------------------------------------------------------|
B|--------|--------|--------|---------------------------------------8-9-119-8-----------8-9-11|
G|--------|--------|--------|-------7-8-108-7-----------7-8-107-8-10----------108-7-8-10------|
D|--------|--------|--------|-6-8-10----------108-6-8-10--------------------------------------|
A|--------|--------|--------|-----------------------------------------------------------------|
D|--------|--------|--------|-----------------------------------------------------------------|


E|-------8-1011108-131110151311----------111315131118201816--------|--------|--------|
B|-8-9-11----------------------1513111315------------------201816--|--------|--------|
G|---------------------------------------------------------------19|-17-----|--------|
D|-----------------------------------------------------------------|--------|--------|
A|-----------------------------------------------------------------|--------|--------|
D|-----------------------------------------------------------------|--------|--------|


E|--------|--------|--------|--------|--------|--------|--------|--------|--------|
B|--------|--------|--------|--------|--------|--------|--------|--------|--------|
G|--------|--------|--------|--------|--------|--------|--------|--------|--------|
D|--------|--------|--------|--------|--------|--------|--------|--------|--------|
A|--------|--------|--------|--------|--------|--------|--------|--------|--------|
D|--------|--------|--------|--------|--------|--------|--------|--------|--------|


E|--------|--------|--------|--------|--------|--------|--------|--------|--------|
B|--------|--------|--------|--------|--------|--------|--------|--------|--------|
G|--------|--------|--------|--------|--------|--------|--------|--------|--------|
D|--------|--------|--------|--------|--------|--------|--------|--------|--------|
A|--------|--------|--------|--------|--------|--------|--------|--------|--------|
D|--------|--------|--------|--------|--------|--------|--------|--------|--------|


E|--------|--------|--------|--------|--------|--------|--------|--------|--------|
B|--------|--------|--------|--------|--------|--------|--------|--------|--------|
G|--------|--------|--------|--------|--------|--------|--------|--------|--------|
D|--------|--------|--------|--------|--------|--------|--------|--------|--------|
A|--------|--------|--------|--------|--------|--------|--------|--------|--------|
D|--------|--------|--------|--------|--------|--------|--------|--------|--------|


E|--------|--------|--------|--------|--------|--------|--------|--------|--------|
B|--------|--------|--------|--------|--------|--------|--------|--------|--------|
G|--------|--------|--------|--------|--------|--------|--------|--------|--------|
D|--------|--------|--------|--------|--------|--------|--------|--------|--------|
A|--------|--------|--------|--------|--------|--------|--------|--------|--------|
D|--------|--------|--------|--------|--------|--------|--------|--------|--------|


E|--------|--------|--------|--------|--------|--------|--------|--------|--------|
B|--------|--------|--------|--------|--------|--------|--------|--------|--------|
G|--------|--------|--------|--------|--------|--------|--------|--------|--------|
D|--------|--------|--------|--------|--------|--------|--------|--------|--------|
A|--------|--------|--------|--------|--------|--------|--------|--------|--------|
D|--------|--------|--------|--------|--------|--------|--------|--------|--------|


E|--------|--------|--------|--------|--------|--------|--------|--------|--------|
B|--------|--------|--------|--------|--------|--------|--------|--------|--------|
G|--------|--------|--------|--------|--------|--------|--------|--------|--------|
D|--------|--------|--------|--------|--------|--------|--------|--------|--------|
A|--------|--------|--------|--------|--------|--------|--------|--------|--------|
D|--------|--------|--------|--------|--------|--------|--------|--------|--------|


E|--------|--------|--------|--------|--------|--------|--------|--------|--------|
B|--------|--------|--------|--------|--------|--------|--------|--------|--------|
G|--------|--------|--------|--------|--------|--------|--------|--------|--------|
D|--------|--------|--------|--------|--------|--------|--------|--------|--------|
A|--------|--------|--------|--------|--------|--------|--------|--------|--------|
D|--------|--------|--------|--------|--------|--------|--------|--------|--------|


E|--------|--------|--------|--------|--------|--------|--------|--------|--------|
B|--------|--------|--------|--------|--------|--------|--------|--------|--------|
G|--------|--------|--------|--------|--------|--------|--------|--------|--------|
D|--------|--------|--------|--------|--------|--------|--------|--------|--------|
A|--------|--------|--------|--------|--------|--------|--------|--------|--------|
D|--------|--------|--------|--------|--------|--------|--------|--------|--------|


E|--------|--------|--------|--------|--------|--------|--------|--------|--------|
B|--------|--------|--------|--------|--------|--------|--------|--------|--------|
G|--------|--------|--------|--------|--------|--------|--------|--------|--------|
D|--------|--------|--------|--------|--------|--------|--------|--------|--------|
A|--------|--------|--------|--------|--------|--------|--------|--------|--------|
D|--------|--------|--------|--------|--------|--------|--------|--------|--------|


E|--------|--------|--------|--------|--------|--------|--------|--------|--------|
B|--------|--------|--------|--------|--------|--------|--------|--------|--------|
G|--------|--------|--------|--------|--------|--------|--------|--------|--------|
D|--------|--------|--------|--------|--------|--------|--------|--------|--------|
A|--------|--------|--------|--------|--------|--------|--------|--------|--------|
D|--------|--------|--------|--------|--------|--------|--------|--------|--------|


E|--------|--------|--------|--------|--------|--------|--------|--------|--------|
B|--------|--------|--------|--------|--------|--------|--------|--------|--------|
G|--------|--------|--------|--------|--------|--------|--------|--------|--------|
D|--------|--------|--------|--------|--------|--------|--------|--------|--------|
A|--------|--------|--------|--------|--------|--------|--------|--------|--------|
D|--------|--------|--------|--------|--------|--------|--------|--------|--------|


E|--------|--------|--------|--------|--------|--------|--------|--------|--------|
B|--------|--------|--------|--------|--------|--------|--------|--------|--------|
G|--------|--------|--------|--------|--------|--------|--------|--------|--------|
D|--------|--------|--------|--------|--------|--------|--------|--------|--------|
A|--------|--------|--------|--------|--------|--------|--------|--------|--------|
D|--------|--------|--------|--------|--------|--------|--------|--------|--------|


E|--------|--------|--------|--------|--------|--------|--------|--------|--------|
B|--------|--------|--------|--------|--------|--------|--------|--------|--------|
G|--------|--------|--------|--------|--------|--------|--------|--------|--------|
D|--------|--------|--------|--------|--------|--------|--------|--------|--------|
A|--------|--------|--------|--------|--------|--------|--------|--------|--------|
D|--------|--------|--------|--------|--------|--------|--------|--------|--------|


E|--------|--------|--------|--------|--------|--------|--------|--------|--------|
B|--------|--------|--------|--------|--------|--------|--------|--------|--------|
G|--------|--------|--------|--------|--------|--------|--------|--------|--------|
D|--------|--------|--------|--------|--------|--------|--------|--------|--------|
A|--------|--------|--------|--------|--------|--------|--------|--------|--------|
D|--------|--------|--------|--------|--------|--------|--------|--------|--------|


E|--------|--------|--------|--------|--------|--------|--------|--------|--------|
B|--------|--------|--------|--------|--------|--------|--------|--------|--------|
G|--------|--------|--------|--------|--------|--------|--------|--------|--------|
D|--------|--------|--------|--------|--------|--------|--------|--------|--------|
A|--------|--------|--------|--------|--------|--------|--------|--------|--------|
D|--------|--------|--------|--------|--------|--------|--------|--------|--------|


E|--------|--------|--------|--------|--------|--------|--------|--------|--------|
B|--------|--------|--------|--------|--------|--------|--------|--------|--------|
G|--------|--------|--------|--------|--------|--------|--------|--------|--------|
D|--------|--------|--------|--------|--------|--------|--------|--------|--------|
A|--------|--------|--------|--------|--------|--------|--------|--------|--------|
D|--------|--------|--------|--------|--------|--------|--------|--------|--------|


E|--------|--------|--------|--------|--------|--------|--------|--------|
B|--------|--------|--------|--------|--------|--------|--------|--------|
G|--------|--------|--------|--------|--------|--------|--------|--------|
D|--------|--------|--------|--------|--------|--------|--------|--------|
A|--------|--------|--------|--------|--------|--------|--------|--------|
D|--------|--------|--------|--------|--------|--------|--------|--------|





Track 12: Acoustic Guitar (John Petrucci)

E|--------|--------|--------|--------|--------|--------|--------|--------|--------|
B|--------|--------|--------|--------|--------|--------|--------|--------|--------|
G|--------|--------|--------|--------|--------|--------|--------|--------|--------|
D|--------|--------|--------|--------|--------|--------|--------|--------|--------|
A|--------|--------|--------|--------|--------|--------|--------|--------|--------|
D|--------|--------|--------|--------|--------|--------|--------|--------|--------|


E|--------|--------|--------|--------|--------|--------|--------|--------|--------|
B|--------|--------|--------|--------|--------|--------|--------|--------|--------|
G|--------|--------|--------|--------|--------|--------|--------|--------|--------|
D|--------|--------|--------|--------|--------|--------|--------|--------|--------|
A|--------|--------|--------|--------|--------|--------|--------|--------|--------|
D|--------|--------|--------|--------|--------|--------|--------|--------|--------|


E|--------|--------|--------|--------|--------|--------|--------|--------|--------|
B|--------|--------|--------|--------|--------|--------|--------|--------|--------|
G|--------|--------|--------|--------|--------|--------|--------|--------|--------|
D|--------|--------|--------|--------|--------|--------|--------|--------|--------|
A|--------|--------|--------|--------|--------|--------|--------|--------|--------|
D|--------|--------|--------|--------|--------|--------|--------|--------|--------|


E|--------|--------|--------|--------|--------|--------|--------|--------|--------|
B|--------|--------|--------|--------|--------|--------|--------|--------|--------|
G|--------|--------|--------|--------|--------|--------|--------|--------|--------|
D|--------|--------|--------|--------|--------|--------|--------|--------|--------|
A|--------|--------|--------|--------|--------|--------|--------|--------|--------|
D|--------|--------|--------|--------|--------|--------|--------|--------|--------|


E|--------|--------|--------|--------|--------|--------|--------|--------|--------|
B|--------|--------|--------|--------|--------|--------|--------|--------|--------|
G|--------|--------|--------|--------|--------|--------|--------|--------|--------|
D|--------|--------|--------|--------|--------|--------|--------|--------|--------|
A|--------|--------|--------|--------|--------|--------|--------|--------|--------|
D|--------|--------|--------|--------|--------|--------|--------|--------|--------|


E|--------|--------|--------|--------|--------|--------|--------|--------|--------|
B|--------|--------|--------|--------|--------|--------|--------|--------|--------|
G|--------|--------|--------|--------|--------|--------|--------|--------|--------|
D|--------|--------|--------|--------|--------|--------|--------|--------|--------|
A|--------|--------|--------|--------|--------|--------|--------|--------|--------|
D|--------|--------|--------|--------|--------|--------|--------|--------|--------|


E|--------|--------|--------|--------|--------|--------|--------|--------|--------|
B|--------|--------|--------|--------|--------|--------|--------|--------|--------|
G|--------|--------|--------|--------|--------|--------|--------|--------|--------|
D|--------|--------|--------|--------|--------|--------|--------|--------|--------|
A|--------|--------|--------|--------|--------|--------|--------|--------|--------|
D|--------|--------|--------|--------|--------|--------|--------|--------|--------|


E|--------|--------|--------|--------|--------|--------|--------|--------|--------|
B|--------|--------|--------|--------|--------|--------|--------|--------|--------|
G|--------|--------|--------|--------|--------|--------|--------|--------|--------|
D|--------|--------|--------|--------|--------|--------|--------|--------|--------|
A|--------|--------|--------|--------|--------|--------|--------|--------|--------|
D|--------|--------|--------|--------|--------|--------|--------|--------|--------|


E|--------|--------|--------|--------|--------|--------|--------|--------|--------|
B|--------|--------|--------|--------|--------|--------|--------|--------|--------|
G|--------|--------|--------|--------|--------|--------|--------|--------|--------|
D|--------|--------|--------|--------|--------|--------|--------|--------|--------|
A|--------|--------|--------|--------|--------|--------|--------|--------|--------|
D|--------|--------|--------|--------|--------|--------|--------|--------|--------|


E|--------|--------|--------|--------|--------|--------|--------|--------|--------|
B|--------|--------|--------|--------|--------|--------|--------|--------|--------|
G|--------|--------|--------|--------|--------|--------|--------|--------|--------|
D|--------|--------|--------|--------|--------|--------|--------|--------|--------|
A|--------|--------|--------|--------|--------|--------|--------|--------|--------|
D|--------|--------|--------|--------|--------|--------|--------|--------|--------|


E|--------|--------|--------|--------|--------|--------|--------|--------|--------|
B|--------|--------|--------|--------|--------|--------|--------|--------|--------|
G|--------|--------|--------|--------|--------|--------|--------|--------|--------|
D|--------|--------|--------|--------|--------|--------|--------|--------|--------|
A|--------|--------|--------|--------|--------|--------|--------|--------|--------|
D|--------|--------|--------|--------|--------|--------|--------|--------|--------|


E|--------|--------|--------|--------|--------|--------|--------|--------|--------|
B|--------|--------|--------|--------|--------|--------|--------|--------|--------|
G|--------|--------|--------|--------|--------|--------|--------|--------|--------|
D|--------|--------|--------|--------|--------|--------|--------|--------|--------|
A|--------|--------|--------|--------|--------|--------|--------|--------|--------|
D|--------|--------|--------|--------|--------|--------|--------|--------|--------|


E|--------|--------|--------|--------|--------|--------|--------|--------|--------|
B|--------|--------|--------|--------|--------|--------|--------|--------|--------|
G|--------|--------|--------|--------|--------|--------|--------|--------|--------|
D|--------|--------|--------|--------|--------|--------|--------|--------|--------|
A|--------|--------|--------|--------|--------|--------|--------|--------|--------|
D|--------|--------|--------|--------|--------|--------|--------|--------|--------|


E|--------|--------|--------|--------|--------|--------|--------|--------|--------|
B|--------|--------|--------|--------|--------|--------|--------|--------|--------|
G|--------|--------|--------|--------|--------|--------|--------|--------|--------|
D|--------|--------|--------|--------|--------|--------|--------|--------|--------|
A|--------|--------|--------|--------|--------|--------|--------|--------|--------|
D|--------|--------|--------|--------|--------|--------|--------|--------|--------|


E|--------|--------|--------|--------|--------|--------|--------|--------|--------|
B|--------|--------|--------|--------|--------|--------|--------|--------|--------|
G|--------|--------|--------|--------|--------|--------|--------|--------|--------|
D|--------|--------|--------|--------|--------|--------|--------|--------|--------|
A|--------|--------|--------|--------|--------|--------|--------|--------|--------|
D|--------|--------|--------|--------|--------|--------|--------|--------|--------|


E|--------|--------|--------|--------|--------|--------|--------|--------|--------|
B|--------|--------|--------|--------|--------|--------|--------|--------|--------|
G|--------|--------|--------|--------|--------|--------|--------|--------|--------|
D|--------|--------|--------|--------|--------|--------|--------|--------|--------|
A|--------|--------|--------|--------|--------|--------|--------|--------|--------|
D|--------|--------|--------|--------|--------|--------|--------|--------|--------|


E|--------|--------|--------|--------|--------|--------|--------|--------|--------|
B|--------|--------|--------|--------|--------|--------|--------|--------|--------|
G|--------|--------|--------|--------|--------|--------|--------|--------|--------|
D|--------|--------|--------|--------|--------|--------|--------|--------|--------|
A|--------|--------|--------|--------|--------|--------|--------|--------|--------|
D|--------|--------|--------|--------|--------|--------|--------|--------|--------|


E|--------|--------|--------|--------|--------|--------|--------|--------|--------|
B|--------|--------|--------|--------|--------|--------|--------|--------|--------|
G|--------|--------|--------|--------|--------|--------|--------|--------|--------|
D|--------|--------|--------|--------|--------|--------|--------|--------|--------|
A|--------|--------|--------|--------|--------|--------|--------|--------|--------|
D|--------|--------|--------|--------|--------|--------|--------|--------|--------|


E|--------|--------|--------|--------|--------|--------|--------|--------|--------|
B|--------|--------|--------|--------|--------|--------|--------|--------|--------|
G|--------|--------|--------|--------|--------|--------|--------|--------|--------|
D|--------|--------|--------|--------|--------|--------|--------|--------|--------|
A|--------|--------|--------|--------|--------|--------|--------|--------|--------|
D|--------|--------|--------|--------|--------|--------|--------|--------|--------|


E|--------|--------|---------------------|-----------------------|-----------------------|
B|--------|--------|-3-----1-----3---3---|-3---------------------|-----------------------|
G|--------|--------|---------------------|-------2---2-----2--3--|-5-----3---3-----2--0--|
D|--------|--------|---------------------|-----------------------|-----------------------|
A|--------|--------|---------------------|-----------------------|-----------------------|
D|--------|--------|---------------------|-----------------------|-----------------------|


E|--------------------|-------------------------3---|-2---------------------------|
B|-----------------3--|-3----1----4----1----3-------|------3----1----4------------|
G|-2------------------|-----------------------------|---------------------3---2---|
D|--------------------|-----------------------------|-----------------------------|
A|--------------------|-----------------------------|-----------------------------|
D|--------------------|-----------------------------|-----------------------------|


E|-----------------------------|-10---------------------------------------|---------------------------------|
B|-3----1----8----7----11--10--|------13--11-10--10--13-11-10-------------|---------------------------------|
G|-----------------------------|------------------------------12-11-12-11-|-------------14----------2-------|
D|-----------------------------|---------------------------------------12-|-10---12--13----------7------5---|
A|-----------------------------|------------------------------------------|---------------------------------|
D|-----------------------------|------------------------------------------|---------------------------------|


E|-----------------------|-----------------------------------------|----------------------------------|
B|-----------------------|-10--11-10-----------10--11-10-----------|----------------------------------|
G|-----------------------|------------12-11-12------------12-11-12-|-11--12-11------------------------|
D|-4----0--0-----0-------|-----------------------------------------|------------13-12-13-12--10-------|
A|-----------------------|-----------------------------------------|----------------------------------|
D|-----------------------|-----------------------------------------|----------------------------------|


E|-10------------------10--------------------|---------------------------------------|
B|-----10-11-13--11-10-----10-13--10-11131110|-13--10-11-11-10----10-----------------|
G|-------------------------------------------|-----------------12----11-12-11--------|
D|-------------------------------------------|---------------------------------12----|
A|-------------------------------------------|---------------------------------------|
D|-------------------------------------------|---------------------------------------|


E|-----------------------------10-----------------|-------------------------------|
B|-------------------10-131110----1311101110------|-10----------------------------|
G|------------------------------------------121112|-----12-11--12-11--------------|
D|-10--13-12--13-12-------------------------------|------------------13-12--10----|
A|------------------------------------------------|-------------------------------|
D|------------------------------------------------|-------------------------------|


E|----------10---------------------------------|-----10-----10-11-----10-----------------------------------------|
B|-10-11-13----13-11-10-----10-----10-11-10-11-|-13-----13---------13-----11-13-11-10-11-10----10----------------|
G|-----------------------12----11--------------|--------------------------------------------12----12-11-12-11----|
D|---------------------------------------------|--------------------------------------------------------------13-|
A|---------------------------------------------|-----------------------------------------------------------------|
D|---------------------------------------------|-----------------------------------------------------------------|


E|-------------------------11-10--------------------------------------|----------------------------------|
B|-------------------11-10--------13-11-10-11-10----------------------|----------------------------------|
G|-------11----12-11-----------------------------12-11-12-11----------|----------------------------------|
D|-12-10----13-----------------------------------------------13-12-10-|-7---8--7---5--4--5--4------------|
A|--------------------------------------------------------------------|-------------------------5--------|
D|--------------------------------------------------------------------|----------------------------------|


E|------------------------------------|--------------------------------10-------------------------|
B|-10--11-10-----------10-------------|-10--------------------10-11-13----13-11-10-13-11-10-------|
G|------------12-11-12----------------|-----1211----12--------------------------------------12-11-|
D|-------------------------12---12-12-|----------12----13-12--------------------------------------|
A|------------------------------------|-----------------------------------------------------------|
D|------------------------------------|-----------------------------------------------------------|


E|---------------------------------------|---------------------------|--------|--------|
B|-13--1110-13-13---13---131110-11-10----|---------------------------|--------|--------|
G|------------------------------------12-|-11--12-11-11--------------|--------|--------|
D|---------------------------------------|--------------13-12--12----|--------|--------|
A|---------------------------------------|---------------------------|--------|--------|
D|---------------------------------------|---------------------------|--------|--------|


E|--------|--------|--------|--------|--------|--------|--------|--------|--------|
B|--------|--------|--------|--------|--------|--------|--------|--------|--------|
G|--------|--------|--------|--------|--------|--------|--------|--------|--------|
D|--------|--------|--------|--------|--------|--------|--------|--------|--------|
A|--------|--------|--------|--------|--------|--------|--------|--------|--------|
D|--------|--------|--------|--------|--------|--------|--------|--------|--------|


E|--------|--------|--------|--------|--------|--------|--------|--------|--------|
B|--------|--------|--------|--------|--------|--------|--------|--------|--------|
G|--------|--------|--------|--------|--------|--------|--------|--------|--------|
D|--------|--------|--------|--------|--------|--------|--------|--------|--------|
A|--------|--------|--------|--------|--------|--------|--------|--------|--------|
D|--------|--------|--------|--------|--------|--------|--------|--------|--------|


E|--------|--------|--------|--------|--------|--------|--------|--------|--------|
B|--------|--------|--------|--------|--------|--------|--------|--------|--------|
G|--------|--------|--------|--------|--------|--------|--------|--------|--------|
D|--------|--------|--------|--------|--------|--------|--------|--------|--------|
A|--------|--------|--------|--------|--------|--------|--------|--------|--------|
D|--------|--------|--------|--------|--------|--------|--------|--------|--------|


E|--------|--------|--------|--------|--------|--------|--------|--------|--------|
B|--------|--------|--------|--------|--------|--------|--------|--------|--------|
G|--------|--------|--------|--------|--------|--------|--------|--------|--------|
D|--------|--------|--------|--------|--------|--------|--------|--------|--------|
A|--------|--------|--------|--------|--------|--------|--------|--------|--------|
D|--------|--------|--------|--------|--------|--------|--------|--------|--------|


E|--------|--------|--------|--------|--------|--------|--------|--------|--------|
B|--------|--------|--------|--------|--------|--------|--------|--------|--------|
G|--------|--------|--------|--------|--------|--------|--------|--------|--------|
D|--------|--------|--------|--------|--------|--------|--------|--------|--------|
A|--------|--------|--------|--------|--------|--------|--------|--------|--------|
D|--------|--------|--------|--------|--------|--------|--------|--------|--------|


E|--------|--------|--------|--------|--------|--------|--------|--------|--------|
B|--------|--------|--------|--------|--------|--------|--------|--------|--------|
G|--------|--------|--------|--------|--------|--------|--------|--------|--------|
D|--------|--------|--------|--------|--------|--------|--------|--------|--------|
A|--------|--------|--------|--------|--------|--------|--------|--------|--------|
D|--------|--------|--------|--------|--------|--------|--------|--------|--------|


E|--------|--------|--------|--------|--------|--------|--------|--------|--------|
B|--------|--------|--------|--------|--------|--------|--------|--------|--------|
G|--------|--------|--------|--------|--------|--------|--------|--------|--------|
D|--------|--------|--------|--------|--------|--------|--------|--------|--------|
A|--------|--------|--------|--------|--------|--------|--------|--------|--------|
D|--------|--------|--------|--------|--------|--------|--------|--------|--------|


E|--------|--------|--------|--------|--------|--------|--------|--------|--------|
B|--------|--------|--------|--------|--------|--------|--------|--------|--------|
G|--------|--------|--------|--------|--------|--------|--------|--------|--------|
D|--------|--------|--------|--------|--------|--------|--------|--------|--------|
A|--------|--------|--------|--------|--------|--------|--------|--------|--------|
D|--------|--------|--------|--------|--------|--------|--------|--------|--------|


E|--------|--------|--------|--------|--------|--------|--------|--------|--------|
B|--------|--------|--------|--------|--------|--------|--------|--------|--------|
G|--------|--------|--------|--------|--------|--------|--------|--------|--------|
D|--------|--------|--------|--------|--------|--------|--------|--------|--------|
A|--------|--------|--------|--------|--------|--------|--------|--------|--------|
D|--------|--------|--------|--------|--------|--------|--------|--------|--------|


E|--------|--------|--------|--------|--------|--------|--------|--------|--------|
B|--------|--------|--------|--------|--------|--------|--------|--------|--------|
G|--------|--------|--------|--------|--------|--------|--------|--------|--------|
D|--------|--------|--------|--------|--------|--------|--------|--------|--------|
A|--------|--------|--------|--------|--------|--------|--------|--------|--------|
D|--------|--------|--------|--------|--------|--------|--------|--------|--------|


E|--------|--------|--------|--------|--------|--------|--------|--------|--------|
B|--------|--------|--------|--------|--------|--------|--------|--------|--------|
G|--------|--------|--------|--------|--------|--------|--------|--------|--------|
D|--------|--------|--------|--------|--------|--------|--------|--------|--------|
A|--------|--------|--------|--------|--------|--------|--------|--------|--------|
D|--------|--------|--------|--------|--------|--------|--------|--------|--------|


E|--------|--------|--------|--------|--------|
B|--------|--------|--------|--------|--------|
G|--------|--------|--------|--------|--------|
D|--------|--------|--------|--------|--------|
A|--------|--------|--------|--------|--------|
D|--------|--------|--------|--------|--------|





Track 13: Bass Guitar (John Myung)

C|--------|--------|--------|--------|--------|--------|--------|--------|--------|
G|--------|--------|--------|--------|--------|--------|--------|--------|--------|
D|--------|--------|--------|--------|--------|--------|--------|--------|--------|
A|--------|--------|--------|--------|--------|--------|--------|--------|--------|
E|--------|--------|--------|--------|--------|--------|--------|--------|--------|
B|--------|--------|--------|--------|--------|--------|--------|--------|--------|


C|--------|--------|--------|--------|--------|--------|--------|--------|--------|
G|--------|--------|--------|--------|--------|--------|--------|--------|--------|
D|--------|--------|--------|--------|--------|--------|--------|--------|--------|
A|--------|--------|--------|--------|--------|--------|--------|--------|--------|
E|--------|--------|--------|--------|--------|--------|--------|--------|--------|
B|--------|--------|--------|--------|--------|--------|--------|--------|--------|


C|--------|--------|--------|-------------------------------------------|-------------------------------------------|
G|--------|--------|--------|-------------------------------------------|-------------------------------------------|
D|--------|--------|--------|-0---0---12-13-0--10-12-0--12-13-0--10-12--|-0---0---12-13-0--10-12-0--12-13-0--10-12--|
A|--------|--------|--------|-------------------------------------------|-------------------------------------------|
E|--------|--------|--------|-------------------------------------------|-------------------------------------------|
B|--------|--------|--------|-------------------------------------------|-------------------------------------------|


C|-------------------------------------------|------------------------------------------------|
G|-------------------------------------------|------------------------------------------------|
D|-0---0---12-13-0--10-12-0--12-13-0--10-12--|-0---0---7--8--0--5--7--0--7--8--0--3--3--5--3--|
A|-------------------------------------------|------------------------------------------------|
E|-------------------------------------------|------------------------------------------------|
B|-------------------------------------------|------------------------------------------------|


C|-------------------------------------------|-------------------------------------------|
G|-------------------------------------------|-------------------------------------------|
D|-0---0---12-13-0--10-12-0--12-13-0--10-12--|-0---0---12-13-0--10-12-0--12-13-0--10-12--|
A|-------------------------------------------|-------------------------------------------|
E|-------------------------------------------|-------------------------------------------|
B|-------------------------------------------|-------------------------------------------|


C|-------------------------------------------|-------------------------------------------|
G|-------------------------------------------|---------7--8-----11-12----11-12----12-11--|
D|-0---0---12-13-0--10-12-0--12-13-0--10-12--|-0---0---------0--------0--------0---------|
A|-------------------------------------------|-------------------------------------------|
E|-------------------------------------------|-------------------------------------------|
B|-------------------------------------------|-------------------------------------------|


C|-------------------------------------------|-------------------------------------------|
G|-------------------------------------------|-------------------------------------------|
D|-0---0---12-13-0--10-12-0--12-13-0--10-12--|-0---0---12-13-0--10-12-0--12-13-0--10-12--|
A|-------------------------------------------|-------------------------------------------|
E|-------------------------------------------|-------------------------------------------|
B|-------------------------------------------|-------------------------------------------|


C|-------------------------------------------|------------------------------------------------|
G|-------------------------------------------|------------------------------------------------|
D|-0---0---12-13-0--10-12-0--12-13-0--10-12--|-0---0---7--8--0--5--7--0--7--8--0--3--3--5--3--|
A|-------------------------------------------|------------------------------------------------|
E|-------------------------------------------|------------------------------------------------|
B|-------------------------------------------|------------------------------------------------|


C|-------------------------------------------|-------------------------------------------|
G|-------------------------------------------|-------------------------------------------|
D|-0---0---12-13-0--10-12-0--12-13-0--10-12--|-0---0---12-13-0--10-12-0--12-13-0--10-12--|
A|-------------------------------------------|-------------------------------------------|
E|-------------------------------------------|-------------------------------------------|
B|-------------------------------------------|-------------------------------------------|


C|-------------------------------------------|-------------------------------------------|
G|-------------------------------------------|---------7--8-----11-12----11-12----12-11--|
D|-0---0---12-13-0--10-12-0--12-13-0--10-12--|-0---0---------0--------0--------0---------|
A|-------------------------------------------|-------------------------------------------|
E|-------------------------------------------|-------------------------------------------|
B|-------------------------------------------|-------------------------------------------|


C|-------------------------------------------|-------------------------------------------|
G|-------------------------------------------|-------------------------------------------|
D|-------------------------------------------|-------------------------------------------|
A|---------5--6-----3--5-----5--6-----3--5---|---------5--6-----3--5-----5--6-----3--5---|
E|-------------------------------------------|-------------------------------------------|
B|-3---3---------3--------3--------3---------|-3---3---------3--------3--------3---------|


C|-------------------------------------------|------------------------------------------------|
G|-------------------------------------------|------------------------------------------------|
D|-------------------------------------------|------------------------------------------------|
A|---------5--6-----3--5-----5--6-----3--5---|------------------------------------------------|
E|-------------------------------------------|---------5--6-----3--5-----5--6-----1--1--3--1--|
B|-3---3---------3--------3--------3---------|-3---3---------3--------3--------3--------------|


C|-------------------------------------------|-------------------------------------------|
G|-------------------------------------------|-------------------------------------------|
D|-------------------------------------------|-------------------------------------------|
A|---------5--6-----3--5-----5--6-----3--5---|---------5--6-----3--5-----5--6-----3--5---|
E|-------------------------------------------|-------------------------------------------|
B|-3---3---------3--------3--------3---------|-3---3---------3--------3--------3---------|


C|-------------------------------------------|-------------------------------------------|
G|-------------------------------------------|-------------------------------------------|
D|-------------------------------------------|------------------4--5-----4--5-----5--4---|
A|---------5--6-----3--5-----5--6-----3--5---|---------5--6------------------------------|
E|-------------------------------------------|-------------------------------------------|
B|-3---3---------3--------3--------3---------|-3---3---------3--------3--------3---------|


C|-----------------------------------------|-----------------------------------------|
G|-----------7----------7--------5--7------|-----------7----------7--------5--7------|
D|-0---0--0------0--0------0--0--------0---|-0---0--0------0--0------0--0--------0---|
A|-----------------------------------------|-----------------------------------------|
E|-----------------------------------------|-----------------------------------------|
B|-----------------------------------------|-----------------------------------------|


C|-----------------------------------------|-----------------------------------------|
G|-----------7----------7--------5--7------|-----------5----------5--------3--5------|
D|-0---0--0------0--0------0--0--------0---|-----------------------------------------|
A|-----------------------------------------|-3---3--3------3--3------3--3--------3---|
E|-----------------------------------------|-----------------------------------------|
B|-----------------------------------------|-----------------------------------------|


C|-----------------------------------------|-----------------------------------------|
G|-----------7----------7--------5--7------|-----------7----------7--------5--7------|
D|-0---0--0------0--0------0--0--------0---|-0---0--0------0--0------0--0--------0---|
A|-----------------------------------------|-----------------------------------------|
E|-----------------------------------------|-----------------------------------------|
B|-----------------------------------------|-----------------------------------------|


C|-----------------------------------------|-----------------------------------------|
G|-----------7----------7--------5--7------|-----------5----------5--------3--5------|
D|-0---0--0------0--0------0--0--------0---|-----------------------------------------|
A|-----------------------------------------|-3---3--3------3--3------3--3--------3---|
E|-----------------------------------------|-----------------------------------------|
B|-----------------------------------------|-----------------------------------------|


C|-----------------------------------|---------------------------------------|-----------------------------------|
G|-----------------------------------|---------------------------------------|-----------------------------------|
D|-----------------------------------|---------------------------------------|-----------------------------------|
A|-----------------------------------|---------------------------------------|-----------------------------------|
E|-----------------------------------|-----------------------5--6-----3--4---|-----------------------------------|
B|-3---3-------3--3---3--3--------3--|-3---3-------3--3---3--------3---------|-3---3-------3--3---3--3--------3--|


C|--------------------------------------------|-----------------------------------|
G|--------------------------------------------|-----------------------------------|
D|--------------------------------------------|-----------------------------------|
A|--------------------------------6--5--------|-----------------------------------|
E|--------------------------------------------|-----------------------------------|
B|-3---3-------3--3---3--3--4--6--------6--3--|-3---3-------3--3---3--3--------3--|


C|---------------------------------------|-----------------------------------|--------------------------------------------|
G|---------------------------------------|-----------------------------------|--------------------------------------------|
D|---------------------------------------|-----------------------------------|--------------------------------------------|
A|---------------------------------------|-----------------------------------|--------------------------------6--5--------|
E|-----------------------5--6-----3--4---|-----------------------------------|--------------------------------------------|
B|-3---3-------3--3---3--------3---------|-3---3-------3--3---3--3--------3--|-3---3-------3--3---3--3--4--6--------6--3--|


C|-----------------------------------|---------------------------------------|-----------------------------------|
G|-----------------------------------|---------------------------------------|-----------------------------------|
D|-----------------------------------|---------------------------------------|-----------------------------------|
A|-----------------------------------|---------------------------------------|-----------------------------------|
E|-----------------------------------|-----------------------5--6-----3--4---|-----------------------------------|
B|-3---3-------3--3---3--3--------3--|-3---3-------3--3---3--------3---------|-3---3-------3--3---3--3--------3--|


C|--------------------------------------------|-----------------------------------|
G|--------------------------------------------|-----------------------------------|
D|--------------------------------------------|-----------------------------------|
A|--------------------------------6--5--------|-----------------------------------|
E|--------------------------------------------|-----------------------------------|
B|-3---3-------3--3---3--3--4--6--------6--3--|-3---3-------3--3---3--3--------3--|


C|---------------------------------------|-----------------------------------|---------------------------------------|
G|---------------------------------------|-----------------------------------|---------------------------------------|
D|---------------------------3-----------|-----------------------------------|---------------------------3-----------|
A|------------------------------5--------|-----------------------------------|------------------------------5--------|
E|------------------------3--------4--3--|-----------------------------------|------------------------3--------------|
B|-3---3------------3--6-----------------|-3---3-------3--3---3--3--------3--|-3---3------------3--6-----------4--3--|


C|-----------------------------------|---------------------------------------|-----------------------------------|
G|-----------------------------------|---------------------------------------|-----------------------------------|
D|-----------------------------------|---------------------------3-----------|-----------------------------------|
A|-----------------------------------|------------------------------5--------|-----------------------------------|
E|-----------------------------------|------------------------3--------4--3--|-----------------------------------|
B|-3---3-------3--3---3--3--------3--|-3---3------------3--6-----------------|-3---3-------3--3---3--3--------3--|


C|---------------------------------------|---------------------------------------|
G|---------------------------------------|---------------------------------------|
D|---------------------------3-----------|---------------7--8--7-----------------|
A|------------------------------5--------|-0---0---7--8------------0---0---8--7--|
E|------------------------3--------------|---------------------------------------|
B|-3---3------------3--6-----------4--3--|---------------------------------------|


C|-------------------------------------------|---------------------------------------|
G|-------------------------------------------|---------------------------------------|
D|---------------------------------5--7--5---|---------------7--8--7-----------------|
A|-5--4------------4--5------5--7------------|-0---0---7--8------------0---0---8--7--|
E|--------5--6--5--------5-------------------|---------------------------------------|
B|-------------------------------------------|---------------------------------------|


C|-------------------------------------------|---------------------------------------|
G|-------------------------------------------|---------------------------------------|
D|---------------------------------5--7--5---|---------------7--8--7-----------------|
A|-5--4------------4--5------5--7------------|-0---0---7--8------------0---0---8--7--|
E|--------5--6--5--------5-------------------|---------------------------------------|
B|-------------------------------------------|---------------------------------------|


C|-------------------------------------------|---------------------------------------|
G|-------------------------------------------|---------------------------------------|
D|---------------------------------5--7--5---|---------------7--8--7-----------------|
A|-5--4------------4--5------5--7------------|-0---0---7--8------------0---0---8--7--|
E|--------5--6--5--------5-------------------|---------------------------------------|
B|-------------------------------------------|---------------------------------------|


C|-------------------------------------------|-------------------------------------------------|
G|-------------------------------------------|-------------------------------------------------|
D|---------------------------------5--7--5---|-------------------------------------------------|
A|-5--4------------4--5------5--7------------|-------------------------------------------------|
E|--------5--6--5--------5-------------------|-3--5--6--3--6--3--5--6--3--6--3--5--6--3--------|
B|-------------------------------------------|-------------------------------------------6--3--|


C|-------------------------------------------------|---------------------------------------|
G|-------------------------------------------------|---------------------------------------|
D|-------------------------------------------7--8--|---------------7--8--7-----------------|
A|----------------------------------5--7--8--------|-0---0---7--8------------0---0---8--7--|
E|-3--5--6--3--6--3--5--6--3--5--6-----------------|---------------------------------------|
B|-------------------------------------------------|---------------------------------------|


C|-------------------------------------------|-------------------------------------------------|
G|-------------------------------------------|-------------------------------------------------|
D|---------------------------------5--7--5---|-------------------------------------------------|
A|-5--4------------4--5------5--7------------|-------------------------------------------------|
E|--------5--6--5--------5-------------------|-3--5--6--3--6--3--5--6--3--6--3--5--6--3--------|
B|-------------------------------------------|-------------------------------------------6--3--|


C|-------------------------------------------------------|--------------------------|
G|-------------------------------------------------------|--------------------------|
D|-------------------------------------------5--8--6--5--|--------------------------|
A|-------------------------------3--5--6--8--------------|--------------------------|
E|-3--5--6--3--6--3--5--6--3--5--------------------------|-4-----4--4----4--4--4----|
B|-------------------------------------------------------|--------------------------|


C|--------------------------|-------------------------------------------------|-------------------------------------------------|
G|--------------------------|-------------------------------------------------|-------------------------------------------------|
D|--------------------------|-------------------------------------------------|-------------------------------------------------|
A|--------------------------|-3--3--3--3--3--3--3--3--3--3--3--3--3--3--3--3--|-------------------------------------------------|
E|-1-----1--1----1--1--1----|-------------------------------------------------|-4--4--4--4--4--4--4--4--4--4--4--4--4--4--4--4--|
B|--------------------------|-------------------------------------------------|-------------------------------------------------|


C|-------------------------------------------------|-------------|-------------------------------------------------|
G|-------------------------------------------------|-------------|-------------------------------------------------|
D|-------------------------------------------------|-------------|-------------------------------------------------|
A|-8--8--8--8--8--8--8--8--8--8--8--8--8--8--8--8--|-6-----------|-3--3--3--3--3--3--3--3--3--3--3--3--3--3--3--3--|
E|-------------------------------------------------|-------6-----|-------------------------------------------------|
B|-------------------------------------------------|-------------|-------------------------------------------------|


C|-------------------------------------------------|-------------------------------------------------|
G|-------------------------------------------------|-------------------------------------------------|
D|-------------------------------------------------|-------------------------------------------------|
A|-------------------------------------------------|-8--8--8--8--8--8--8--8--8--8--8--8--8--8--8--8--|
E|-4--4--4--4--4--4--4--4--4--4--4--4--4--4--4--4--|-------------------------------------------------|
B|-------------------------------------------------|-------------------------------------------------|


C|-------------|-------------------------------------|-------------------------------------|
G|-------------|----------------5----5--5--3--5--3---|----------------5----5--5--3--5--3---|
D|-------------|-------------------------------------|-------------------------------------|
A|-------------|-3----3--3---3-----------------------|-3----3--3---3-----------------------|
E|-------------|-------------------------------------|-------------------------------------|
B|-4-----3-----|-------------------------------------|-------------------------------------|


C|--------------------------------|----------------------------------|----------------------------------|
G|--------------------------------|----------------------------------|----------------------------------|
D|--------------------------------|----------------------------------|----------------------------------|
A|--------------------------------|----------------------------------|-8----8--8---8----8--8--8--8--8---|
E|-5----5--5---5----5--5--5---5---|-4----4--4---4----4--4--4--4--4---|----------------------------------|
B|--------------------------------|----------------------------------|----------------------------------|


C|----------------------------------|----------------------------------|---------------------|
G|----------------------------------|----------------------------------|---------------------|
D|----------------------------------|----------------------------------|---------------------|
A|----------------------------------|----------------------------------|-----------3----3----|
E|-9----9--9---9----9--9--9--9--9---|-6----6--6---6----6--6--6--6--6---|-3----3--------------|
B|----------------------------------|----------------------------------|---------------------|


C|---------------------------------------------|-----------------------------------------------|
G|---------------------------------------------|-----------------------------------------------|
D|---------------------------------------------|-----------------------------------------------|
A|---------------------------------------------|-----------------------------------------------|
E|---------------------------------3--------3--|-----------------------------------------------|
B|-3--3--3--3----3--3--3--3--6--3-----3--6-----|-3--3--3--3--3---1--1--1---1---1---1---1---1---|


C|---------------------------------------------|---------------------------------------------|
G|---------------------------------------------|---------------------------------------------|
D|---------------------------------------------|---------------------------------------------|
A|---------------------------------------------|---------------------------------------------|
E|---------------------------------3--------3--|--------------------------3-----3--------3---|
B|-3--3--3--3----3--3--3--3--6--3-----3--6-----|-3--3--3--3--3---1--1--1-----3-----3--6------|


C|-------------------------------------------|-------------------------------------------|
G|-------------------------------------------|-------------------------------------------|
D|-0---0---12-13-0--10-12-0--12-13-0--10-12--|-0---0---12-13-0--10-12-0--12-13-0--10-12--|
A|-------------------------------------------|-------------------------------------------|
E|-------------------------------------------|-------------------------------------------|
B|-------------------------------------------|-------------------------------------------|


C|-------------------------------------------|-----------------------------------------|
G|-------------------------------------------|-----------5----------5--------3--5------|
D|-0---0---12-13-0--10-12-0--12-13-0--10-12--|-----------------------------------------|
A|-------------------------------------------|-3---3--3------3--3------3--3--------3---|
E|-------------------------------------------|-----------------------------------------|
B|-------------------------------------------|-----------------------------------------|


C|-------------------------------------------|-------------------------------------------|
G|-------------------------------------------|-------------------------------------------|
D|-0---0---12-13-0--10-12-0--12-13-0--10-12--|-0---0---12-13-0--10-12-0--12-13-0--10-12--|
A|-------------------------------------------|-------------------------------------------|
E|-------------------------------------------|-------------------------------------------|
B|-------------------------------------------|-------------------------------------------|


C|-------------------------------------------|-----------------------------------------|
G|-------------------------------------------|-----------5----------5--------3--5------|
D|-0---0---12-13-0--10-12-0--12-13-0--10-12--|-----------------------------------------|
A|-------------------------------------------|-3---3--3------3--3------3--3--------3---|
E|-------------------------------------------|-----------------------------------------|
B|-------------------------------------------|-----------------------------------------|


C|-------------------------------------------|-------------------------------------------|
G|-------------------------------------------|-------------------------------------------|
D|-0---0---12-13-0--10-12-0--12-13-0--10-12--|-0---0---12-13-0--10-12-0--12-13-0--10-12--|
A|-------------------------------------------|-------------------------------------------|
E|-------------------------------------------|-------------------------------------------|
B|-------------------------------------------|-------------------------------------------|


C|-------------------------------------------|------------------------------------------------|
G|-------------------------------------------|------------------------------------------------|
D|-0---0---12-13-0--10-12-0--12-13-0--10-12--|-0---0---7--8--0--5--7--0--7--8--0--3--3--5--3--|
A|-------------------------------------------|------------------------------------------------|
E|-------------------------------------------|------------------------------------------------|
B|-------------------------------------------|------------------------------------------------|


C|-------------------------------------------|-------------------------------------------|
G|-------------------------------------------|-------------------------------------------|
D|-0---0---12-13-0--10-12-0--12-13-0--10-12--|-0---0---12-13-0--10-12-0--12-13-0--10-12--|
A|-------------------------------------------|-------------------------------------------|
E|-------------------------------------------|-------------------------------------------|
B|-------------------------------------------|-------------------------------------------|


C|-------------------------------------------|-------------------------------------------|
G|-------------------------------------------|---------7--8-----11-12----11-12----12-11--|
D|-0---0---12-13-0--10-12-0--12-13-0--10-12--|-0---0---------0--------0--------0---------|
A|-------------------------------------------|-------------------------------------------|
E|-------------------------------------------|-------------------------------------------|
B|-------------------------------------------|-------------------------------------------|


C|-------------------------------------------|-------------------------------------------|
G|-------------------------------------------|-------------------------------------------|
D|-0---0---12-13-0--10-12-0--12-13-0--10-12--|-0---0---12-13-0--10-12-0--12-13-0--10-12--|
A|-------------------------------------------|-------------------------------------------|
E|-------------------------------------------|-------------------------------------------|
B|-------------------------------------------|-------------------------------------------|


C|-------------------------------------------|------------------------------------------------|
G|-------------------------------------------|------------------------------------------------|
D|-0---0---12-13-0--10-12-0--12-13-0--10-12--|-0---0---7--8--0--5--7--0--7--8--0--3--3--5--3--|
A|-------------------------------------------|------------------------------------------------|
E|-------------------------------------------|------------------------------------------------|
B|-------------------------------------------|------------------------------------------------|


C|-------------------------------------------|-------------------------------------------|
G|-------------------------------------------|-------------------------------------------|
D|-0---0---12-13-0--10-12-0--12-13-0--10-12--|-0---0---12-13-0--10-12-0--12-13-0--10-12--|
A|-------------------------------------------|-------------------------------------------|
E|-------------------------------------------|-------------------------------------------|
B|-------------------------------------------|-------------------------------------------|


C|-------------------------------------------|-------------------------------------------|
G|-------------------------------------------|---------7--8-----11-12----11-12----12-11--|
D|-0---0---12-13-0--10-12-0--12-13-0--10-12--|-0---0---------0--------0--------0---------|
A|-------------------------------------------|-------------------------------------------|
E|-------------------------------------------|-------------------------------------------|
B|-------------------------------------------|-------------------------------------------|


C|---------------------------------------|-------------------------------------------|
G|---------------------------------------|-------------------------------------------|
D|---------------7--8--7-----------------|---------------------------------5--7--5---|
A|-0---0---7--8------------0---0---8--7--|-5--4------------4--5------5--7------------|
E|---------------------------------------|--------5--6--5--------5-------------------|
B|---------------------------------------|-------------------------------------------|


C|---------------------------------------|-------------------------------------------|
G|---------------------------------------|-------------------------------------------|
D|---------------7--8--7-----------------|---------------------------------5--7--5---|
A|-0---0---7--8------------0---0---8--7--|-5--4------------4--5------5--7------------|
E|---------------------------------------|--------5--6--5--------5-------------------|
B|---------------------------------------|-------------------------------------------|


C|---------------------------------------|-------------------------------------------|
G|---------------------------------------|-------------------------------------------|
D|---------------7--8--7-----------------|---------------------------------5--7--5---|
A|-0---0---7--8------------0---0---8--7--|-5--4------------4--5------5--7------------|
E|---------------------------------------|--------5--6--5--------5-------------------|
B|---------------------------------------|-------------------------------------------|


C|---------------------------------------|-------------------------------------------|
G|---------------------------------------|-------------------------------------------|
D|---------------7--8--7-----------------|---------------------------------5--7--5---|
A|-0---0---7--8------------0---0---8--7--|-5--4------------4--5------5--7------------|
E|---------------------------------------|--------5--6--5--------5-------------------|
B|---------------------------------------|-------------------------------------------|


C|-------------------------------------------------|-------------------------------------------------|
G|-------------------------------------------------|-------------------------------------------------|
D|-------------------------------------------------|-------------------------------------------7--8--|
A|-------------------------------------------------|----------------------------------5--7--8--------|
E|-3--5--6--3--6--3--5--6--3--6--3--5--6--3--------|-3--5--6--3--6--3--5--6--3--5--6-----------------|
B|-------------------------------------------6--3--|-------------------------------------------------|


C|---------------------------------------|-------------------------------------------|
G|---------------------------------------|-------------------------------------------|
D|---------------7--8--7-----------------|---------------------------------5--7--5---|
A|-0---0---7--8------------0---0---8--7--|-5--4------------4--5------5--7------------|
E|---------------------------------------|--------5--6--5--------5-------------------|
B|---------------------------------------|-------------------------------------------|


C|-------------------------------------------------|-------------------------------------------------------|
G|-------------------------------------------------|-------------------------------------------------------|
D|-------------------------------------------------|-------------------------------------------5--8--6--5--|
A|-------------------------------------------------|-------------------------------3--5--6--8--------------|
E|-3--5--6--3--6--3--5--6--3--6--3--5--6--3--------|-3--5--6--3--6--3--5--6--3--5--------------------------|
B|-------------------------------------------6--3--|-------------------------------------------------------|


C|--------------------------|--------------------------|-------------------------------------------------|
G|--------------------------|--------------------------|-------------------------------------------------|
D|--------------------------|--------------------------|-------------------------------------------------|
A|--------------------------|--------------------------|-3--3--3--3--3--3--3--3--3--3--3--3--3--3--3--3--|
E|-4-----4--4----4--4--4----|-1-----1--1----1--1--1----|-------------------------------------------------|
B|--------------------------|--------------------------|-------------------------------------------------|


C|-------------------------------------------------|-------------------------------------------------|
G|-------------------------------------------------|-------------------------------------------------|
D|-------------------------------------------------|-------------------------------------------------|
A|-------------------------------------------------|-8--8--8--8--8--8--8--8--8--8--8--8--8--8--8--8--|
E|-4--4--4--4--4--4--4--4--4--4--4--4--4--4--4--4--|-------------------------------------------------|
B|-------------------------------------------------|-------------------------------------------------|


C|-------------|-------------------------------------------------|-------------------------------------------------|
G|-------------|-------------------------------------------------|-------------------------------------------------|
D|-------------|-------------------------------------------------|-------------------------------------------------|
A|-6-----------|-3--3--3--3--3--3--3--3--3--3--3--3--3--3--3--3--|-------------------------------------------------|
E|-------6-----|-------------------------------------------------|-4--4--4--4--4--4--4--4--4--4--4--4--4--4--4--4--|
B|-------------|-------------------------------------------------|-------------------------------------------------|


C|-------------------------------------------------|-------------|-------------------------------------|
G|-------------------------------------------------|-------------|----------------5----5--5--3--5--3---|
D|-------------------------------------------------|-------------|-------------------------------------|
A|-8--8--8--8--8--8--8--8--8--8--8--8--8--8--8--8--|-------------|-3----3--3---3-----------------------|
E|-------------------------------------------------|-------------|-------------------------------------|
B|-------------------------------------------------|-4-----3-----|-------------------------------------|


C|-------------------------------------|--------------------------------|----------------------------------|
G|----------------5----5--5--3--5--3---|--------------------------------|----------------------------------|
D|-------------------------------------|--------------------------------|----------------------------------|
A|-3----3--3---3-----------------------|--------------------------------|----------------------------------|
E|-------------------------------------|-5----5--5---5----5--5--5---5---|-4----4--4---4----4--4--4--4--4---|
B|-------------------------------------|--------------------------------|----------------------------------|


C|----------------------------------|----------------------------------|----------------------------------|
G|----------------------------------|----------------------------------|----------------------------------|
D|----------------------------------|----------------------------------|----------------------------------|
A|-8----8--8---8----8--8--8--8--8---|----------------------------------|----------------------------------|
E|----------------------------------|-9----9--9---9----9--9--9--9--9---|-6----6--6---6----6--6--6--6--6---|
B|----------------------------------|----------------------------------|----------------------------------|


C|-------------|--------------------------------|--------------------------------|
G|-------------|-------------7----------5--7----|-------------7----------5--7----|
D|-------------|-0----0---0-------0--0----------|-0----0---0-------0--0----------|
A|-------------|--------------------------------|--------------------------------|
E|-3-----------|--------------------------------|--------------------------------|
B|-------5-----|--------------------------------|--------------------------------|


C|--------------------------------|--------------------------------|--------------------------------|
G|-------------7----------5--7----|-------------7----------5--7----|-------------7----------5--7----|
D|-0----0---0-------0--0----------|-0----0---0-------0--0----------|-0----0---0-------0--0----------|
A|--------------------------------|--------------------------------|--------------------------------|
E|--------------------------------|--------------------------------|--------------------------------|
B|--------------------------------|--------------------------------|--------------------------------|


C|--------------------------------|--------------------------------|--------------------------------|
G|-------------7----------5--7----|-------------7----------5--7----|-------------7----------5--7----|
D|-0----0---0-------0--0----------|-0----0---0-------0--0----------|-0----0---0-------0--0----------|
A|--------------------------------|--------------------------------|--------------------------------|
E|--------------------------------|--------------------------------|--------------------------------|
B|--------------------------------|--------------------------------|--------------------------------|


C|--------------------------------|--------------------------------|--------------------------------|
G|-------------7----------5--7----|-------------7----------5--7----|-------------7----------5--7----|
D|-0----0---0-------0--0----------|-0----0---0-------0--0----------|-0----0---0-------0--0----------|
A|--------------------------------|--------------------------------|--------------------------------|
E|--------------------------------|--------------------------------|--------------------------------|
B|--------------------------------|--------------------------------|--------------------------------|


C|--------------------------------|--------------------------------|--------------------------------|
G|-------------7----------5--7----|-------------7----------5--7----|-------------7----------5--7----|
D|-0----0---0-------0--0----------|-0----0---0-------0--0----------|-0----0---0-------0--0----------|
A|--------------------------------|--------------------------------|--------------------------------|
E|--------------------------------|--------------------------------|--------------------------------|
B|--------------------------------|--------------------------------|--------------------------------|


C|--------------------------------|--------------------------------|--------------------------------|
G|-------------7----------5--7----|-------------7----------5--7----|-------------7----------5--7----|
D|-0----0---0-------0--0----------|-0----0---0-------0--0----------|-0----0---0-------0--0----------|
A|--------------------------------|--------------------------------|--------------------------------|
E|--------------------------------|--------------------------------|--------------------------------|
B|--------------------------------|--------------------------------|--------------------------------|


C|--------------------------------|--------------------------------|--------------------------------|
G|-------------7----------5--7----|-------------7----------5--7----|-------------7----------5--7----|
D|-0----0---0-------0--0----------|-0----0---0-------0--0----------|-0----0---0-------0--0----------|
A|--------------------------------|--------------------------------|--------------------------------|
E|--------------------------------|--------------------------------|--------------------------------|
B|--------------------------------|--------------------------------|--------------------------------|


C|--------------------------------|--------------------------------|--------------------------------|
G|-------------7----------5--7----|-------------7----------5--7----|-------------7----------5--7----|
D|-0----0---0-------0--0----------|-0----0---0-------0--0----------|-0----0---0-------0--0----------|
A|--------------------------------|--------------------------------|--------------------------------|
E|--------------------------------|--------------------------------|--------------------------------|
B|--------------------------------|--------------------------------|--------------------------------|


C|--------------------------------|--------------------------------|--------------------------------|
G|-------------7----------5--7----|--------------------------------|--------------------------------|
D|-0----0---0-------0--0----------|--------------------------------|--------------------------------|
A|--------------------------------|-------------5----------3--5----|-------------5----------3--5----|
E|--------------------------------|--------------------------------|--------------------------------|
B|--------------------------------|-3----3---3-------3--3----------|-3----3---3-------3--3----------|


C|--------------------------------|--------------------------------|--------------------------------|
G|--------------------------------|--------------------------------|--------------------------------|
D|--------------------------------|--------------------------------|--------------------------------|
A|-------------5----------3--5----|-------------5----------3--5----|-------------5----------3--5----|
E|--------------------------------|--------------------------------|--------------------------------|
B|-3----3---3-------3--3----------|-3----3---3-------3--3----------|-3----3---3-------3--3----------|


C|--------------------------------|--------------------------------|--------------------------------|
G|--------------------------------|--------------------------------|--------------------------------|
D|--------------------------------|--------------------------------|--------------------------------|
A|-------------5----------3--5----|-------------5----------3--5----|-------------5----------3--5----|
E|--------------------------------|--------------------------------|--------------------------------|
B|-3----3---3-------3--3----------|-3----3---3-------3--3----------|-3----3---3-------3--3----------|


C|-----------------------------------------------|-----------------------------------------------|
G|-----------------------------------------------|-----------------5--4--------------------------|
D|-----5-----3--5-----6-----3--5-----------------|-----5-----3--5-----------6--5-----------------|
A|-----------------------------------6--5--3--2--|-----------------------------------3--5--2-----|
E|-3------3--------3-----3--------3--------------|-3------3--------------3--------3-----------4--|
B|-----------------------------------------------|-----------------------------------------------|


C|-----------------------------------------------|-----------------------------------------------|
G|-----------------------------------------------|-----------------5--4--------------------------|
D|-----5-----3--5-----6-----3--5-----------------|-----5-----3--5-----------6--5-----------------|
A|-----------------------------------6--5--3--2--|-----------------------------------3--5--2-----|
E|-3------3--------3-----3--------3--------------|-3------3--------------3--------3-----------4--|
B|-----------------------------------------------|-----------------------------------------------|


C|-----------------------------------------------|-----------------------------------------------|
G|-----------------------------------------------|-----------------5--4--------------------------|
D|-----5-----3--5-----6-----3--5-----------------|-----5-----3--5-----------6--5-----------------|
A|-----------------------------------6--5--3--2--|-----------------------------------3--5--2-----|
E|-3------3--------3-----3--------3--------------|-3------3--------------3--------3-----------4--|
B|-----------------------------------------------|-----------------------------------------------|


C|-----------------------------------------------|-----------------------------------------------|
G|-----------------------------------------------|-----------------5--4--------------------------|
D|-----5-----3--5-----6-----3--5-----------------|-----5-----3--5-----------6--5-----------------|
A|-----------------------------------6--5--3--2--|-----------------------------------3--5--2-----|
E|-3------3--------3-----3--------3--------------|-3------3--------------3--------3-----------4--|
B|-----------------------------------------------|-----------------------------------------------|


C|-------------------------------------------|-------------------------------------------|
G|-------------------------------------------|-------------------------------------------|
D|-0---0---12-13-0--10-12-0--12-13-0--10-12--|-0---0---12-13-0--10-12-0--12-13-0--10-12--|
A|-------------------------------------------|-------------------------------------------|
E|-------------------------------------------|-------------------------------------------|
B|-------------------------------------------|-------------------------------------------|


C|-------------------------------------------|------------------------------------------------|
G|-------------------------------------------|------------------------------------------------|
D|-0---0---12-13-0--10-12-0--12-13-0--10-12--|-0---0---7--8--0--5--7--0--7--8--0--3--3--5--3--|
A|-------------------------------------------|------------------------------------------------|
E|-------------------------------------------|------------------------------------------------|
B|-------------------------------------------|------------------------------------------------|


C|-------------------------------------------|-------------------------------------------|
G|-------------------------------------------|-------------------------------------------|
D|-0---0---12-13-0--10-12-0--12-13-0--10-12--|-0---0---12-13-0--10-12-0--12-13-0--10-12--|
A|-------------------------------------------|-------------------------------------------|
E|-------------------------------------------|-------------------------------------------|
B|-------------------------------------------|-------------------------------------------|


C|-------------------------------------------|-------------------------------------------|
G|-------------------------------------------|---------7--8-----11-12----11-12----12-11--|
D|-0---0---12-13-0--10-12-0--12-13-0--10-12--|-0---0---------0--------0--------0---------|
A|-------------------------------------------|-------------------------------------------|
E|-------------------------------------------|-------------------------------------------|
B|-------------------------------------------|-------------------------------------------|


C|-----------------------------------------------|-----------------------------------------------|
G|-----------------------------------------------|-----------------5--4--------------------------|
D|-----5-----3--5-----6-----3--5-----------------|-----5-----3--5-----------6--5-----------------|
A|-----------------------------------6--5--3--2--|-----------------------------------3--5--2-----|
E|-3------3--------3-----3--------3--------------|-3------3--------------3--------3-----------4--|
B|-----------------------------------------------|-----------------------------------------------|


C|-----------------------------------------------|-----------------------------------------------|
G|-----------------------------------------------|-----------------5--4--------------------------|
D|-----5-----3--5-----6-----3--5-----------------|-----5-----3--5-----------6--5-----------------|
A|-----------------------------------6--5--3--2--|-----------------------------------3--5--2-----|
E|-3------3--------3-----3--------3--------------|-3------3--------------3--------3-----------4--|
B|-----------------------------------------------|-----------------------------------------------|


C|-----------------------------------------------|-----------------------------------------------|
G|-----------------------------------------------|-----------------5--4--------------------------|
D|-----5-----3--5-----6-----3--5-----------------|-----5-----3--5-----------6--5-----------------|
A|-----------------------------------6--5--3--2--|-----------------------------------3--5--2-----|
E|-3------3--------3-----3--------3--------------|-3------3--------------3--------3-----------4--|
B|-----------------------------------------------|-----------------------------------------------|


C|-----------------------------------------------|-----------------------------------------------|
G|-----------------------------------------------|-----------------5--4--------------------------|
D|-----5-----3--5-----6-----3--5-----------------|-----5-----3--5-----------6--5-----------------|
A|-----------------------------------6--5--3--2--|-----------------------------------3--5--2-----|
E|-3------3--------3-----3--------3--------------|-3------3--------------3--------3-----------4--|
B|-----------------------------------------------|-----------------------------------------------|


C|-------------------------------------------|-------------------------------------------|
G|-------------------------------------------|-------------------------------------------|
D|-------------------------------------------|-------------------------------------------|
A|-0---0---12-13-0--10-12-0--12-13-0--10-12--|-0---0---12-13-0--10-12-0--12-13-0--10-12--|
E|-------------------------------------------|-------------------------------------------|
B|-------------------------------------------|-------------------------------------------|


C|-------------------------------------------|------------------------------------------------|
G|-------------------------------------------|------------------------------------------------|
D|-------------------------------------------|------------------------------------------------|
A|-0---0---12-13-0--10-12-0--12-13-0--10-12--|-0---0---7--8--0--5--7--0--7--8--0--3--3--5--3--|
E|-------------------------------------------|------------------------------------------------|
B|-------------------------------------------|------------------------------------------------|


C|-------------------------------------------|-------------------------------------------|
G|-------------------------------------------|-------------------------------------------|
D|-------------------------------------------|-------------------------------------------|
A|-0---0---12-13-0--10-12-0--12-13-0--10-12--|-0---0---12-13-0--10-12-0--12-13-0--10-12--|
E|-------------------------------------------|-------------------------------------------|
B|-------------------------------------------|-------------------------------------------|


C|-------------------------------------------|-------------------------------------------|
G|-------------------------------------------|-------------------------------------------|
D|-------------------------------------------|---------7--8-----11-12----11-12----12-11--|
A|-0---0---12-13-0--10-12-0--12-13-0--10-12--|-0---0---------0--------0--------0---------|
E|-------------------------------------------|-------------------------------------------|
B|-------------------------------------------|-------------------------------------------|


C|-------------------------------------------------|-------------------------------------------------|
G|-------------------------------------------------|-------------------------------------------------|
D|-------------------------------------------------|-------------------------------------------7--8--|
A|-------------------------------------------------|----------------------------------5--7--8--------|
E|-3--5--6--3--6--3--5--6--3--6--3--5--6--3--------|-3--5--6--3--6--3--5--6--3--5--6-----------------|
B|-------------------------------------------6--3--|-------------------------------------------------|


C|---------------------------------------|-------------------------------------------|
G|---------------------------------------|-------------------------------------------|
D|---------------7--8--7-----------------|---------------------------------5--7--5---|
A|-0---0---7--8------------0---0---8--7--|-5--4------------4--5------5--7------------|
E|---------------------------------------|--------5--6--5--------5-------------------|
B|---------------------------------------|-------------------------------------------|


C|-------------------------------------------------|-------------------------------------------------------|
G|-------------------------------------------------|-------------------------------------------------------|
D|-------------------------------------------------|-------------------------------------------5--8--6--5--|
A|-------------------------------------------------|-------------------------------3--5--6--8--------------|
E|-3--5--6--3--6--3--5--6--3--6--3--5--6--3--------|-3--5--6--3--6--3--5--6--3--5--------------------------|
B|-------------------------------------------6--3--|-------------------------------------------------------|


C|--------------------------|--------------------------|-------------------------------------------------|
G|--------------------------|--------------------------|-------------------------------------------------|
D|--------------------------|--------------------------|-------------------------------------------------|
A|--------------------------|--------------------------|-3--3--3--3--3--3--3--3--3--3--3--3--3--3--3--3--|
E|-4-----4--4----4--4--4----|-1-----1--1----1--1--1----|-------------------------------------------------|
B|--------------------------|--------------------------|-------------------------------------------------|


C|-------------------------------------------------|-------------------------------------------------|
G|-------------------------------------------------|-------------------------------------------------|
D|-------------------------------------------------|-------------------------------------------------|
A|-------------------------------------------------|-8--8--8--8--8--8--8--8--8--8--8--8--8--8--8--8--|
E|-4--4--4--4--4--4--4--4--4--4--4--4--4--4--4--4--|-------------------------------------------------|
B|-------------------------------------------------|-------------------------------------------------|


C|-------------|-------------------------------------------------|-------------------------------------------------|
G|-------------|-------------------------------------------------|-------------------------------------------------|
D|-------------|-------------------------------------------------|-------------------------------------------------|
A|-6-----------|-3--3--3--3--3--3--3--3--3--3--3--3--3--3--3--3--|-------------------------------------------------|
E|-------6-----|-------------------------------------------------|-4--4--4--4--4--4--4--4--4--4--4--4--4--4--4--4--|
B|-------------|-------------------------------------------------|-------------------------------------------------|


C|-------------------------------------------------|-------------|-------------------------------------|
G|-------------------------------------------------|-------------|----------------5----5--5--3--5--3---|
D|-------------------------------------------------|-------------|-------------------------------------|
A|-8--8--8--8--8--8--8--8--8--8--8--8--8--8--8--8--|-------------|-3----3--3---3-----------------------|
E|-------------------------------------------------|-------------|-------------------------------------|
B|-------------------------------------------------|-4-----3-----|-------------------------------------|


C|-------------------------------------|--------------------------------|----------------------------------|
G|----------------5----5--5--3--5--3---|--------------------------------|----------------------------------|
D|-------------------------------------|--------------------------------|----------------------------------|
A|-3----3--3---3-----------------------|--------------------------------|----------------------------------|
E|-------------------------------------|-5----5--5---5----5--5--5---5---|-4----4--4---4----4--4--4--4--4---|
B|-------------------------------------|--------------------------------|----------------------------------|


C|----------------------------------|----------------------------------|----------------------------------|
G|----------------------------------|----------------------------------|----------------------------------|
D|----------------------------------|----------------------------------|----------------------------------|
A|-8----8--8---8----8--8--8--8--8---|----------------------------------|----------------------------------|
E|----------------------------------|-9----9--9---9----9--9--9--9--9---|-6----6--6---6----6--6--6--6--6---|
B|----------------------------------|----------------------------------|----------------------------------|


C|-------------|-------------------------------------------|-------------------------------------------|
G|-------------|-------------------------------------------|-------------------------------------------|
D|-------------|-------------------------------------------|-------------------------------------------|
A|-------------|---------5--6-----3--5-----5--6-----3--5---|---------5--6-----3--5-----5--6-----3--5---|
E|-3-----------|-------------------------------------------|-------------------------------------------|
B|-------5-----|-3---3---------3--------3--------3---------|-3---3---------3--------3--------3---------|


C|-------------------------------------------|------------------------------------------------|
G|-------------------------------------------|------------------------------------------------|
D|-------------------------------------------|------------------------------------------------|
A|---------5--6-----3--5-----5--6-----3--5---|------------------------------------------------|
E|-------------------------------------------|---------5--6-----3--5-----5--6-----1--1--3--1--|
B|-3---3---------3--------3--------3---------|-3---3---------3--------3--------3--------------|


C|-------------------------------------------|-------------------------------------------|
G|-------------------------------------------|-------------------------------------------|
D|-------------------------------------------|-------------------------------------------|
A|---------5--6-----3--5-----5--6-----3--5---|---------5--6-----3--5-----5--6-----3--5---|
E|-------------------------------------------|-------------------------------------------|
B|-3---3---------3--------3--------3---------|-3---3---------3--------3--------3---------|


C|-------------------------------------------|-------------------------------------------|
G|-------------------------------------------|-------------------------------------------|
D|-------------------------------------------|------------------4--5-----4--5-----5--4---|
A|---------5--6-----3--5-----5--6-----3--5---|---------5--6------------------------------|
E|-------------------------------------------|-------------------------------------------|
B|-3---3---------3--------3--------3---------|-3---3---------3--------3--------3---------|


C|-----------------------------------------|-----------------------------------------|
G|-----------7----------7--------5--7------|-----------7----------7--------5--7------|
D|-0---0--0------0--0------0--0--------0---|-0---0--0------0--0------0--0--------0---|
A|-----------------------------------------|-----------------------------------------|
E|-----------------------------------------|-----------------------------------------|
B|-----------------------------------------|-----------------------------------------|


C|-----------------------------------------|-----------------------------------------|
G|-----------7----------7--------5--7------|-----------5----------5--------3--5------|
D|-0---0--0------0--0------0--0--------0---|-----------------------------------------|
A|-----------------------------------------|-3---3--3------3--3------3--3--------3---|
E|-----------------------------------------|-----------------------------------------|
B|-----------------------------------------|-----------------------------------------|


C|-----------------------------------------|-----------------------------------------|
G|-----------7----------7--------5--7------|-----------7----------7--------5--7------|
D|-0---0--0------0--0------0--0--------0---|-0---0--0------0--0------0--0--------0---|
A|-----------------------------------------|-----------------------------------------|
E|-----------------------------------------|-----------------------------------------|
B|-----------------------------------------|-----------------------------------------|


C|-----------------------------------------|-----------------------------------------|
G|-----------7----------7--------5--7------|-----------5----------5--------3--5------|
D|-0---0--0------0--0------0--0--------0---|-----------------------------------------|
A|-----------------------------------------|-3---3--3------3--3------3--3--------3---|
E|-----------------------------------------|-----------------------------------------|
B|-----------------------------------------|-----------------------------------------|


C|--------------------|--------------------|-----------------------|--------------------------|
G|--------------------|--------------------|-----------------------|----------------------7---|
D|--------------------|--------------------|-----------------------|-----------------0--------|
A|--------------------|--------------------|-----------------------|-------6--5--3------------|
E|--------------------|--------------------|-----------------------|--------------------------|
B|-3--------------3---|------------3-------|-----------3-----------|--------------------------|


C|------------------------|------------------------|------------------------|--------------------------|
G|----------7--------7----|------7--------7--------|-----7--------7---------|----------------7---------|
D|-----0--------0---------|-0--------0---------0---|---------0---------0----|-----------0---------0----|
A|------------------------|------------------------|------------------------|-6--5--3------------------|
E|------------------------|------------------------|------------------------|--------------------------|
B|------------------------|------------------------|------------------------|--------------------------|


C|------------------------|------------------------|-----------------------------|
G|-7--------7---------7---|------7---------7-------|-----7-----------------------|
D|-----0---------0--------|-0---------0--------0---|----------0------------------|
A|------------------------|------------------------|---------------6--5--3----3--|
E|------------------------|------------------------|-----------------------------|
B|------------------------|------------------------|-----------------------------|


C|--------------------------------|-----------------------------|------------------------|
G|-------5----5---5---------------|-------5----5---5------------|-7---------7--------7---|
D|--------------------------------|------------------------0----|------0--------0--------|
A|----3--------------3----3----3--|----3--------------3---------|------------------------|
E|--------------------------------|-----------------------------|------------------------|
B|--------------------------------|-----------------------------|------------------------|


C|------------------------|------------------------|-----------------------------------|
G|----------7--------7----|------7--------7--------|-----------------------5----5---5--|
D|-----0--------0---------|-0--------0---------0---|-----------------------------------|
A|------------------------|------------------------|-----6--5--3----3---3--------------|
E|------------------------|------------------------|-----------------------------------|
B|------------------------|------------------------|-----------------------------------|


C|------------------------------|--------------------------------|--------------------------------------|
G|--------------5---5-----------|-------5----5---5---------------|-5---5--------------------------------|
D|------------------------------|--------------------------------|---------------4--5--4----------------|
A|-3----3---3-----------3----3--|----3--------------3----3---3---|---------5--6-----------6--5----------|
E|------------------------------|--------------------------------|--------------------------------------|
B|------------------------------|--------------------------------|------------------------------3----3--|


C|-----------------------------|--------------------------|-----------------------------------------------|
G|-----------------------------|--------------------------|-----------------------------------------------|
D|-----------------------------|--------------------------|-----------------------------------------------|
A|-----------------------------|--------------------5--3--|----------3--5---3-----------3--5--6--3--5-----|
E|----------------3------------|--------------------------|-6--5--6------------6--5--6-----------------6--|
B|------3----3-------6--4--3---|-----3----3----3----------|-----------------------------------------------|


C|-----------------------------------------------|-------------------------------------------------|
G|-----------------------------------------------|-------------------------------------------------|
D|-----------------------------------------------|-------------------------------------------4--5--|
A|----5--3-----------3--5---3-----------3--5--6--|-3--5--------5--3-----------4--5--6--5--6--------|
E|-5--------6--5--6------------6--5--6-----------|-------6--5--------6--5--6-----------------------|
B|-----------------------------------------------|-------------------------------------------------|


C|-------------------------------------------------|-----------------------------------------------|
G|-------------------------------------------------|-----------------------------------------------|
D|----4-----------4--5--7--5--4--------5--4--------|----4--5---4-----------4--5--7--5--4--------5--|
A|-------6--5--6-----------------6--5--------6--5--|-6------------6--5--6-----------------6--5-----|
E|-------------------------------------------------|-----------------------------------------------|
B|-------------------------------------------------|-----------------------------------------------|


C|-------------------------------------------------|--------|--------|--------|--------|
G|-------------------------------------------------|-5------|-5------|--------|--------|
D|-4-----------4--5-----4--5--7--4--5--7--5--7--8--|--------|--------|--------|--------|
A|----6--5--6--------6-----------------------------|--------|--------|--------|--------|
E|-------------------------------------------------|--------|--------|--------|--------|
B|-------------------------------------------------|--------|--------|-3------|-3------|


C|--------|--------|
G|--------|--------|
D|--------|--------|
A|--------|--------|
E|--------|--------|
B|-3------|-3------|