Menu:

 

Search:

 

dream theater - hollow years:

 



Title: Hollow Years
Artist: 
Album: Falling Into Infinity 
Author: John Petrucci, Mike Portnoy, John Myung, Jordan Rudess & James LaBrie


Track 1: Acoustic Guitar

E|--------|--------|-0----0---0--0--0----0---0--0--|-3----3--3--3---3--3--3--3--3---3---|
B|--------|--------|-6----6---6--6--6----6---6--6--|-3----3--3--3---3--3--3--3--3---3---|
G|--------|--------|-7----7---7--7--7----7---7--7--|-3----3--3--3---3--3--3--3--3---3---|
D|--------|--------|-7----7---7--7--0----0---0--0--|-3----3--3--3---3--3--3--3--3---3---|
A|--------|--------|-5----5---5--5--0----0---0--0--|-5----5--5--5---5--5--5--5--5---5---|
E|--------|--------|----------------8----8---8--8--|-3----3--3--3---3--3--3--3--3---3---|


E|-3---3--3--3---3--3--3---3--3--3---3--3--|-0---0--0--0---0--5--5--5--5--5--5---5---|
B|-5---5--5--5---5--5--2---2--2--2---2--2--|-6---6--6--6---6--5--5--5--5--5--5---5---|
G|-3---3--3--3---3--3--2---2--2--2---2--2--|-7---7--7--7---7--5--5--5--5--5--5---5---|
D|-3---3--3--3---3--3--2---2--2--2---2--2--|-7---7--7--7---7--5--5--5--5--5--5---5---|
A|-5---5--5--5---5--5--0---0--0--0---0--0--|-5---5--5--5---5--7--7--7--7--7--7---7---|
E|-6---6--6--6---6--6----------------------|------------------5--5--5--5--5--5---5---|


E|-0----0---0--0--0----0---0--0--|-3----3--3--3---3--3--3--3--3---3---|-3---3--3------3--3--3---3--3--3---3--3--|
B|-6----6---6--6--6----6---6--6--|-3----3--3--3---3--3--3--3--3---3---|-5---5--5------5--5--2---2--2--2---2--2--|
G|-7----7---7--7--7----7---7--7--|-3----3--3--3---3--3--3--3--3---3---|-3---3--3------3--3--2---2--2--2---2--2--|
D|-7----7---7--7--0----0---0--0--|-3----3--3--3---3--3--3--3--3---3---|-3---3--3------3--3--2---2--2--2---2--2--|
A|-5----5---5--5--0----0---0--0--|-5----5--5--5---5--5--5--5--5---5---|-5---5--5--5---5--5--0---0--0--0---0--0--|
E|----------------8----8---8--8--|-3----3--3--3---3--3--3--3--3---3---|-6---6--6--6---6--6----------------------|


E|-0---0--0--0---0--0--0--0--0--0--0---0---|-------------1---1---------------|-------------------3---------------|
B|-6---6--6--6---6--6--6--6--6--6--6---6---|---------3-----------------------|---------------3-------------------|
G|-7---7--7--7---7--7--7--7--7--7--7---7---|-----2---------------0---2-------|-----------3-----------3-----------|
D|-7---7--7--7---7--7--7--7--7--7--7---7---|-0-------------------------------|--------5------------------3---2---|
A|-5---5--5--5---5--5--5--5--5--5--5---5---|-----------------3-----------3---|-----5-----------------------------|
E|------------------5--5--5--5--5--5---5---|---------------------------------|-3-----------------3---------------|


E|-------------------------------------|-------------------------------------|-------------1---1---------------|
B|-------------3----------3--5--3------|---------6---3---3---------5--3------|---------3-----------------------|
G|---------2-------7-------------------|-------------5---5---------------5---|-----2---------------0---2-------|
D|-----3---------------5-----------5---|-----7-------5---5------5------------|-0-------------------------------|
A|-1-----------------------------------|-5-----------0---0---0---------------|-----------------3-----------3---|
E|-----------------8-------------------|-------------------------------------|---------------------------------|


E|-------------------3---------------|-------------------------------------|---------3-----------------------|
B|---------------3-------------------|-------------3----------3--5--3------|-----------------5---------------|
G|-----------3-----------3-----------|---------2-------7-------------------|-----3-------3-------6-----------|
D|--------5------------------3---2---|-----3---------------5-----------5---|-------------------------7-------|
A|-----5-----------------------------|-1-----------------------------------|---------------------------------|
E|-3-----------------3---------------|-----------------8-------------------|-5---------------5-----------5---|


E|-1---1--1--1---1--1--1---1--1--1---1--1--|-0---0--0--0---0--0--0---0--0--0---0--0--|
B|-3---3--3--3---3--3--3---3--3--3---3--3--|-1---1--1--1---1--1--2---2--2--2---2--2--|
G|-2---2--2--2---2--2--2---2--2--2---2--2--|-0---0--0--0---0--0--0---0--0--0---0--0--|
D|-0---0--0--0---0--3--3---3--3--3---3--3--|-2---2--2--2---2--2--2---2--2--2---2--2--|
A|------------------1--1---1--1--1---1--1--|-3---3--3--3---3--3--0---0--0--0---0--0--|
E|-----------------------------------------|-----------------------------------------|


E|-1---1--1--1---1--1--1---1--1--1---1--1--|-0---0--0--0---0--0--0---0--0--0---0--0--|
B|-3---3--3--3---3--3--3---3--3--3---3--3--|-1---1--1--1---1--1--2---2--2--2---2--2--|
G|-2---2--2--2---2--2--2---2--2--2---2--2--|-0---0--0--0---0--0--0---0--0--0---0--0--|
D|-0---0--0--0---0--3--3---3--3--3---3--3--|-2---2--2--2---2--2--2---2--2--2---2--2--|
A|------------------1--1---1--1--1---1--1--|-3---3--3--3---3--3--0---0--0--0---0--0--|
E|-----------------------------------------|-----------------------------------------|


E|-1---1--1--1---1--1--1---1--1--1---1--1--|-0---0--0--0---0--0--0---0--0--0---0--0--|
B|-3---3--3--3---3--3--3---3--3--3---3--3--|-1---1--1--1---1--1--2---2--2--2---2--2--|
G|-2---2--2--2---2--2--2---2--2--2---2--2--|-0---0--0--0---0--0--0---0--0--0---0--0--|
D|-0---0--0--0---0--3--3---3--3--3---3--3--|-2---2--2--2---2--2--2---2--2--2---2--2--|
A|------------------1--1---1--1--1---1--1--|-3---3--3--3---3--3--0---0--0--0---0--0--|
E|-----------------------------------------|-----------------------------------------|


E|-1-----1-----|-0------|-1---1--1--1---1--1--1---1--1--1---1--1--|-1---1--1--1---1--1--1---1--1--1---1--1--|
B|-3-----3-----|-1------|-1---1--1--1---1--1--3---3--3--3---3--3--|-1---1--1--1---1--1--1---1--1--1---1--1--|
G|-2-----2-----|-0------|-2---2--2--2---2--2--3---3--3--3---3--3--|-0---0--0--0---0--0--0---0--0--0---0--0--|
D|-0-----3-----|-2------|-3---3--3--3---3--3--3---3--3--3---3--3--|-3---3--3--3---3--3--3---3--3--3---3--3--|
A|-------1-----|-3------|-0---0--0--0---0--0--1---1--1--1---1--1--|-3---3--3--3---3--3--3---3--3--3---3--3--|
E|-------------|--------|-----------------------------------------|-----------------------------------------|


E|-1---1--1--1---1--1--1---1--1--1---1--1--|-1---1--1--1---1--1--1---1--1--1---1--1--|
B|-1---1--1--1---1--1--3---3--3--3---3--3--|-1---1--1--1---1--1--3---3--3--3---3--3--|
G|-2---2--2--2---2--2--3---3--3--3---3--3--|-0---0--0--0---0--0--2---2--2--2---2--2--|
D|-3---3--3--3---3--3--3---3--3--3---3--3--|-3---3--3--3---3--3--0---0--0--0---0--0--|
A|-0---0--0--0---0--0--1---1--1--1---1--1--|-3---3--3--3---3--3----------------------|
E|-----------------------------------------|-----------------------------------------|


E|-1---1--1--1---1--1--1---1--1--1---1--1--|-1---1--1--1---1--1--0---0--0--0---0--0--|
B|-1---1--1--1---1--1--3---3--3--3---3--3--|-1---1--1--1---1--1--2---2--2--2---2--2--|
G|-2---2--2--2---2--2--3---3--3--3---3--3--|-0---0--0--0---0--0--0---0--0--0---0--0--|
D|-3---3--3--3---3--3--3---3--3--3---3--3--|-3---3--3--3---3--3--2---2--2--2---2--2--|
A|-0---0--0--0---0--0--1---1--1--1---1--1--|-3---3--3--3---3--3--0---0--0--0---0--0--|
E|-----------------------------------------|-----------------------------------------|


E|-1---1--1--1---1--1--1---1--1--1---1--1--|-3---3--3--3---3--3--3---3--3--3---3--3--|
B|-3---3--3--3---3--3--3---3--3--3---3--3--|-3---3--3--3---3--3--3---3--3--3---3--3--|
G|-2---2--2--2---2--2--2---2--2--2---2--2--|-0---0--0--0---0--0--0---0--0--0---0--0--|
D|-0---0--0--0---0--0--0---0--0--0---0--0--|-0---0--0--0---0--0--0---0--0--0---0--0--|
A|---------------------3---3--3--3---3--3--|-2---2--2--2---2--2--2---2--2--2---2--2--|
E|-----------------------------------------|-----------------------------------------|


E|-1---1--1--1---1--1--1---1--1--1---1---|-1---1--1--1--1--1--1--1--1--1--1--1---1--1--|
B|-3---3--3--3---3--3--1---1--1--1---1---|-1---1--1--1--1--1--1--3--3--3--3--3---3--3--|
G|-3---3--3--3---3--3--0---0--0--0---0---|-2---2--2--2--2--2--2--2--2--2--2--2---2--2--|
D|-3---3--3--3---3--3--3---3--3--3---3---|-3---3--3--3--3--3--3--0--0--0--0--0---0--0--|
A|-1---1--1--1---1--1--3---3--3--3---3---|---------------------------------------------|
E|---------------------------------------|---------------------------------------------|


E|-1---1--1--1--1--1--1--1--1--1--1--1---1--1--|-1---1--1--1--1--1--1--1--1--1--1--1---1--1--|
B|-3---3--3--3--3--3--3--1--1--1--1--1---1--1--|-1---1--1--1--1--1--1--3--3--3--3--3---3--3--|
G|-3---3--3--3--3--3--3--0--0--0--0--0---0--0--|-2---2--2--2--2--2--2--2--2--2--2--2---2--2--|
D|-3---3--3--3--3--3--3--3--3--3--3--3---3--3--|-3---3--3--3--3--3--3--0--0--0--0--0---0--0--|
A|-1---1--1--1--1--1--1--3--3--3--3--3---3--3--|---------------------------------------------|
E|---------------------------------------------|---------------------------------------------|


E|-1---1--1--1--1--1--1--1--1--1--1--1---1--1--|-------------1---1---------------|
B|-3---3--3--3--3--3--3--1--1--1--1--1---1--1--|---------3-----------------------|
G|-3---3--3--3--3--3--3--0--0--0--0--0---0--0--|-----2---------------0---2-------|
D|-3---3--3--3--3--3--3--3--3--3--3--3---3--3--|-0-------------------------------|
A|-1---1--1--1--1--1--1--3--3--3--3--3---3--3--|-----------------3-----------3---|
E|---------------------------------------------|---------------------------------|


E|-------------------3---------------|-------------------------------------|-------------------------------------|
B|---------------3-------------------|-------------3----------3--5--3------|---------6---3---3---------5--3------|
G|-----------3-----------3-----------|---------2-------7-------------------|-------------5---5---------------5---|
D|--------5------------------3---2---|-----3---------------5-----------5---|-----7-------5---5------5------------|
A|-----5-----------------------------|-1-----------------------------------|-5-----------0---0---0---------------|
E|-3-----------------3---------------|-----------------8-------------------|-------------------------------------|


E|-------------1---1---------------|-------------------3---------------|-------------------------------------|
B|---------3-----------------------|---------------3-------------------|-------------3----------3--5--3------|
G|-----2---------------0---2-------|-----------3-----------3-----------|---------2-------7-------------------|
D|-0-------------------------------|--------5------------------3---2---|-----3---------------5-----------5---|
A|-----------------3-----------3---|-----5-----------------------------|-1-----------------------------------|
E|---------------------------------|-3-----------------3---------------|-----------------8-------------------|


E|---------3-----------------------|-1---1--1--1---1--1--1---1--1--1---1--1--|-0---0--0--0---0--0--0---0--0--0---0--0--|
B|-----------------5---------------|-3---3--3--3---3--3--3---3--3--3---3--3--|-1---1--1--1---1--1--2---2--2--2---2--2--|
G|-----3-------3-------6-----------|-2---2--2--2---2--2--2---2--2--2---2--2--|-0---0--0--0---0--0--0---0--0--0---0--0--|
D|-------------------------7-------|-0---0--0--0---0--3--3---3--3--3---3--3--|-2---2--2--2---2--2--2---2--2--2---2--2--|
A|---------------------------------|------------------1--1---1--1--1---1--1--|-3---3--3--3---3--3--0---0--0--0---0--0--|
E|-5---------------5-----------5---|-----------------------------------------|-----------------------------------------|


E|-1---1--1--1---1--1--1---1--1--1---1--1--|-0---0--0--0---0--0--0---0--0--0---0--0--|
B|-3---3--3--3---3--3--3---3--3--3---3--3--|-1---1--1--1---1--1--2---2--2--2---2--2--|
G|-2---2--2--2---2--2--2---2--2--2---2--2--|-0---0--0--0---0--0--0---0--0--0---0--0--|
D|-0---0--0--0---0--3--3---3--3--3---3--3--|-2---2--2--2---2--2--2---2--2--2---2--2--|
A|------------------1--1---1--1--1---1--1--|-3---3--3--3---3--3--0---0--0--0---0--0--|
E|-----------------------------------------|-----------------------------------------|


E|-1---1--1--1---1--1--1---1--1--1---1--1--|-0---0--0--0---0--0--0---0--0--0---0--0--|
B|-3---3--3--3---3--3--3---3--3--3---3--3--|-1---1--1--1---1--1--2---2--2--2---2--2--|
G|-2---2--2--2---2--2--2---2--2--2---2--2--|-0---0--0--0---0--0--0---0--0--0---0--0--|
D|-0---0--0--0---0--3--3---3--3--3---3--3--|-2---2--2--2---2--2--2---2--2--2---2--2--|
A|------------------1--1---1--1--1---1--1--|-3---3--3--3---3--3--0---0--0--0---0--0--|
E|-----------------------------------------|-----------------------------------------|


E|-1-----1-----|-0------|-1---1--1--1---1--1--1---1--1--1---1--1--|-1---1--1--1---1--1--1---1--1--1---1--1--|
B|-3-----3-----|-1------|-1---1--1--1---1--1--3---3--3--3---3--3--|-1---1--1--1---1--1--1---1--1--1---1--1--|
G|-2-----2-----|-0------|-2---2--2--2---2--2--3---3--3--3---3--3--|-0---0--0--0---0--0--0---0--0--0---0--0--|
D|-0-----3-----|-2------|-3---3--3--3---3--3--3---3--3--3---3--3--|-3---3--3--3---3--3--3---3--3--3---3--3--|
A|-------1-----|-3------|-0---0--0--0---0--0--1---1--1--1---1--1--|-3---3--3--3---3--3--3---3--3--3---3--3--|
E|-------------|--------|-----------------------------------------|-----------------------------------------|


E|-1---1--1--1---1--1--1---1--1--1---1--1--|-1---1--1--1---1--1--1---1--1--1---1--1--|
B|-1---1--1--1---1--1--3---3--3--3---3--3--|-1---1--1--1---1--1--3---3--3--3---3--3--|
G|-2---2--2--2---2--2--3---3--3--3---3--3--|-0---0--0--0---0--0--2---2--2--2---2--2--|
D|-3---3--3--3---3--3--3---3--3--3---3--3--|-3---3--3--3---3--3--0---0--0--0---0--0--|
A|-0---0--0--0---0--0--1---1--1--1---1--1--|-3---3--3--3---3--3----------------------|
E|-----------------------------------------|-----------------------------------------|


E|-1---1--1--1---1--1--1---1--1--1---1--1--|-1---1--1--1---1--1--0---0--0--0---0--0--|
B|-1---1--1--1---1--1--3---3--3--3---3--3--|-1---1--1--1---1--1--2---2--2--2---2--2--|
G|-2---2--2--2---2--2--3---3--3--3---3--3--|-0---0--0--0---0--0--0---0--0--0---0--0--|
D|-3---3--3--3---3--3--3---3--3--3---3--3--|-3---3--3--3---3--3--2---2--2--2---2--2--|
A|-0---0--0--0---0--0--1---1--1--1---1--1--|-3---3--3--3---3--3--0---0--0--0---0--0--|
E|-----------------------------------------|-----------------------------------------|


E|-1---1--1--1---1--1--1---1--1--1---1--1--|-3---3--3--3---3--3--3---3--3--3---3--3--|
B|-3---3--3--3---3--3--3---3--3--3---3--3--|-3---3--3--3---3--3--3---3--3--3---3--3--|
G|-2---2--2--2---2--2--2---2--2--2---2--2--|-0---0--0--0---0--0--0---0--0--0---0--0--|
D|-0---0--0--0---0--0--0---0--0--0---0--0--|-0---0--0--0---0--0--0---0--0--0---0--0--|
A|---------------------3---3--3--3---3--3--|-2---2--2--2---2--2--2---2--2--2---2--2--|
E|-----------------------------------------|-----------------------------------------|


E|-1---1--1--1---1--1--1---1--1--1---1---|-0----0---0--0--0----0---0--0--|-3----3--3--3---3--3--3--3--3---3---|
B|-3---3--3--3---3--3--1---1--1--1---1---|-6----6---6--6--6----6---6--6--|-3----3--3--3---3--3--3--3--3---3---|
G|-3---3--3--3---3--3--0---0--0--0---0---|-7----7---7--7--7----7---7--7--|-3----3--3--3---3--3--3--3--3---3---|
D|-3---3--3--3---3--3--3---3--3--3---3---|-7----7---7--7--0----0---0--0--|-3----3--3--3---3--3--3--3--3---3---|
A|-1---1--1--1---1--1--3---3--3--3---3---|-5----5---5--5--0----0---0--0--|-5----5--5--5---5--5--5--5--5---5---|
E|---------------------------------------|----------------8----8---8--8--|-3----3--3--3---3--3--3--3--3---3---|


E|-3---3--3--3---3--3--3---3--3--3---3--3--|-0---0--0--0---0--5--5--5--5--5--5---5---|
B|-5---5--5--5---5--5--2---2--2--2---2--2--|-6---6--6--6---6--5--5--5--5--5--5---5---|
G|-3---3--3--3---3--3--2---2--2--2---2--2--|-7---7--7--7---7--5--5--5--5--5--5---5---|
D|-3---3--3--3---3--3--2---2--2--2---2--2--|-7---7--7--7---7--5--5--5--5--5--5---5---|
A|-5---5--5--5---5--5--0---0--0--0---0--0--|-5---5--5--5---5--7--7--7--7--7--7---7---|
E|-6---6--6--6---6--6----------------------|------------------5--5--5--5--5--5---5---|


E|-0----0---0--0--0----0---0--0--|-3----3--3--3---3--3--3--3--3---3---|-3---3--3--3---3--3--3---3--3--3---3--3--|
B|-6----6---6--6--6----6---6--6--|-3----3--3--3---3--3--3--3--3---3---|-5---5--5--5---5--5--2---2--2--2---2--2--|
G|-7----7---7--7--7----7---7--7--|-3----3--3--3---3--3--3--3--3---3---|-3---3--3--3---3--3--2---2--2--2---2--2--|
D|-7----7---7--7--0----0---0--0--|-3----3--3--3---3--3--3--3--3---3---|-3---3--3--3---3--3--2---2--2--2---2--2--|
A|-5----5---5--5--0----0---0--0--|-5----5--5--5---5--5--5--5--5---5---|-5---5--5--5---5--5--0---0--0--0---0--0--|
E|----------------8----8---8--8--|-3----3--3--3---3--3--3--3--3---3---|-6---6--6--6---6--6----------------------|


E|-0---0--0--0---0--5--5--5--5--5--5---5---|-1---1--1--1---1--1--1---1--1--1---1--1--|
B|-6---6--6--6---6--5--5--5--5--5--5---5---|-3---3--3--3---3--3--3---3--3--3---3--3--|
G|-7---7--7--7---7--5--5--5--5--5--5---5---|-2---2--2--2---2--2--2---2--2--2---2--2--|
D|-7---7--7--7---7--5--5--5--5--5--5---5---|-0---0--0--0---0--3--3---3--3--3---3--3--|
A|-5---5--5--5---5--7--7--7--7--7--7---7---|------------------1--1---1--1--1---1--1--|
E|------------------5--5--5--5--5--5---5---|-----------------------------------------|


E|-0---0--0--0---0--0--0---0--0--0---0--0--|-1---1--1--1---1--1--1---1--1--1---1--1--|
B|-1---1--1--1---1--1--2---2--2--2---2--2--|-3---3--3--3---3--3--3---3--3--3---3--3--|
G|-0---0--0--0---0--0--0---0--0--0---0--0--|-2---2--2--2---2--2--2---2--2--2---2--2--|
D|-2---2--2--2---2--2--2---2--2--2---2--2--|-0---0--0--0---0--3--3---3--3--3---3--3--|
A|-3---3--3--3---3--3--0---0--0--0---0--0--|------------------1--1---1--1--1---1--1--|
E|-----------------------------------------|-----------------------------------------|


E|-0---0--0--0---0--0--0---0--0--0---0--0--|-1---1--1--1---1--1--1---1--1--1---1--1--|
B|-1---1--1--1---1--1--2---2--2--2---2--2--|-3---3--3--3---3--3--3---3--3--3---3--3--|
G|-0---0--0--0---0--0--0---0--0--0---0--0--|-2---2--2--2---2--2--2---2--2--2---2--2--|
D|-2---2--2--2---2--2--2---2--2--2---2--2--|-0---0--0--0---0--3--3---3--3--3---3--3--|
A|-3---3--3--3---3--3--0---0--0--0---0--0--|------------------1--1---1--1--1---1--1--|
E|-----------------------------------------|-----------------------------------------|


E|-0---0--0--0---0--0--0---0--0--0---0--0--|-1-----1-----|-0------|--------|-3---3--3--3---3--3--0--0--0--0--0---0--0--|
B|-1---1--1--1---1--1--2---2--2--2---2--2--|-3-----3-----|-1------|--------|-3---3--3--3---3--3--1--1--1--1--1---1--1--|
G|-0---0--0--0---0--0--0---0--0--0---0--0--|-2-----2-----|-0------|--------|-0---0--0--0---0--0--0--0--0--0--0---0--0--|
D|-2---2--2--2---2--2--2---2--2--2---2--2--|-0-----3-----|-2------|--------|-0---0--0--0---0--0--2--2--2--2--2---2--2--|
A|-3---3--3--3---3--3--0---0--0--0---0--0--|-------1-----|-3------|--------|-2---2--2--2---2--2--3--3--3--3--3---3--3--|
E|-----------------------------------------|-------------|--------|--------|-------------------------------------------|


E|-3---3--3--3---3--3--3--3--3--3--3---3--3--|-3---3--3--3---3--3--0--0--0--0--0---0--0--|
B|-3---3--3--3---3--3--3--3--3--3--3---3--3--|-3---3--3--3---3--3--1--1--1--1--1---1--1--|
G|-2---2--2--2---2--2--2--2--2--2--2---2--2--|-0---0--0--0---0--0--0--0--0--0--0---0--0--|
D|-0---0--0--0---0--0--0--0--0--0--0---0--0--|-0---0--0--0---0--0--2--2--2--2--2---2--2--|
A|-------------------------------------------|-2---2--2--2---2--2--3--3--3--3--3---3--3--|
E|-------------------------------------------|-------------------------------------------|


E|-3---3--3--3---3--3--0--0--0--0--0---0--0--|-3---3--3--3---3--3--3--3--3--3--3---3--3--|
B|-3---3--3--3---3--3--0--0--0--0--0---0--0--|-3---3--3--3---3--3--3--3--3--3--3---3--3--|
G|-2---2--2--2---2--2--0--0--0--0--0---0--0--|-0---0--0--0---0--0--0--0--0--0--0---0--0--|
D|-0---0--0--0---0--0--2--2--2--2--2---2--2--|-0---0--0--0---0--0--0--0--0--0--0---0--0--|
A|---------------------2--2--2--2--2---2--2--|-2---2--2--2---2--2--2--2--2--2--2---2--2--|
E|---------------------0--0--0--0--0---0--0--|---------------------3--3--3--3--3---3--3--|


E|-3---3--3--3---3--3--2--2--2--2--2---2--2--|-0---0--0--0---0--0--0--0--0--0--0---0--0--|
B|-3---3--3--3---3--3--3--3--3--3--3---3--3--|-0---0--0--0---0--0--0--0--0--0--0---0--0--|
G|-2---2--2--2---2--2--2--2--2--2--2---2--2--|-0---0--0--0---0--0--0--0--0--0--0---0--0--|
D|-0---0--0--0---0--0--3--3--3--3--3---3--3--|-2---2--2--2---2--2--0--0--0--0--0---0--0--|
A|---------------------2--2--2--2--2---2--2--|-2---2--2--2---2--2--0--0--0--0--0---0--0--|
E|-------------------------------------------|-0---0--0--0---0--0------------------------|


E|-0---0--0--0---0--0--0--0--0--0--0---0--0--|-0---0--0--0---0--0--3--3--3--3--3---3--3--|
B|-2---2--2--2---2--2--2--2--2--2--2---2--2--|-1---1--1--1---1--1--3--3--3--3--3---3--3--|
G|-2---2--2--2---2--2--2--2--2--2--2---2--2--|-0---0--0--0---0--0--2--2--2--2--2---2--2--|
D|-2---2--2--2---2--2--2--2--2--2--2---2--2--|-2---2--2--2---2--2--0--0--0--0--0---0--0--|
A|-4---4--4--4---4--4--4--4--4--4--4---4--4--|-3---3--3--3---3--3------------------------|
E|-------------------------------------------|-------------------------------------------|


E|-3---3--3--3--3--3--3--0--0--0--0--0---0--0--|-0---0--0--0--0--0--0--3--3--3--3--3---3--3--|
B|-3---3--3--3--3--3--3--0--0--0--0--0---0--0--|-1---1--1--1--1--1--1--3--3--3--3--3---3--3--|
G|-0---0--0--0--0--0--0--0--0--0--0--0---0--0--|-0---0--0--0--0--0--0--2--2--2--2--2---2--2--|
D|-0---0--0--0--0--0--0--2--2--2--2--2---2--2--|-2---2--2--2--2--2--2--0--0--0--0--0---0--0--|
A|-2---2--2--2--2--2--2--2--2--2--2--2---2--2--|-3---3--3--3--3--3--3------------------------|
E|-3---3--3--3--3--3--3--0--0--0--0--0---0--0--|---------------------------------------------|


E|-3---3--3--3--3--3--3--0--0--0--0--0---0--0--|-0---0--0--0--0--0--0--3--3--3--3--3---3--3--|
B|-3---3--3--3--3--3--3--0--0--0--0--0---0--0--|-1---1--1--1--1--1--1--3--3--3--3--3---3--3--|
G|-0---0--0--0--0--0--0--0--0--0--0--0---0--0--|-0---0--0--0--0--0--0--2--2--2--2--2---2--2--|
D|-0---0--0--0--0--0--0--2--2--2--2--2---2--2--|-2---2--2--2--2--2--2--0--0--0--0--0---0--0--|
A|-2---2--2--2--2--2--2--2--2--2--2--2---2--2--|-3---3--3--3--3--3--3------------------------|
E|-3---3--3--3--3--3--3--0--0--0--0--0---0--0--|---------------------------------------------|


E|-3---3--3--3--3--3--3--0--0--0--0--0---0--0--|-0---0--0--0--0--0--0--3--3--3--3--3---3--3--|
B|-3---3--3--3--3--3--3--0--0--0--0--0---0--0--|-1---1--1--1--1--1--1--3--3--3--3--3---3--3--|
G|-0---0--0--0--0--0--0--0--0--0--0--0---0--0--|-0---0--0--0--0--0--0--2--2--2--2--2---2--2--|
D|-0---0--0--0--0--0--0--2--2--2--2--2---2--2--|-2---2--2--2--2--2--2--0--0--0--0--0---0--0--|
A|-2---2--2--2--2--2--2--2--2--2--2--2---2--2--|-3---3--3--3--3--3--3------------------------|
E|-3---3--3--3--3--3--3--0--0--0--0--0---0--0--|---------------------------------------------|


E|-3---3--3--3--3--3--3--0--0--0--0--0---0--0--|-0---0--0--0--0--0--0--3--3--3--3--3---3--3--|
B|-3---3--3--3--3--3--3--0--0--0--0--0---0--0--|-1---1--1--1--1--1--1--3--3--3--3--3---3--3--|
G|-0---0--0--0--0--0--0--0--0--0--0--0---0--0--|-0---0--0--0--0--0--0--2--2--2--2--2---2--2--|
D|-0---0--0--0--0--0--0--2--2--2--2--2---2--2--|-2---2--2--2--2--2--2--0--0--0--0--0---0--0--|
A|-2---2--2--2--2--2--2--2--2--2--2--2---2--2--|-3---3--3--3--3--3--3------------------------|
E|-3---3--3--3--3--3--3--0--0--0--0--0---0--0--|---------------------------------------------|


E|-3---3--3--3--3--3--3--0--0--0--0--0---0--0--|-0---0--0--0--0--0--0--3--3--3--3--3---3--3--|
B|-3---3--3--3--3--3--3--0--0--0--0--0---0--0--|-1---1--1--1--1--1--1--3--3--3--3--3---3--3--|
G|-0---0--0--0--0--0--0--0--0--0--0--0---0--0--|-0---0--0--0--0--0--0--2--2--2--2--2---2--2--|
D|-0---0--0--0--0--0--0--2--2--2--2--2---2--2--|-2---2--2--2--2--2--2--0--0--0--0--0---0--0--|
A|-2---2--2--2--2--2--2--2--2--2--2--2---2--2--|-3---3--3--3--3--3--3------------------------|
E|-3---3--3--3--3--3--3--0--0--0--0--0---0--0--|---------------------------------------------|


E|-3---3--3--3--3--3--3--0--0--0--0--0---0--0--|-0---0--0--0--0--0--0--3--3--3--3--3---3--3--|
B|-3---3--3--3--3--3--3--0--0--0--0--0---0--0--|-1---1--1--1--1--1--1--3--3--3--3--3---3--3--|
G|-0---0--0--0--0--0--0--0--0--0--0--0---0--0--|-0---0--0--0--0--0--0--2--2--2--2--2---2--2--|
D|-0---0--0--0--0--0--0--2--2--2--2--2---2--2--|-2---2--2--2--2--2--2--0--0--0--0--0---0--0--|
A|-2---2--2--2--2--2--2--2--2--2--2--2---2--2--|-3---3--3--3--3--3--3------------------------|
E|-3---3--3--3--3--3--3--0--0--0--0--0---0--0--|---------------------------------------------|


E|-3---3--3--3--3--3--3--0--0--0--0--0---0--0--|-0---0--0--0--0--0--0--3--3--3--3--3---3--3--|
B|-3---3--3--3--3--3--3--0--0--0--0--0---0--0--|-1---1--1--1--1--1--1--3--3--3--3--3---3--3--|
G|-0---0--0--0--0--0--0--0--0--0--0--0---0--0--|-0---0--0--0--0--0--0--2--2--2--2--2---2--2--|
D|-0---0--0--0--0--0--0--2--2--2--2--2---2--2--|-2---2--2--2--2--2--2--0--0--0--0--0---0--0--|
A|-2---2--2--2--2--2--2--2--2--2--2--2---2--2--|-3---3--3--3--3--3--3------------------------|
E|-3---3--3--3--3--3--3--0--0--0--0--0---0--0--|---------------------------------------------|


E|-3---3--3--3--3--3--3--0--0--0--0--0---0--0--|-0---0--0--0--0--0--0--3--3--3--3--3---3--3--|
B|-3---3--3--3--3--3--3--0--0--0--0--0---0--0--|-1---1--1--1--1--1--1--3--3--3--3--3---3--3--|
G|-0---0--0--0--0--0--0--0--0--0--0--0---0--0--|-0---0--0--0--0--0--0--2--2--2--2--2---2--2--|
D|-0---0--0--0--0--0--0--2--2--2--2--2---2--2--|-2---2--2--2--2--2--2--0--0--0--0--0---0--0--|
A|-2---2--2--2--2--2--2--2--2--2--2--2---2--2--|-3---3--3--3--3--3--3------------------------|
E|-3---3--3--3--3--3--3--0--0--0--0--0---0--0--|---------------------------------------------|


E|-3------|--------|--------|
B|-3------|--------|--------|
G|-0------|--------|--------|
D|-0------|--------|--------|
A|-2------|--------|--------|
E|-3------|--------|--------|





Track 2: Solo Guitar

E|--------|--------|-------------------------------|------------------|----------------------------------|
B|--------|--------|---------------------------10--|-10--11-11-11-----|-------------------------------8--|
G|--------|--------|------------9--7--10-----------|------------------|------------7--6--7--9----9-------|
D|--------|--------|---------7---------------------|------------------|---------8------------------------|
A|--------|--------|-------------------------------|------------------|----------------------------------|
E|--------|--------|-------------------------------|------------------|----------------------------------|


E|------------------|---------------------------8---|-8---6--6--6----5--5------------|
B|-8---10-10-10-----|-------------------------------|-----------------------8---8----|
G|------------------|------------9--7--10-----------|--------------------------------|
D|------------------|---------7---------------------|--------------------------------|
A|------------------|-------------------------------|--------------------------------|
E|------------------|-------------------------------|--------------------------------|


E|----------------------------------|-----------------------------|--------|--------|
B|-------------------------------6--|-5--6-5----------------------|--------|--------|
G|------------7--6--7--9----9-------|--------7--7--7----7---------|--------|--------|
D|---------8------------------------|-----------------------------|--------|--------|
A|----------------------------------|-----------------------------|--------|--------|
E|----------------------------------|-----------------------------|--------|--------|


E|--------|--------|--------|--------|--------|--------|--------|--------|--------|
B|--------|--------|--------|--------|--------|--------|--------|--------|--------|
G|--------|--------|--------|--------|--------|--------|--------|--------|--------|
D|--------|--------|--------|--------|--------|--------|--------|--------|--------|
A|--------|--------|--------|--------|--------|--------|--------|--------|--------|
E|--------|--------|--------|--------|--------|--------|--------|--------|--------|


E|--------|--------|--------|--------|--------|--------|--------|--------|--------|
B|--------|--------|--------|--------|--------|--------|--------|--------|--------|
G|--------|--------|--------|--------|--------|--------|--------|--------|--------|
D|--------|--------|--------|--------|--------|--------|--------|--------|--------|
A|--------|--------|--------|--------|--------|--------|--------|--------|--------|
E|--------|--------|--------|--------|--------|--------|--------|--------|--------|


E|--------|--------|--------|--------|--------|--------|--------|--------|--------|
B|--------|--------|--------|--------|--------|--------|--------|--------|--------|
G|--------|--------|--------|--------|--------|--------|--------|--------|--------|
D|--------|--------|--------|--------|--------|--------|--------|--------|--------|
A|--------|--------|--------|--------|--------|--------|--------|--------|--------|
E|--------|--------|--------|--------|--------|--------|--------|--------|--------|


E|--------|--------|--------|--------|--------|--------|--------|--------|--------|
B|--------|--------|--------|--------|--------|--------|--------|--------|--------|
G|--------|--------|--------|--------|--------|--------|--------|--------|--------|
D|--------|--------|--------|--------|--------|--------|--------|--------|--------|
A|--------|--------|--------|--------|--------|--------|--------|--------|--------|
E|--------|--------|--------|--------|--------|--------|--------|--------|--------|


E|--------|--------|--------|--------|--------|--------|--------|--------|--------|
B|--------|--------|--------|--------|--------|--------|--------|--------|--------|
G|--------|--------|--------|--------|--------|--------|--------|--------|--------|
D|--------|--------|--------|--------|--------|--------|--------|--------|--------|
A|--------|--------|--------|--------|--------|--------|--------|--------|--------|
E|--------|--------|--------|--------|--------|--------|--------|--------|--------|


E|--------|--------|--------|--------|--------|--------|--------|-------------------------------|
B|--------|--------|--------|--------|--------|--------|--------|---------------------------10--|
G|--------|--------|--------|--------|--------|--------|--------|------------9--7--10-----------|
D|--------|--------|--------|--------|--------|--------|--------|---------7---------------------|
A|--------|--------|--------|--------|--------|--------|--------|-------------------------------|
E|--------|--------|--------|--------|--------|--------|--------|-------------------------------|


E|-------------------------------------|----------------------------------|-------------------13---12-10--------|
B|-10--11-11-11---11--6--8-6-5---6--8--|-8-----------------------------8--|-8---10-10-10---10----------------10-|
G|-------------------------------------|------------7--6--7--9----9-------|-------------------------------12----|
D|-------------------------------------|---------8------------------------|-------------------------------------|
A|-------------------------------------|----------------------------------|-------------------------------------|
E|-------------------------------------|----------------------------------|-------------------------------------|


E|------------12-10----13--13-13--12--10--|-10-12-----6--6--8--6--5--5--6-------5---------|
B|-10------10----------15--15-15--13--11--|-11----------------------------------------8-6-|
G|----------------------------------------|-----------------------------------------------|
D|----------------------------------------|-----------------------------------------------|
A|----------------------------------------|-----------------------------------------------|
E|----------------------------------------|-----------------------------------------------|


E|------------5------------------------------|---------------5-6---8---6---5---------|
B|-6--8----8--------6-5-5--6----6--5---------|-------------6------------------8---6--|
G|---------------------------------------7-6-|-7----7----7---------------------------|
D|-------------------------------------------|---------------------------------------|
A|-------------------------------------------|---------------------------------------|
E|-------------------------------------------|---------------------------------------|


E|-10-------------|--------|--------|--------|--------|--------|--------|--------|
B|----------------|--------|--------|--------|--------|--------|--------|--------|
G|----------------|--------|--------|--------|--------|--------|--------|--------|
D|----------------|--------|--------|--------|--------|--------|--------|--------|
A|----------------|--------|--------|--------|--------|--------|--------|--------|
E|----------------|--------|--------|--------|--------|--------|--------|--------|


E|--------|--------|--------|--------|--------|--------|--------|--------|--------|
B|--------|--------|--------|--------|--------|--------|--------|--------|--------|
G|--------|--------|--------|--------|--------|--------|--------|--------|--------|
D|--------|--------|--------|--------|--------|--------|--------|--------|--------|
A|--------|--------|--------|--------|--------|--------|--------|--------|--------|
E|--------|--------|--------|--------|--------|--------|--------|--------|--------|


E|--------|--------|--------|--------|--------|--------|--------|--------|--------|
B|--------|--------|--------|--------|--------|--------|--------|--------|--------|
G|--------|--------|--------|--------|--------|--------|--------|--------|--------|
D|--------|--------|--------|--------|--------|--------|--------|--------|--------|
A|--------|--------|--------|--------|--------|--------|--------|--------|--------|
E|--------|--------|--------|--------|--------|--------|--------|--------|--------|


E|--------|--------|--------|--------|--------|--------|--------|--------|--------|
B|--------|--------|--------|--------|--------|--------|--------|--------|--------|
G|--------|--------|--------|--------|--------|--------|--------|--------|--------|
D|--------|--------|--------|--------|--------|--------|--------|--------|--------|
A|--------|--------|--------|--------|--------|--------|--------|--------|--------|
E|--------|--------|--------|--------|--------|--------|--------|--------|--------|


E|--------|--------|
B|--------|--------|
G|--------|--------|
D|--------|--------|
A|--------|--------|
E|--------|--------|





Track 3: Voices

E|--------|--------|--------|--------|--------|--------|--------|--------|--------|
B|--------|--------|--------|--------|--------|--------|--------|--------|--------|
G|--------|--------|--------|--------|--------|--------|--------|--------|--------|
D|--------|--------|--------|--------|--------|--------|--------|--------|--------|
A|--------|--------|--------|--------|--------|--------|--------|--------|--------|
E|--------|--------|--------|--------|--------|--------|--------|--------|--------|


E|--------|---------------------------------|-------------------------------|--------------------------------------|
B|--------|---------------------------------|-------------------------------|--------------------------------------|
G|--------|---------------------------------|-------------------------------|--------------------------------------|
D|--------|------------7--5--7---5--7--7----|-------------7--7---5--5--5----|------------5--3--5---3--5--5--3--3---|
A|--------|---------5-----------------------|----------5--------------------|---------5----------------------------|
E|--------|---------------------------------|-------------------------------|--------------------------------------|


E|---------------------------------|--------------------------------------|---------------------------------|
B|---------------------------------|--------------------------------------|---------------------------------|
G|---------------------------------|--------------------------------------|---------------------------------|
D|-----------5--7--7--7--7---------|------------7--5--7---5--7--7--5--5---|------------5--3--7---5--5--5----|
A|--------5------------------------|---------5----------------------------|---------5-----------------------|
E|---------------------------------|--------------------------------------|---------------------------------|


E|------------------------------------|-----------------|-1---0------------------------|
B|------------------------------------|-----------------|---------3---1---1--------1---|
G|--------------------------------2---|-2---------------|----------------------2-------|
D|------------5--3--5----5--5--3------|-----------------|------------------------------|
A|---------5--------------------------|-----------------|------------------------------|
E|------------------------------------|-----------------|------------------------------|


E|--------------------|-1---0------------------------|-----------------|-1---0------------------------|
B|-1---3--------------|---------3---1---1--------1---|-1---------------|---------3---1---1--------1---|
G|--------------------|----------------------2-------|-----------------|----------------------2-------|
D|--------------------|------------------------------|-----------------|------------------------------|
A|--------------------|------------------------------|-----------------|------------------------------|
E|--------------------|------------------------------|-----------------|------------------------------|


E|---------------------------|------------------------------|-----------------|------------------------------|
B|-1---3---------------------|------------------------------|-----------------|------1---1---1-----------1---|
G|---------------------------|-3---2---0--------------------|-----------------|------------------------------|
D|------------------------3--|-------------3---3----5---5---|-5---------------|-3--------------------3-------|
A|---------------------------|------------------------------|-----------------|------------------------------|
E|---------------------------|------------------------------|-----------------|------------------------------|


E|--------------------------------|------1---1---1--------1---|-1------------------|
B|-1------------------------------|------1---1---1----1---1---|-1---3---1----------|
G|------3---2---2---0----------2--|-2-----------------2-------|-----2---0----------|
D|-----------------------------3--|-3-------------------------|--------------------|
A|--------------------------------|---------------------------|--------------------|
E|--------------------------------|---------------------------|--------------------|


E|---------------------------|------------------------------|-------------------------------------|
B|------1---1---1------------|--------------2---2---2---3---|-3-----------------------------------|
G|-------------------3---2---|-2---0--------3---2---0-------|-------------------------------------|
D|-3-------------------------|--------------------------3---|-3-------5---7-----------------------|
A|---------------------------|------------------------------|----------------8--8--------------5--|
E|---------------------------|------------------------------|-------------------------------------|


E|------------------------------|--------------------------------|--------------------|
B|------------------------------|--------------------------------|--------------------|
G|------------------------------|--------------------------------|--------------------|
D|-3---5---7---5---5------------|-3---5---7---8---5---3----5--3--|-3------------------|
A|----------------------5---7---|--------------------------------|--------------------|
E|------------------------------|--------------------------------|--------------------|


E|--------|--------|--------|---------------------------------|-------------------------------|
B|--------|--------|--------|---------------------------------|-------------------------------|
G|--------|--------|--------|---------------------------------|-------------------------------|
D|--------|--------|--------|------------7--5--7---5--7--7----|-------------7--7---5--5--5----|
A|--------|--------|--------|---------5-----------------------|----------5--------------------|
E|--------|--------|--------|---------------------------------|-------------------------------|


E|--------------------------------------|---------------------------------|-----------------------------------|
B|--------------------------------------|---------------------------------|------------6--6--5--5--5--3-------|
G|--------------------------------------|---------------------------------|------------------------------2----|
D|------------5--3--5---3--5--5--3--3---|-----------5--3--5--7--7---------|---------7-------------------------|
A|---------5----------------------------|--------5------------------------|-----------------------------------|
E|--------------------------------------|---------------------------------|-----------------------------------|


E|---------------------------------|------------------------------------|-----------------|
B|---------------------------------|------------------------------------|-----------------|
G|------------------2---0--0--0----|--------------------------------2---|-2---------------|
D|------------5--3-----------------|------------5--3--5----5--5--3------|-----------------|
A|---------5-----------------------|---------5--------------------------|-----------------|
E|---------------------------------|------------------------------------|-----------------|


E|-1---0------------------------|--------------------|-1---0------------------------|
B|---------3---1---1--------1---|-1---3--------------|---------3---1---1--------1---|
G|----------------------2-------|--------------------|----------------------2-------|
D|------------------------------|--------------------|------------------------------|
A|------------------------------|--------------------|------------------------------|
E|------------------------------|--------------------|------------------------------|


E|---------------------------|-1---0------------------------|---------------------------|
B|-1--------1---1----3-------|---------3---1---1--------1---|-1---3---------------------|
G|------2----------------2---|-2--------------------2-------|---------------------------|
D|---------------------------|------------------------------|------------------------3--|
A|---------------------------|------------------------------|---------------------------|
E|---------------------------|------------------------------|---------------------------|


E|------------------------------|-----------------|---------------------------|------------------------------|
B|--------------------------1---|-1---------------|------1---1---1--------1---|-1----------------------------|
G|-3---2---0------------2-------|-----------------|---------------------------|------3---2---2---0--------2--|
D|-------------3---3------------|-----------------|-3-----------------3-------|---------------------------3--|
A|------------------------------|-----------------|---------------------------|------------------------------|
E|------------------------------|-----------------|---------------------------|------------------------------|


E|------1---1---1--------1---|-1-------------------------|---------------------------|
B|------1---1---1----3---1---|-1---3---1----1------------|------1---1---1------------|
G|-2-----------------2-------|-----2---0----0------------|-------------------3---2---|
D|-3-------------------------|---------------------------|-3-------------------------|
A|---------------------------|---------------------------|---------------------------|
E|---------------------------|---------------------------|---------------------------|


E|------------------------------|-----------------------------|------------------------------|
B|--------------2---2---2---3---|-3---------------------------|------------------------------|
G|-2---0--------3---2---0-------|-----------------------------|------------------------------|
D|--------------------------3---|-3----5---7------------------|-3---5---7---5---5------------|
A|------------------------------|-------------8--8---------5--|----------------------5---7---|
E|------------------------------|-----------------------------|------------------------------|


E|--------------------------------|--------|--------|--------|--------|--------|--------|
B|--------------------------------|--------|--------|--------|--------|--------|--------|
G|--------------------------------|--------|--------|--------|--------|--------|--------|
D|-3---5---7---8---5---3----5--3--|--------|--------|--------|--------|--------|--------|
A|--------------------------------|--------|--------|--------|--------|--------|--------|
E|--------------------------------|--------|--------|--------|--------|--------|--------|


E|--------|--------|-1--------------|--------|--------|--------|--------|--------|
B|--------|--------|----------------|--------|--------|--------|--------|--------|
G|--------|--------|----------------|--------|--------|--------|--------|--------|
D|--------|--------|----------------|--------|--------|--------|--------|--------|
A|--------|--------|----------------|--------|--------|--------|--------|--------|
E|--------|--------|----------------|--------|--------|--------|--------|--------|


E|--------|--------|--------|--------|--------|--------|--------|--------|--------|
B|--------|--------|--------|--------|--------|--------|--------|--------|--------|
G|--------|--------|--------|--------|--------|--------|--------|--------|--------|
D|--------|--------|--------|--------|--------|--------|--------|--------|--------|
A|--------|--------|--------|--------|--------|--------|--------|--------|--------|
E|--------|--------|--------|--------|--------|--------|--------|--------|--------|


E|--------|--------|--------|--------|--------|--------|--------|--------|--------|
B|--------|--------|--------|--------|--------|--------|--------|--------|--------|
G|--------|--------|--------|--------|--------|--------|--------|--------|--------|
D|--------|--------|--------|--------|--------|--------|--------|--------|--------|
A|--------|--------|--------|--------|--------|--------|--------|--------|--------|
E|--------|--------|--------|--------|--------|--------|--------|--------|--------|


E|--------|--------|--------|--------|--------|--------|--------|--------|--------|
B|--------|--------|--------|--------|--------|--------|--------|--------|--------|
G|--------|--------|--------|--------|--------|--------|--------|--------|--------|
D|--------|--------|--------|--------|--------|--------|--------|--------|--------|
A|--------|--------|--------|--------|--------|--------|--------|--------|--------|
E|--------|--------|--------|--------|--------|--------|--------|--------|--------|


E|--------|--------|--------|--------|
B|--------|--------|--------|--------|
G|--------|--------|--------|--------|
D|--------|--------|--------|--------|
A|--------|--------|--------|--------|
E|--------|--------|--------|--------|





Track 4: Electric Guitar

E|--------|--------|--------|--------|--------|--------|--------|--------|--------|
B|--------|--------|--------|--------|--------|--------|--------|--------|--------|
G|--------|--------|--------|--------|--------|--------|--------|--------|--------|
D|--------|--------|--------|--------|--------|--------|--------|--------|--------|
A|--------|--------|--------|--------|--------|--------|--------|--------|--------|
E|--------|--------|--------|--------|--------|--------|--------|--------|--------|


E|--------|--------|--------|--------|--------|--------|--------|--------|--------|
B|--------|--------|--------|--------|--------|--------|--------|--------|--------|
G|--------|--------|--------|--------|--------|--------|--------|--------|--------|
D|--------|--------|--------|--------|--------|--------|--------|--------|--------|
A|--------|--------|--------|--------|--------|--------|--------|--------|--------|
E|--------|--------|--------|--------|--------|--------|--------|--------|--------|


E|-----0---------------0--------|-----0---------------0--------|-----0---------------0--------|
B|---------6---------------6----|-6-------6---------------6----|-6-------6---------------6----|
G|-------------7---7------------|-------------0---0------------|-------------7---7------------|
D|------------------------------|------------------------------|------------------------------|
A|------------------------------|------------------------------|------------------------------|
E|------------------------------|------------------------------|------------------------------|


E|-----0---------------0--------|-----0---------------0--------|-----0---------------0--------|
B|-6-------6---------------6----|-6-------6---------------6----|-6-------6---------------6----|
G|-------------0---0------------|-------------7---7------------|-------------0---0------------|
D|------------------------------|------------------------------|------------------------------|
A|------------------------------|------------------------------|------------------------------|
E|------------------------------|------------------------------|------------------------------|


E|---------------------------------|---------------------------------|---------------------------------|
B|---------6---------------6-------|---------6---------------5-------|---------6---------------6-------|
G|-----5-------5-------5-------5---|-----5-------5-------5-------5---|-----5-------5---5---5-------5---|
D|-8---------------8---------------|-5---------------5---------------|-7-------------------------------|
A|---------------------------------|---------------------------------|---------------------------------|
E|---------------------------------|---------------------------------|---------------------------------|


E|---------------------------------|---------------------------------|---------------------------------|
B|---------6---------------5---6---|---------6---------------6-------|---------6---------------5---6---|
G|-5---5-------5---5---5-----------|-----5-------5---5---5-------5---|-5---5-------5---5---5-----------|
D|---------------------------------|-7-------------------------------|---------------------------------|
A|---------------------------------|---------------------------------|---------------------------------|
E|---------------------------------|---------------------------------|---------------------------------|


E|---------------------------------|---------------------------------|-----0---------------0--------|
B|---------6---------------6-------|---------6-------5-----------5---|---------6---------------6----|
G|-----5-------5---5---5-------5---|-5---5-------5-------6-----------|-7-----------7---5------------|
D|-7-------------------------------|-------------------------7-------|------------------------------|
A|---------------------------------|---------------------------------|------------------------------|
E|---------------------------------|---------------------------------|------------------------------|


E|-----10------10--10--------------|---------------------------------|-5---5--5--5--5--5--5--5--5--5---5---5--5--|
B|---------8---------------8-------|---------6---------------6-------|-6---6--6--6--6--6--6--6--6--6---6---6--6--|
G|---------------------7-------10--|-----5-------5---5---5-------5---|-5---5--5--5--5--5--5--5--5--5---5---5--5--|
D|---------------------------------|-8-------------------------------|-------------------------------------------|
A|---------------------------------|---------------------------------|-------------------------------------------|
E|---------------------------------|---------------------------------|-------------------------------------------|


E|-5---5--5--5----5--5--5--5--5--5---5--5--|-5---5--5--5--5--5--5--5--5--5---5---5--5--|
B|-6---6--6--6----6--6--6--6--6--6---6--6--|-6---6--6--6--6--6--6--6--6--6---6---6--6--|
G|-5---5--5--5----5--5--5--5--5--5---5--5--|-5---5--5--5--5--5--5--5--5--5---5---5--5--|
D|-8---8--8--8----8------------------------|-------------------------------------------|
A|-----------------------------------------|-------------------------------------------|
E|-----------------------------------------|-------------------------------------------|


E|-5---5--5--5----5--5--5--5--5--5---5---|--------|--------|--------|--------|--------|
B|-6---6--6--6----6--6--6--6--6--6---6---|--------|--------|--------|--------|--------|
G|-5---5--5--5----5--5--5--5--5--5---5---|--------|--------|--------|--------|--------|
D|-8---8--8--8----8----------------------|--------|--------|--------|--------|--------|
A|---------------------------------------|--------|--------|--------|--------|--------|
E|---------------------------------------|--------|--------|--------|--------|--------|


E|--------|--------|--------|-----0---------------0--------|-----0---------------0--------|
B|--------|--------|--------|---------6---------------6----|-6-------6---------------6----|
G|--------|--------|--------|-------------7---7------------|-------------0---0------------|
D|--------|--------|--------|------------------------------|------------------------------|
A|--------|--------|--------|------------------------------|------------------------------|
E|--------|--------|--------|------------------------------|------------------------------|


E|-----0---------------0--------|-----0---------------0--------|-----0---------------0--------|
B|-6-------6---------------6----|-6-------6---------------6----|-6-------6---------------6----|
G|-------------7---7------------|-------------0---0------------|-------------7---7------------|
D|------------------------------|------------------------------|------------------------------|
A|------------------------------|------------------------------|------------------------------|
E|------------------------------|------------------------------|------------------------------|


E|-----0---------------0--------|---------------------------------|---------------------------------|
B|-6-------6---------------6----|---------6---------------6-------|---------6---------------5-------|
G|-------------0---0------------|-----5-------5-------5-------5---|-----5-------5-------5-------5---|
D|------------------------------|-8---------------8---------------|-5---------------5---------------|
A|------------------------------|---------------------------------|---------------------------------|
E|------------------------------|---------------------------------|---------------------------------|


E|---------------------------------|---------------------------------|---------------------------------|
B|---------6---------------6-------|---------6---------------5---6---|---------6---------------6-------|
G|-----5-------5---5---5-------5---|-5---5-------5---5---5-----------|-----5-------5---5---5-------5---|
D|-7-------------------------------|---------------------------------|-7-------------------------------|
A|---------------------------------|---------------------------------|---------------------------------|
E|---------------------------------|---------------------------------|---------------------------------|


E|---------------------------------|---------------------------------|---------------------------------|
B|---------6---------------5---6---|---------6---------------6-------|---------6-------5-----------5---|
G|-5---5-------5---5---5-----------|-----5-------5---5---5-------5---|-5---5-------5-------6-----------|
D|---------------------------------|-7-------------------------------|-------------------------7-------|
A|---------------------------------|---------------------------------|---------------------------------|
E|---------------------------------|---------------------------------|---------------------------------|


E|-----0---------------0--------|-----10------10--10--------------|---------------------------------|
B|---------6---------------6----|---------8---------------8-------|---------6---------------6-------|
G|-7-----------7---5------------|---------------------7-------10--|-----5-------5---5---5-------5---|
D|------------------------------|---------------------------------|-8-------------------------------|
A|------------------------------|---------------------------------|---------------------------------|
E|------------------------------|---------------------------------|---------------------------------|


E|--------|--------|--------|--------|--------|--------|--------|--------|-----10--10----------0--------|
B|--------|--------|--------|--------|--------|--------|--------|--------|-----5---6---------------6----|
G|--------|--------|--------|--------|--------|--------|--------|--------|-------------7---7------------|
D|--------|--------|--------|--------|--------|--------|--------|--------|------------------------------|
A|--------|--------|--------|--------|--------|--------|--------|--------|------------------------------|
E|--------|--------|--------|--------|--------|--------|--------|--------|------------------------------|


E|-----0---------------0--------|-----0---------------0--------|-----0---------------------------|
B|-6-------6---------------6----|-6-------6---------------6----|-6-------6-------6-------5-------|
G|-------------0---0------------|-------------7---7------------|---------------------------------|
D|------------------------------|------------------------------|-------------7-------7-------7---|
A|------------------------------|------------------------------|---------------------------------|
E|------------------------------|------------------------------|---------------------------------|


E|-----0---------------0--------|-----0---------------0--------|---------------------------------|
B|---------6---------------6----|-6-------6---------------6----|---------6---------------6-------|
G|-7-----------7---7------------|-------------0---0------------|-----5-------5-------5-------5---|
D|------------------------------|------------------------------|-8---------------8---------------|
A|------------------------------|------------------------------|---------------------------------|
E|------------------------------|------------------------------|---------------------------------|


E|---------------------------------|------------------------------|---------------------------|
B|---------6---------------6-------|---------5---------------5----|---------8----8-------8----|
G|-----5-------5-------5-------5---|-----5-------5-------5--------|-----7------------7--------|
D|-5---------------5---------------|-5---------------5------------|---------------------------|
A|---------------------------------|------------------------------|---------------------------|
E|---------------------------------|------------------------------|---------------------------|


E|------------------------------|---------------------------|------------------------------|
B|-8-------8----8-------7---8---|-8-------8----8-------8----|-8-------8----7-------7---8---|
G|-----7------------7-----------|-----7------------7--------|-----7------------7-----------|
D|------------------------------|---------------------------|------------------------------|
A|------------------------------|---------------------------|------------------------------|
E|------------------------------|---------------------------|------------------------------|


E|---------------------------|------------------------------|------------------------------|
B|-8-------8----8-------8----|-8-------8----7---------------|---------8------------8-------|
G|-----7------------7--------|-----7------------8-------8---|-----9------------7-------7---|
D|---------------------------|----------------------9-------|--------------7---------------|
A|---------------------------|------------------------------|------------------------------|
E|---------------------------|------------------------------|------------------------------|


E|------------------------------|------------------------------|-7---7--7--7---7--7--7--7--7--7--7---7--7--|
B|---------10---10------10--8---|---------8---------------8----|-8---8--8--8---8--8--8--8--8--8--8---8--8--|
G|-----9------------9-----------|-----7-------7-------7--------|-7---7--7--7---7--7--9--9--9--9--9---9--9--|
D|------------------------------|-----------------7------------|-------------------------------------------|
A|------------------------------|------------------------------|-------------------------------------------|
E|------------------------------|------------------------------|-------------------------------------------|


E|-7---7--7--7---7--7------------------------|-7---7--7--7---7--7--7--7--7--7--7---7--7--|
B|-8---8--8--8---8--8--8--8--8--8--8---8--8--|-8---8--8--8---8--8--8--8--8--8--8---8--8--|
G|-5---5--5--5---5--5--7--7--7--7--7---7--7--|-7---7--7--7---7--7--9--9--9--9--9---9--9--|
D|---------------------7--7--7--7--7---7--7--|-------------------------------------------|
A|-------------------------------------------|-------------------------------------------|
E|-------------------------------------------|-------------------------------------------|


E|-7---7--7--7---7--7------------------------|-7---7--7--7---7--7--7--7--7--7--7---7--7--|
B|-8---8--8--8---8--8--8--8--8--8--8---8--8--|-8---8--8--8---8--8--8--8--8--8--8---8--8--|
G|-5---5--5--5---5--5--7--7--7--7--7---7--7--|-7---7--7--7---7--7--9--9--9--9--9---9--9--|
D|---------------------7--7--7--7--7---7--7--|-------------------------------------------|
A|-------------------------------------------|-------------------------------------------|
E|-------------------------------------------|-------------------------------------------|


E|-7---7--7--7---7--7------------------------|-7---7--7--7---7--7--7--7--7--7--7---7--7--|
B|-8---8--8--8---8--8--8--8--8--8--8---8--8--|-8---8--8--8---8--8--8--8--8--8--8---8--8--|
G|-5---5--5--5---5--5--7--7--7--7--7---7--7--|-7---7--7--7---7--7--9--9--9--9--9---9--9--|
D|---------------------7--7--7--7--7---7--7--|-------------------------------------------|
A|-------------------------------------------|-------------------------------------------|
E|-------------------------------------------|-------------------------------------------|


E|-7---7--7--7---7--7------------------------|-7---7--7--7---7--7--7--7--7--7--7---7--7--|
B|-8---8--8--8---8--8--8--8--8--8--8---8--8--|-8---8--8--8---8--8--8--8--8--8--8---8--8--|
G|-5---5--5--5---5--5--7--7--7--7--7---7--7--|-7---7--7--7---7--7--9--9--9--9--9---9--9--|
D|---------------------7--7--7--7--7---7--7--|-------------------------------------------|
A|-------------------------------------------|-------------------------------------------|
E|-------------------------------------------|-------------------------------------------|


E|-7---7--7--7---7--7------------------------|-7---7--7--7---7--7--7--7--7--7--7---7--7--|
B|-8---8--8--8---8--8--8--8--8--8--8---8--8--|-8---8--8--8---8--8--8--8--8--8--8---8--8--|
G|-5---5--5--5---5--5--7--7--7--7--7---7--7--|-7---7--7--7---7--7--9--9--9--9--9---9--9--|
D|---------------------7--7--7--7--7---7--7--|-------------------------------------------|
A|-------------------------------------------|-------------------------------------------|
E|-------------------------------------------|-------------------------------------------|


E|-7---7--7--7---7--7------------------------|-7---7--7--7---7--7--7--7--7--7--7---7--7--|
B|-8---8--8--8---8--8--8--8--8--8--8---8--8--|-8---8--8--8---8--8--8--8--8--8--8---8--8--|
G|-5---5--5--5---5--5--7--7--7--7--7---7--7--|-7---7--7--7---7--7--9--9--9--9--9---9--9--|
D|---------------------7--7--7--7--7---7--7--|-------------------------------------------|
A|-------------------------------------------|-------------------------------------------|
E|-------------------------------------------|-------------------------------------------|


E|-7---7--7--7---7--7------------------------|-7---7--7--7---7--7--7--7--7--7--7---7--7--|
B|-8---8--8--8---8--8--8--8--8--8--8---8--8--|-8---8--8--8---8--8--8--8--8--8--8---8--8--|
G|-5---5--5--5---5--5--7--7--7--7--7---7--7--|-7---7--7--7---7--7--9--9--9--9--9---9--9--|
D|---------------------7--7--7--7--7---7--7--|-------------------------------------------|
A|-------------------------------------------|-------------------------------------------|
E|-------------------------------------------|-------------------------------------------|


E|-7---7--7--7---7--7------------------------|-3----3---------------3-------|---------3---------------2---3---|
B|-8---8--8--8---8--8--8--8--8--8--8---8--8--|-3--------3-------3-------3---|-----3-------3-------3---3---3---|
G|-5---5--5--5---5--5--7--7--7--7--7---7--7--|-0------------0---------------|-0---------------0-------2---4---|
D|---------------------7--7--7--7--7---7--7--|------------------------------|---------------------------------|
A|-------------------------------------------|------------------------------|---------------------------------|
E|-------------------------------------------|------------------------------|---------------------------------|


E|-3------|
B|-3------|
G|-4------|
D|--------|
A|--------|
E|--------|





Track 5: Acoustic Guitar

E|--------|--------|--------|--------|--------|--------|--------|--------|--------|
B|--------|--------|--------|--------|--------|--------|--------|--------|--------|
G|--------|--------|--------|--------|--------|--------|--------|--------|--------|
D|--------|--------|--------|--------|--------|--------|--------|--------|--------|
A|--------|--------|--------|--------|--------|--------|--------|--------|--------|
E|--------|--------|--------|--------|--------|--------|--------|--------|--------|


E|--------|--------|--------|--------|--------|--------|--------|--------|--------|
B|--------|--------|--------|--------|--------|--------|--------|--------|--------|
G|--------|--------|--------|--------|--------|--------|--------|--------|--------|
D|--------|--------|--------|--------|--------|--------|--------|--------|--------|
A|--------|--------|--------|--------|--------|--------|--------|--------|--------|
E|--------|--------|--------|--------|--------|--------|--------|--------|--------|


E|--------|--------|--------|--------|--------|--------|--------|--------|--------|
B|--------|--------|--------|--------|--------|--------|--------|--------|--------|
G|--------|--------|--------|--------|--------|--------|--------|--------|--------|
D|--------|--------|--------|--------|--------|--------|--------|--------|--------|
A|--------|--------|--------|--------|--------|--------|--------|--------|--------|
E|--------|--------|--------|--------|--------|--------|--------|--------|--------|


E|--------|--------|--------|--------|--------|--------|--------|--------|--------|
B|--------|--------|--------|--------|--------|--------|--------|--------|--------|
G|--------|--------|--------|--------|--------|--------|--------|--------|--------|
D|--------|--------|--------|--------|--------|--------|--------|--------|--------|
A|--------|--------|--------|--------|--------|--------|--------|--------|--------|
E|--------|--------|--------|--------|--------|--------|--------|--------|--------|


E|--------|--------|--------|--------|--------|--------|--------|--------|--------|
B|--------|--------|--------|--------|--------|--------|--------|--------|--------|
G|--------|--------|--------|--------|--------|--------|--------|--------|--------|
D|--------|--------|--------|--------|--------|--------|--------|--------|--------|
A|--------|--------|--------|--------|--------|--------|--------|--------|--------|
E|--------|--------|--------|--------|--------|--------|--------|--------|--------|


E|--------|--------|--------|--------|--------|--------|--------|--------|--------|
B|--------|--------|--------|--------|--------|--------|--------|--------|--------|
G|--------|--------|--------|--------|--------|--------|--------|--------|--------|
D|--------|--------|--------|--------|--------|--------|--------|--------|--------|
A|--------|--------|--------|--------|--------|--------|--------|--------|--------|
E|--------|--------|--------|--------|--------|--------|--------|--------|--------|


E|--------|--------|--------|--------|--------|--------|--------|--------|--------|
B|--------|--------|--------|--------|--------|--------|--------|--------|--------|
G|--------|--------|--------|--------|--------|--------|--------|--------|--------|
D|--------|--------|--------|--------|--------|--------|--------|--------|--------|
A|--------|--------|--------|--------|--------|--------|--------|--------|--------|
E|--------|--------|--------|--------|--------|--------|--------|--------|--------|


E|--------|----------------|--------|--------|--------|--------|--------|--------|
B|--------|----------------|--------|--------|--------|--------|--------|--------|
G|--------|----------------|--------|--------|--------|--------|--------|--------|
D|--------|-3--------------|--------|--------|--------|--------|--------|--------|
A|--------|----------------|--------|--------|--------|--------|--------|--------|
E|--------|----------------|--------|--------|--------|--------|--------|--------|


E|--------|--------|--------|--------|--------|--------|--------|--------|--------|
B|--------|--------|--------|--------|--------|--------|--------|--------|--------|
G|--------|--------|--------|--------|--------|--------|--------|--------|--------|
D|--------|--------|--------|--------|--------|--------|--------|--------|--------|
A|--------|--------|--------|--------|--------|--------|--------|--------|--------|
E|--------|--------|--------|--------|--------|--------|--------|--------|--------|


E|--------|--------|--------|--------|--------|--------|--------|--------|--------|
B|--------|--------|--------|--------|--------|--------|--------|--------|--------|
G|--------|--------|--------|--------|--------|--------|--------|--------|--------|
D|--------|--------|--------|--------|--------|--------|--------|--------|--------|
A|--------|--------|--------|--------|--------|--------|--------|--------|--------|
E|--------|--------|--------|--------|--------|--------|--------|--------|--------|


E|--------|--------|--------|--------|--------|--------|--------|--------|--------|
B|--------|--------|--------|--------|--------|--------|--------|--------|--------|
G|--------|--------|--------|--------|--------|--------|--------|--------|--------|
D|--------|--------|--------|--------|--------|--------|--------|--------|--------|
A|--------|--------|--------|--------|--------|--------|--------|--------|--------|
E|--------|--------|--------|--------|--------|--------|--------|--------|--------|


E|--------|--------|--------|--------|--------|--------|--------|--------|--------|
B|--------|--------|--------|--------|--------|--------|--------|--------|--------|
G|--------|--------|--------|--------|--------|--------|--------|--------|--------|
D|--------|--------|--------|--------|--------|--------|--------|--------|--------|
A|--------|--------|--------|--------|--------|--------|--------|--------|--------|
E|--------|--------|--------|--------|--------|--------|--------|--------|--------|


E|--------|--------|
B|--------|--------|
G|--------|--------|
D|--------|--------|
A|--------|--------|
E|--------|--------|





Track 6: Acoustic Guitar

E|--------|--------|--------|--------|--------|--------|--------|--------|--------|
B|--------|--------|--------|--------|--------|--------|--------|--------|--------|
G|--------|--------|--------|--------|--------|--------|--------|--------|--------|
D|--------|--------|--------|--------|--------|--------|--------|--------|--------|
A|--------|--------|--------|--------|--------|--------|--------|--------|--------|
E|--------|--------|--------|--------|--------|--------|--------|--------|--------|


E|--------|--------|--------|--------|--------|--------|--------|--------|--------|
B|--------|--------|--------|--------|--------|--------|--------|--------|--------|
G|--------|--------|--------|--------|--------|--------|--------|--------|--------|
D|--------|--------|--------|--------|--------|--------|--------|--------|--------|
A|--------|--------|--------|--------|--------|--------|--------|--------|--------|
E|--------|--------|--------|--------|--------|--------|--------|--------|--------|


E|--------|--------|--------|--------|--------|--------|--------|--------|--------|
B|--------|--------|--------|--------|--------|--------|--------|--------|--------|
G|--------|--------|--------|--------|--------|--------|--------|--------|--------|
D|--------|--------|--------|--------|--------|--------|--------|--------|--------|
A|--------|--------|--------|--------|--------|--------|--------|--------|--------|
E|--------|--------|--------|--------|--------|--------|--------|--------|--------|


E|--------|--------|--------|--------|--------|--------|--------|--------|--------|
B|--------|--------|--------|--------|--------|--------|--------|--------|--------|
G|--------|--------|--------|--------|--------|--------|--------|--------|--------|
D|--------|--------|--------|--------|--------|--------|--------|--------|--------|
A|--------|--------|--------|--------|--------|--------|--------|--------|--------|
E|--------|--------|--------|--------|--------|--------|--------|--------|--------|


E|--------|--------|--------|--------|--------|--------|--------|--------|--------|
B|--------|--------|--------|--------|--------|--------|--------|--------|--------|
G|--------|--------|--------|--------|--------|--------|--------|--------|--------|
D|--------|--------|--------|--------|--------|--------|--------|--------|--------|
A|--------|--------|--------|--------|--------|--------|--------|--------|--------|
E|--------|--------|--------|--------|--------|--------|--------|--------|--------|


E|--------|--------|--------|--------|--------|--------|--------|--------|--------|
B|--------|--------|--------|--------|--------|--------|--------|--------|--------|
G|--------|--------|--------|--------|--------|--------|--------|--------|--------|
D|--------|--------|--------|--------|--------|--------|--------|--------|--------|
A|--------|--------|--------|--------|--------|--------|--------|--------|--------|
E|--------|--------|--------|--------|--------|--------|--------|--------|--------|


E|--------|--------|--------|--------|--------|--------|--------|--------|--------|
B|--------|--------|--------|--------|--------|--------|--------|--------|--------|
G|--------|--------|--------|--------|--------|--------|--------|--------|--------|
D|--------|--------|--------|--------|--------|--------|--------|--------|--------|
A|--------|--------|--------|--------|--------|--------|--------|--------|--------|
E|--------|--------|--------|--------|--------|--------|--------|--------|--------|


E|--------|--------|--------|--------|--------|--------|--------|--------|--------|
B|--------|--------|--------|--------|--------|--------|--------|--------|--------|
G|--------|--------|--------|--------|--------|--------|--------|--------|--------|
D|--------|--------|--------|--------|--------|--------|--------|--------|--------|
A|--------|--------|--------|--------|--------|--------|--------|--------|--------|
E|--------|--------|--------|--------|--------|--------|--------|--------|--------|


E|-----0------------------------|--------------------|-1---0------------------------|
B|---------3---1---1--------1---|-1---3--------------|---------3---1---1--------1---|
G|----------------------2-------|--------------------|----------------------2-------|
D|------------------------------|--------------------|------------------------------|
A|------------------------------|--------------------|------------------------------|
E|------------------------------|--------------------|------------------------------|


E|---------------------------|------------------------------|---------------------------|
B|-1--------1---1----3-------|-6---5---3---1---1--------1---|-1---3---------------------|
G|------2----------------2---|-2--------------------2-------|------------------------3--|
D|---------------------------|------------------------------|------------------------3--|
A|---------------------------|------------------------------|---------------------------|
E|---------------------------|------------------------------|---------------------------|


E|--------------------------1---|-1---------------|--------|------3---3---3--------3---|
B|-3---1----------------3---1---|-1---------------|--------|-3----3---3---3----3---3---|
G|-3---2---3---3---3----2-------|-----------------|--------|-0-----------------0-------|
D|---------5---3---3------------|-----------------|--------|---------------------------|
A|------------------------------|-----------------|--------|---------------------------|
E|------------------------------|-----------------|--------|---------------------------|


E|-3--------3---3--------------|------3---3---3--------3---|-3------------------|------3---3---3----2-------|
B|-3----3---0---0---3-------3--|-3----3---3---3----3---3---|-3---5---3----------|-3----3---3---3----1---5---|
G|------5-----------2-------0--|-0-----------------4-------|-----4---2----------|-0---------------------4---|
D|-----------------------------|---------------------------|--------------------|---------------------------|
A|-----------------------------|---------------------------|--------------------|---------------------------|
E|-----------------------------|---------------------------|--------------------|---------------------------|


E|------------------------------|-----------------------------|----------------------0---2---|
B|-5---3--------1---0-----------|-----------------------------|------------------------------|
G|-4---2----------------2---0---|-0----2---4------------------|-0---2---4---2---2------------|
D|------------------------------|-------------5--5---------2--|----------------------2---4---|
A|------------------------------|-----------------------------|------------------------------|
E|------------------------------|-----------------------------|------------------------------|


E|-3---5---7---8------------5--3--|-3---------------|--------|------3---3---3--------3---|
B|-----------------10--8----------|-----------------|--------|-3----3---3---3----3---3---|
G|--------------------------------|-----------------|--------|-0-----------------0-------|
D|-5---7---9---10-----------7--5--|-5---------------|--------|---------------------------|
A|-----------------12--10---------|-----------------|--------|---------------------------|
E|--------------------------------|-----------------|--------|---------------------------|


E|-3--------3---3------------|------3---3---3--------3---|-3----2---0---0------------|
B|-3----3---3---3---5---3----|-3----3---3---3----3---3---|-3----1---0---0---3---3----|
G|------0-----------4---2----|-0-----------------0-------|------------------2---2----|
D|---------------------------|---------------------------|---------------------------|
A|---------------------------|---------------------------|---------------------------|
E|---------------------------|---------------------------|---------------------------|


E|------3---3---3--------3---|-3--------3---3------------|------3---3---3--------3---|
B|-3----3---3---3----3---3---|-3----3---3---3---5---3----|-3----3---3---3----3---3---|
G|-0-----------------0-------|------0-----------4---2----|-0-----------------0-------|
D|---------------------------|---------------------------|---------------------------|
A|---------------------------|---------------------------|---------------------------|
E|---------------------------|---------------------------|---------------------------|


E|-3----2--------------------|------3---3---3--------3---|-3--------3---3------------|
B|-3----1---5---5---3---3----|-3----3---3---3----3---3---|-3----3---3---3---5---3----|
G|----------4---4---2---2----|-0-----------------0-------|------0-----------4---2----|
D|---------------------------|---------------------------|---------------------------|
A|---------------------------|---------------------------|---------------------------|
E|---------------------------|---------------------------|---------------------------|


E|------3---3---3--------3---|-3----2--------------------|---------------------------|
B|-3----3---3---3----3---3---|-3----1---5---5---3---3----|-3----3----------------3---|
G|-0-----------------0-------|----------4---4---2---2----|-0----0---4---4---5----4---|
D|---------------------------|---------------------------|----------5---5---7--------|
A|---------------------------|---------------------------|---------------------------|
E|---------------------------|---------------------------|---------------------------|


E|---------------------------|--------|--------|--------|
B|-3----5---3---3---1----1---|-0------|--------|--------|
G|-4----5---4---4---2----2---|-0------|--------|--------|
D|---------------------------|--------|--------|--------|
A|---------------------------|--------|--------|--------|
E|---------------------------|--------|--------|--------|





Track 7: Synth

E|-5-----5-----|-5-----5-----|--------|--------|-------------|-----------------|--------|
B|-6-----6-----|-6-----6-----|-10-----|-8------|-------------|-6---------------|-10-----|
G|-7-----7-----|-7-----7-----|-10-----|-7------|-9-----6-----|-7-----5---5-----|-10-----|
D|-------------|-------------|--------|--------|-8-----7-----|-------7---7-----|--------|
A|-------------|-------------|--------|--------|-------------|-----------------|--------|
E|-------------|-------------|--------|--------|-------------|-----------------|--------|


E|--------|-------------|--------|--------|--------|--------|-----------------|--------|
B|-8------|-------------|-6------|-10-----|-8------|-8------|-6---------------|-10-----|
G|-7------|-9-----6-----|-7------|-10-----|-7------|-9------|-7-----5---5-----|-10-----|
D|--------|-8-----7-----|--------|--------|--------|--------|-------7---7-----|--------|
A|--------|-------------|--------|--------|--------|--------|-----------------|--------|
E|--------|-------------|--------|--------|--------|--------|-----------------|--------|


E|--------|--------|--------|--------|-------5---13--12--10------|-10--------------|
B|-8------|-8------|--------|--------|-----------------------10--|-----------------|
G|-7------|-9------|-6------|-10-----|-9-------------------------|-10--------------|
D|--------|--------|-7------|-12-----|-10------------------------|-12--------------|
A|--------|--------|--------|--------|---------------------------|-----------------|
E|--------|--------|--------|--------|---------------------------|-----------------|


E|-----12--13-------------------|--------|-----12--13--15--15--13--12--13--|-----------------|
B|-------------8---8------------|--------|---------------------------------|-15--------------|
G|-9----------------------------|-10-----|-9-------------------------------|-10--------------|
D|-10---------------------------|-12-----|-10------------------------------|-12--------------|
A|------------------------------|--------|---------------------------------|-----------------|
E|------------------------------|--------|---------------------------------|-----------------|


E|--------|--------|--------|--------|-------------|--------|-------------|--------|
B|--------|--------|--------|--------|-------------|--------|-------------|--------|
G|-9------|-10-----|-9------|-10-----|-9-----10----|-10-----|-9-----------|-10-----|
D|-10-----|-10-----|-10-----|-10-----|-10----------|-10-----|-10----11----|-12-----|
A|--------|--------|--------|--------|-------------|--------|-------------|--------|
E|--------|--------|--------|--------|-------------|--------|-------------|--------|


E|--------|-------------|--------|-------------|--------|-------------|--------|--------|
B|-8------|-6-----5-----|-6------|-6-----5-----|-6------|-6-----5-----|-10-----|-8------|
G|--------|-------5-----|-5------|-5-----------|-5------|-5-----------|-10-----|-7------|
D|--------|-------------|--------|-------------|--------|-------------|--------|--------|
A|--------|-------------|--------|-------------|--------|-------------|--------|--------|
E|--------|-------------|--------|-------------|--------|-------------|--------|--------|


E|--------|-----------------|--------|--------|--------|--------|--------|-----------13--12--10------|
B|-8------|-6---------------|-10-----|-8------|-8------|--------|--------|-------10--------------10--|
G|-9------|-7-----5---5-----|-10-----|-7------|-9------|-6------|-10-----|-9-------------------------|
D|--------|-------7---7-----|--------|--------|--------|-7------|-12-----|-10------------------------|
A|--------|-----------------|--------|--------|--------|--------|--------|---------------------------|
E|--------|-----------------|--------|--------|--------|--------|--------|---------------------------|


E|-----------------|-----15--13--12-13-----13--13---|--------|-----------13--12--10------|
B|-6---------------|-------------------13-----------|--------|-------10--------------10--|
G|-10--------------|-9------------------------------|-10-----|-9-------------------------|
D|-12--------------|-10-----------------------------|-12-----|-10------------------------|
A|-----------------|--------------------------------|--------|---------------------------|
E|-----------------|--------------------------------|--------|---------------------------|


E|-----------------|--------|--------|--------|--------|-------------|--------|-------------|
B|-6---------------|--------|--------|--------|--------|-------------|--------|-------------|
G|-10--------------|-9------|-10-----|-9------|-10-----|-9-----10----|-10-----|-9-----------|
D|-12--------------|-10-----|-10-----|-10-----|-10-----|-10----------|-10-----|-10----11----|
A|-----------------|--------|--------|--------|--------|-------------|--------|-------------|
E|-----------------|--------|--------|--------|--------|-------------|--------|-------------|


E|--------|--------|-------------|--------|--------|-------------|-----------------|
B|--------|-8------|-6-----5-----|-10-----|-8------|-------------|-6---------------|
G|-10-----|--------|-------5-----|-10-----|-7------|-7-----6-----|-7-----5---5-----|
D|-12-----|--------|-------------|--------|--------|-8-----7-----|-------7---7-----|
A|--------|--------|-------------|--------|--------|-------------|-----------------|
E|--------|--------|-------------|--------|--------|-------------|-----------------|


E|--------|--------|-------------|--------|--------|-----------13--12--10------|-10--------------|
B|-10-----|-8------|-------------|-6------|--------|-------10--------------10--|-----------------|
G|-10-----|-7------|-9-----6-----|-7------|-10-----|-9-------------------------|-10--------------|
D|--------|--------|-8-----7-----|--------|-12-----|-10------------------------|-12--------------|
A|--------|--------|-------------|--------|--------|---------------------------|-----------------|
E|--------|--------|-------------|--------|--------|---------------------------|-----------------|


E|-------15--15--------------|-----------------|-------24--20--24------24--|-22--------------|
B|---------------17--18--17--|-18--------------|-------------------22------|-----------------|
G|-9-------------------------|-10--------------|-9-------------------------|-10--------------|
D|-10------------------------|-12--------------|-10------------------------|-12--------------|
A|---------------------------|-----------------|---------------------------|-----------------|
E|---------------------------|-----------------|---------------------------|-----------------|


E|--------|--------|--------|--------|--------|-------------|--------|-------------|
B|--------|--------|-8------|-7------|-8------|-7-----8-----|-8------|-7-----------|
G|-9------|-9------|-7------|-7------|-7------|-7-----------|-7------|-7-----8-----|
D|-10-----|-10-----|--------|--------|--------|-------------|--------|-------------|
A|--------|--------|--------|--------|--------|-------------|--------|-------------|
E|--------|--------|--------|--------|--------|-------------|--------|-------------|


E|--------|--------|-------------|-3------|-3-----2-----|-3------|-3-----2-----|-3------|
B|-8------|-10-----|-8-----7-----|-3------|-3-----------|-3------|-3-----------|-3------|
G|-7------|--------|-------7-----|--------|-------------|--------|-------------|--------|
D|--------|--------|-------------|--------|-------------|--------|-------------|--------|
A|--------|--------|-------------|--------|-------------|--------|-------------|--------|
E|--------|--------|-------------|--------|-------------|--------|-------------|--------|


E|-3-----2-----|-3------|-3-----2-----|-3------|-3-----2-----|-3------|-3-----2-----|
B|-3-----------|-3------|-3-----------|-3------|-3-----------|-3------|-3-----------|
G|-------------|--------|-------------|--------|-------------|--------|-------------|
D|-------------|--------|-------------|--------|-------------|--------|-------------|
A|-------------|--------|-------------|--------|-------------|--------|-------------|
E|-------------|--------|-------------|--------|-------------|--------|-------------|


E|-3------|-3-----2-----|-3------|-3-----2-----|-3------|-3------|-3------|
B|-3------|-3-----------|-3------|-3-----------|-3------|-3------|-3------|
G|--------|-------------|--------|-------------|--------|--------|--------|
D|--------|-------------|--------|-------------|--------|--------|--------|
A|--------|-------------|--------|-------------|--------|--------|--------|
E|--------|-------------|--------|-------------|--------|--------|--------|





Track 8: Piano

E|--------|--------|---------1---------------1-------|---------------------------------------|
B|--------|--------|---------3-----------------------|---------------3-----------------------|
G|--------|--------|-----2-------2-------2---0---2---|-----------3---3-------------7---------|
D|--------|--------|-0-------------------------------|-----3--5-------------5--7------8--7---|
A|--------|--------|-----------------3---------------|---------------------------------------|
E|--------|--------|---------------------------------|-3-----------------3-------------------|


E|---------------------------|----------------------------------|---------------------------------|
B|------3---5------------5---|-6----6---------------------------|---------6---------------6-------|
G|-9----3-------6----6-------|-7-------7----------7---7------5--|---------9---------------0-------|
D|-8------------7----7-------|-7----------7---7---10--10--5-----|-----7-------7-------7-------7---|
A|-8------------7------------|-5----------0---0---10--10--------|-5-------------------------------|
E|-10-----------5------------|----------------------------------|-----------------8---------------|


E|---------------------------------------|---------------------------|--------------------------------|
B|---------------3-----------------------|------3---5------------5---|-6----6---------6-------6-------|
G|-----------3---3-------------7---------|-9----3-------6----6-------|-7-------7------7-------7-------|
D|-----3--5-------------5--7------8--7---|-8------------7----7-------|-7----------7---7-------7-------|
A|---------------------------------------|-8------------7------------|-5--------------0---5-----------|
E|-3-----------------3-------------------|-10-----------5------------|------------------------6---8---|


E|--------|--------|--------|--------|--------|--------|--------|--------|--------|
B|--------|--------|--------|--------|--------|--------|--------|--------|--------|
G|--------|--------|--------|--------|--------|--------|--------|--------|--------|
D|--------|--------|--------|--------|--------|--------|--------|--------|--------|
A|--------|--------|--------|--------|--------|--------|--------|--------|--------|
E|--------|--------|--------|--------|--------|--------|--------|--------|--------|


E|--------|--------|--------|--------|--------|--------|--------|--------|--------|
B|--------|--------|--------|--------|--------|--------|--------|--------|--------|
G|--------|--------|--------|--------|--------|--------|--------|--------|--------|
D|--------|--------|--------|--------|--------|--------|--------|--------|--------|
A|--------|--------|--------|--------|--------|--------|--------|--------|--------|
E|--------|--------|--------|--------|--------|--------|--------|--------|--------|


E|--------|--------|--------|--------|--------|--------|--------|----5--8--13-13-------------13-13------|
B|--------|--------|--------|--------|--------|--------|--------|-6---------------13--13--13--------13--|
G|--------|--------|--------|--------|--------|--------|--------|---------------------------------------|
D|--------|--------|--------|--------|--------|--------|--------|---------------------------------------|
A|--------|--------|--------|--------|--------|--------|--------|---------------------------------------|
E|--------|--------|--------|--------|--------|--------|--------|---------------------------------------|


E|--------13-13---------13--13-13-12-10-8--|----5--8--13-13-------------13-13------|
B|-13--13--------13--13--------------------|-6---------------13--13--13--------13--|
G|-----------------------------------------|---------------------------------------|
D|-----------------------------------------|---------------------------------------|
A|-----------------------------------------|---------------------------------------|
E|-----------------------------------------|---------------------------------------|


E|--------13-13---------13--13-13-12-10-8--|--------|--------|--------|--------|--------|
B|-13--13--------13--13--------------------|--------|--------|--------|--------|--------|
G|-----------------------------------------|--------|--------|--------|--------|--------|
D|-----------------------------------------|--------|--------|--------|--------|--------|
A|-----------------------------------------|--------|--------|--------|--------|--------|
E|-----------------------------------------|--------|--------|--------|--------|--------|


E|--------|--------|--------|--------|--------|--------|--------|--------|--------|
B|--------|--------|--------|--------|--------|--------|--------|--------|--------|
G|--------|--------|--------|--------|--------|--------|--------|--------|--------|
D|--------|--------|--------|--------|--------|--------|--------|--------|--------|
A|--------|--------|--------|--------|--------|--------|--------|--------|--------|
E|--------|--------|--------|--------|--------|--------|--------|--------|--------|


E|--------|--------|--------|--------|--------|--------|--------|--------|--------|
B|--------|--------|--------|--------|--------|--------|--------|--------|--------|
G|--------|--------|--------|--------|--------|--------|--------|--------|--------|
D|--------|--------|--------|--------|--------|--------|--------|--------|--------|
A|--------|--------|--------|--------|--------|--------|--------|--------|--------|
E|--------|--------|--------|--------|--------|--------|--------|--------|--------|


E|--------|--------|---------1---------------1-------|---------------------------------------|
B|--------|--------|---------3-----------------------|---------------3-----------------------|
G|--------|--------|-----2-------2-------2---0---2---|-----------3---3-------------7---------|
D|--------|--------|-0-------------------------------|-----3--5-------------5--7------8--7---|
A|--------|--------|-----------------3---------------|---------------------------------------|
E|--------|--------|---------------------------------|-3-----------------3-------------------|


E|---------------------------|----------------------------------|---------------------------------|
B|------3---5------------5---|-6----6---------------------------|---------6---------------6-------|
G|-9----3-------6----6-------|-7-------7----------7---7------5--|---------9---------------0-------|
D|-8------------7----7-------|-7----------7---7---10--10--5-----|-----7-------7-------7-------7---|
A|-8------------7------------|-5----------0---0---10--10--------|-5-------------------------------|
E|-10-----------5------------|----------------------------------|-----------------8---------------|


E|---------------------------------------|---------------------------|--------------------------------|
B|---------------3-----------------------|------3---5------------5---|-6----6---------6-------6-------|
G|-----------3---3-------------7---------|-9----3-------6----6-------|-7-------7------7-------7-------|
D|-----3--5-------------5--7------8--7---|-8------------7----7-------|-7----------7---7-------7-------|
A|---------------------------------------|-8------------7------------|-5--------------0---5-----------|
E|-3-----------------3-------------------|-10-----------5------------|------------------------6---8---|


E|--------|--------|--------|--------|--------|--------|--------|--------|--------|
B|--------|--------|--------|--------|--------|--------|--------|--------|--------|
G|--------|--------|--------|--------|--------|--------|--------|--------|--------|
D|--------|--------|--------|--------|--------|--------|--------|--------|--------|
A|--------|--------|--------|--------|--------|--------|--------|--------|--------|
E|--------|--------|--------|--------|--------|--------|--------|--------|--------|


E|--------|--------|--------|--------|--------|--------|--------|--------|--------|
B|--------|--------|--------|--------|--------|--------|--------|--------|--------|
G|--------|--------|--------|--------|--------|--------|--------|--------|--------|
D|--------|--------|--------|--------|--------|--------|--------|--------|--------|
A|--------|--------|--------|--------|--------|--------|--------|--------|--------|
E|--------|--------|--------|--------|--------|--------|--------|--------|--------|


E|----7--10-15-15-------------15-15------|--------15-15---------15--15-15-14-12-10-|
B|-8---------------15--15--15--------15--|-15--15--------15--15--------------------|
G|---------------------------------------|-----------------------------------------|
D|---------------------------------------|-----------------------------------------|
A|---------------------------------------|-----------------------------------------|
E|---------------------------------------|-----------------------------------------|


E|----7--10-15-15-------------15-15------|--------15-15---------15--15-15-14-12-10-|
B|-8---------------15--15--15--------15--|-15--15--------15--15--------------------|
G|---------------------------------------|-----------------------------------------|
D|---------------------------------------|-----------------------------------------|
A|---------------------------------------|-----------------------------------------|
E|---------------------------------------|-----------------------------------------|


E|----7--10-15-15-------------15-15------|--------15-15---------15--15-15-14-12-10-|
B|-8---------------15--15--15--------15--|-15--15--------15--15--------------------|
G|---------------------------------------|-----------------------------------------|
D|---------------------------------------|-----------------------------------------|
A|---------------------------------------|-----------------------------------------|
E|---------------------------------------|-----------------------------------------|


E|----7--10-15-15-------------15-15------|--------15-15---------15--15-15-14-12-10-|
B|-8---------------15--15--15--------15--|-15--15--------15--15--------------------|
G|---------------------------------------|-----------------------------------------|
D|---------------------------------------|-----------------------------------------|
A|---------------------------------------|-----------------------------------------|
E|---------------------------------------|-----------------------------------------|


E|----7--10-15-15-------------15-15------|--------15-15---------15--15-15-14-12-10-|
B|-8---------------15--15--15--------15--|-15--15--------15--15--------------------|
G|---------------------------------------|-----------------------------------------|
D|---------------------------------------|-----------------------------------------|
A|---------------------------------------|-----------------------------------------|
E|---------------------------------------|-----------------------------------------|


E|----7--10-15-15-------------15-15------|--------15-15---------15--15-15-14-12-10-|
B|-8---------------15--15--15--------15--|-15--15--------15--15--------------------|
G|---------------------------------------|-----------------------------------------|
D|---------------------------------------|-----------------------------------------|
A|---------------------------------------|-----------------------------------------|
E|---------------------------------------|-----------------------------------------|


E|-7------|--------|--------|--------|--------|--------|--------|
B|-8------|--------|--------|--------|--------|--------|--------|
G|--------|--------|--------|--------|-0------|--------|--------|
D|--------|--------|--------|--------|-0------|--------|--------|
A|--------|--------|--------|--------|-2------|--------|--------|
E|--------|--------|--------|--------|--------|--------|--------|





Track 9: Bass

G|--------|--------|-------------|--------|-----------------|------------------------|
D|--------|--------|-------------|--------|-----------------|------------------------|
A|--------|--------|-5-----3-----|--------|-----------------|-5----5-----------------|
E|--------|--------|-------------|-3------|-6-----5----5----|-----------5--5----5----|
B|--------|--------|-------------|--------|-----------------|------------------------|


G|-------------|-------------|-----------------|------------------------|-------------|
D|-------------|-------------|-----------------|------------------------|-------------|
A|-5-----3-----|-------------|-----------------|------------------------|-5-----3-----|
E|-------------|-3------3----|-6-----5----5----|-----------5--5----6----|-------------|
B|-------------|-------------|-----------------|-3----3-----------------|-------------|


G|--------|-------------|--------------------|-------------|--------|-------------|
D|--------|-------------|--------------------|-------------|--------|-------------|
A|--------|-------------|-5----5-------------|-5-----3-----|--------|-------------|
E|-3------|-6-----8-----|----------5---5-----|-------------|-3------|-6-----8-----|
B|--------|-------------|--------------------|-------------|--------|-------------|


G|---------------------------|-----------------|--------------------------|-------------|
D|-------------14-15-14------|-----------------|----------------7--8--7---|-------------|
A|-12----12-12----------12---|-5---------------|--------------------------|-5-----------|
E|---------------------------|-------6----6----|-8-----8---5--------------|-------6-----|
B|---------------------------|-----------------|--------------------------|-------------|


G|--------------------------|-----------------|---------------------|------------------------------|
D|----------------12--------|-----------------|------10-------------|------------------------------|
A|-------------------12--0--|-5----5----------|---------------------|------------------------------|
E|-8----8----5--------------|-----------6-----|-8---------5----5----|-6----6---6---6---6---6----6--|
B|--------------------------|-----------------|---------------------|------------------------------|


G|----------------|-------------|-------------------------|-------------|----------5--7--7---------|
D|-10-------------|-------------|-------------------------|-------------|--------------------------|
A|----------------|-0-----1-----|-3-----3--5--3---3--5----|-0-----1-----|-3----3--------------5----|
E|-----8---8------|-------------|-------------------------|-------------|--------------------------|
B|----------------|-------------|-------------------------|-------------|--------------------------|


G|-------------------|-------------|-------------|--------|-----------------|-----------------------------|
D|-------------------|-------------|-------------|--------|-----------------|-----------------------------|
A|-0-----1-----3--5--|-3-----0-----|-5-----3-----|-2------|-1-----3-----3---|-----------------3--5---5----|
E|-------------------|-------------|-------------|--------|-----------------|-1----1----1--1--------------|
B|-------------------|-------------|-------------|--------|-----------------|-----------------------------|


G|-----------------------------|-----------------------------|-----------------------------|
D|-----------------------------|-----------------------------|-----------------3--5---5----|
A|-----------------------------|-----------------3--5---5----|-----------------------------|
E|-6----6----6--6--6--8---8----|-1----1----1--1--------------|-6----6----6--6--------------|
B|-----------------------------|-----------------------------|-----------------------------|


G|-------------|--------|-------------|--------------------|-------------|--------|
D|-------------|--------|-------------|--------------------|-------------|--------|
A|-5-----3-----|--------|-------------|-5----5-------------|-5-----3-----|--------|
E|-------------|-3------|-6-----8-----|----------5---5-----|-------------|-3------|
B|-------------|--------|-------------|--------------------|-------------|--------|


G|-------------|-2------|-----------------|--------------------------|-------------|
D|-------------|--------|-----------------|----------------7--8--7---|-------------|
A|-------------|--------|-5---------------|--------------------------|-5-----------|
E|-6-----8-----|--------|-------6----6----|-8-----8---5--------------|-------6-----|
B|-------------|--------|-----------------|--------------------------|-------------|


G|--------------------------|-----------------|---------------------|------------------------------|
D|----------------12--------|-----------------|------10-------------|------------------------------|
A|-------------------12--0--|-5----5----------|---------------------|------------------------------|
E|-8----8----5--------------|-----------6-----|-8---------5----5----|-6----6---6---6---6---6----6--|
B|--------------------------|-----------------|---------------------|------------------------------|


G|----------------|-------------|-------------------------|-------------|----------5--7--7---------|
D|-10-------------|-------------|-------------------------|-------------|--------------------------|
A|----------------|-0-----1-----|-3-----3--5--3---3--5----|-0-----1-----|-3----3--------------5----|
E|-----8---8------|-------------|-------------------------|-------------|--------------------------|
B|----------------|-------------|-------------------------|-------------|--------------------------|


G|-------------------|-------------|-------------|--------|---------------------|-------------|
D|-------------------|-------------|-------------|--------|---------------------|-------------|
A|-0-----1-----3--5--|-3-----0-----|-5-----3-----|-2------|-0----0----3----3----|-------3-----|
E|-------------------|-------------|-------------|--------|---------------------|-------------|
B|-------------------|-------------|-------------|--------|---------------------|-3-----------|


G|--------|-----------------|------------------------|-------------|-----------------|
D|--------|-----------------|------------------------|-------------|-----------------|
A|--------|-----------------|-5----5-----------------|-5-----3-----|-----------------|
E|-3------|-6-----5----5----|-----------5--5----5----|-------------|-3-----3----3----|
B|--------|-----------------|------------------------|-------------|-----------------|


G|-------------|------------------------|-----------------|--------------------------|
D|-------------|------------------------|-----------------|----------------7--8--7---|
A|-------------|-------------------3----|-5---------------|--------------------------|
E|-5-----5-----|-----------5--5---------|-------6----6----|-8-----8---5--------------|
B|-------------|-3----3-----------------|-----------------|--------------------------|


G|-------------|--------------------------|-----------------|---------------------|
D|-------------|----------------12--------|-----------------|------10-------------|
A|-5-----------|-------------------12--0--|-5----5----------|---------------------|
E|-------6-----|-8----8----5--------------|-----------6-----|-8---------5----5----|
B|-------------|--------------------------|-----------------|---------------------|


G|------------------------|--------------------------------|--------|-------------|
D|------------------------|--------------------------------|-10-----|-------------|
A|------------------------|--------------------------------|--------|-------3-----|
E|-6----6---6---6----6----|-8----8--8---8---8---8--8--8----|--------|-3-----------|
B|------------------------|--------------------------------|--------|-------------|


G|-------7--9--7---5--7----|-----------------|----------7---9-----|--------------------|
D|-------------------------|------9----------|--------------------|-----------10--10---|
A|-5-----------------------|-----------------|-5----5-------------|--------------------|
E|-------------------------|-7---------8-----|--------------------|-7-----8------------|
B|-------------------------|-----------------|--------------------|--------------------|


G|-----------------|-------------|---------------------------|------------------------|
D|-----------------|-------------|---------------------------|------------------------|
A|------5----------|-7-----5-----|-4----4---4---4---4---4----|-3----3----5----5---5---|
E|-----------7-----|-------------|---------------------------|------------------------|
B|-3---------------|-------------|---------------------------|------------------------|


G|---------------------------|---------------------------|---------------------------|
D|---------------------------|---------------------------|---------------------------|
A|---------------5--7---7----|-3----3----3---3--5---5----|---------------5--7---7----|
E|-3----3----3---------------|---------------------------|-3----3----3---------------|
B|---------------------------|---------------------------|---------------------------|


G|------------------------------------|---------------------------|---------------------------|
D|------------------------------------|---------------------------|---------------------------|
A|-3----3---3--3--7--7--7---5--5--5---|---------------5--7---7----|-3----3----3---3--5---5----|
E|------------------------------------|-3----3----3---------------|---------------------------|
B|------------------------------------|---------------------------|---------------------------|


G|---------------------------|------------------------------------|---------------------------|
D|---------------------------|------------------------------------|---------------------------|
A|---------------5--7---7----|-3----3---3--3--7--7--7---5--5--5---|---------------5--7---7----|
E|-3----3----3---------------|------------------------------------|-3----3----3---------------|
B|---------------------------|------------------------------------|---------------------------|


G|---------------------------|---------------------------|------------------------------------|
D|---------------------------|---------------------------|------------------------------------|
A|-3----3----3---3--5---5----|---------------5--7---7----|-3----3---3--3--7--7--7---5--5--5---|
E|---------------------------|-3----3----3---------------|------------------------------------|
B|---------------------------|---------------------------|------------------------------------|


G|---------------------------|---------------------------|---------------------------|
D|---------------------------|---------------------------|---------------------------|
A|---------------5--7---7----|-3----3----3---3--5---5----|---------------5--7---7----|
E|-3----3----3---------------|---------------------------|-3----3----3---------------|
B|---------------------------|---------------------------|---------------------------|


G|------------------------------------|--------|--------|--------|
D|------------------------------------|--------|--------|--------|
A|-3----3---3--3--7--7--7---5--5--5---|--------|--------|--------|
E|------------------------------------|-3------|-3------|-3------|
B|------------------------------------|--------|--------|--------|