Menu:

 

Search:

 

dream theater - hollow years:

 



Title: Hollow Years
Artist: 
Album: Falling Into Infinity
Author: Dream Theater


Track 1: Untitled

E|--------|--------|--------|--------|--------|--------|--------|--------|--------|
B|--------|--------|--------|--------|--------|--------|--------|--------|--------|
G|--------|--------|--------|--------|--------|--------|--------|--------|--------|
D|--------|--------|--------|--------|--------|--------|--------|--------|--------|
A|--------|--------|--------|--------|--------|--------|--------|--------|--------|
E|--------|--------|--------|--------|--------|--------|--------|--------|--------|


E|--------|--------|--------|--------|--------|--------|--------|--------|--------|
B|--------|--------|--------|--------|--------|--------|--------|--------|--------|
G|--------|--------|--------|--------|--------|--------|--------|--------|--------|
D|--------|--------|--------|--------|--------|--------|--------|--------|--------|
A|--------|--------|--------|--------|--------|--------|--------|--------|--------|
E|--------|--------|--------|--------|--------|--------|--------|--------|--------|


E|--------|--------|--------|--------|--------|--------|--------|--------|--------|
B|--------|--------|--------|--------|--------|--------|--------|--------|--------|
G|--------|--------|--------|--------|--------|--------|--------|--------|--------|
D|--------|--------|--------|--------|--------|--------|--------|--------|--------|
A|--------|--------|--------|--------|--------|--------|--------|--------|--------|
E|--------|--------|--------|--------|--------|--------|--------|--------|--------|


E|--------|--------|--------|--------|--------|--------|--------|--------|--------|
B|--------|--------|--------|--------|--------|--------|--------|--------|--------|
G|--------|--------|--------|--------|--------|--------|--------|--------|--------|
D|--------|--------|--------|--------|--------|--------|--------|--------|--------|
A|--------|--------|--------|--------|--------|--------|--------|--------|--------|
E|--------|--------|--------|--------|--------|--------|--------|--------|--------|


E|--------|--------|--------|--------|--------|--------|--------|--------|--------|
B|--------|--------|--------|--------|--------|--------|--------|--------|--------|
G|--------|--------|--------|--------|--------|--------|--------|--------|--------|
D|--------|--------|--------|--------|--------|--------|--------|--------|--------|
A|--------|--------|--------|--------|--------|--------|--------|--------|--------|
E|--------|--------|--------|--------|--------|--------|--------|--------|--------|


E|--------|--------|--------|--------|--------|--------|--------|--------|--------|
B|--------|--------|--------|--------|--------|--------|--------|--------|--------|
G|--------|--------|--------|--------|--------|--------|--------|--------|--------|
D|--------|--------|--------|--------|--------|--------|--------|--------|--------|
A|--------|--------|--------|--------|--------|--------|--------|--------|--------|
E|--------|--------|--------|--------|--------|--------|--------|--------|--------|


E|--------|--------|--------|--------|--------|--------|--------|--------|--------|
B|--------|--------|--------|--------|--------|--------|--------|--------|--------|
G|--------|--------|--------|--------|--------|--------|--------|--------|--------|
D|--------|--------|--------|--------|--------|--------|--------|--------|--------|
A|--------|--------|--------|--------|--------|--------|--------|--------|--------|
E|--------|--------|--------|--------|--------|--------|--------|--------|--------|


E|--------|--------|--------|--------|--------|--------|--------|--------|--------|
B|--------|--------|--------|--------|--------|--------|--------|--------|--------|
G|--------|--------|--------|--------|--------|--------|--------|--------|--------|
D|--------|--------|--------|--------|--------|--------|--------|--------|--------|
A|--------|--------|--------|--------|--------|--------|--------|--------|--------|
E|--------|--------|--------|--------|--------|--------|--------|--------|--------|


E|--------|--------|--------|--------|--------|--------|--------|--------|--------|
B|--------|--------|--------|--------|--------|--------|--------|--------|--------|
G|--------|--------|--------|--------|--------|--------|--------|--------|--------|
D|--------|--------|--------|--------|--------|--------|--------|--------|--------|
A|--------|--------|--------|--------|--------|--------|--------|--------|--------|
E|--------|--------|--------|--------|--------|--------|--------|--------|--------|


E|--------|--------|--------|--------|--------|--------|--------|--------|--------|
B|--------|--------|--------|--------|--------|--------|--------|--------|--------|
G|--------|--------|--------|--------|--------|--------|--------|--------|--------|
D|--------|--------|--------|--------|--------|--------|--------|--------|--------|
A|--------|--------|--------|--------|--------|--------|--------|--------|--------|
E|--------|--------|--------|--------|--------|--------|--------|--------|--------|


E|--------|--------|--------|--------|--------|--------|--------|--------|--------|
B|--------|--------|--------|--------|--------|--------|--------|--------|--------|
G|--------|--------|--------|--------|--------|--------|--------|--------|--------|
D|--------|--------|--------|--------|--------|--------|--------|--------|--------|
A|--------|--------|--------|--------|--------|--------|--------|--------|--------|
E|--------|--------|--------|--------|--------|--------|--------|--------|--------|


E|--------|--------|--------|--------|--------|--------|
B|--------|--------|--------|--------|--------|--------|
G|--------|--------|--------|--------|--------|--------|
D|--------|--------|--------|--------|--------|--------|
A|--------|--------|--------|--------|--------|--------|
E|--------|--------|--------|--------|--------|--------|





Track 2: Bass

C|-------------|--------|--------|----------------------|-------------|--------|--------|
G|-------------|--------|--------|----------------------|-------------|--------|--------|
D|-------------|--------|--------|----------------------|-------------|--------|--------|
A|-5-----3-----|--------|--------|-5--5---5-------------|-5-----3-----|--------|--------|
E|-------------|-3------|-5------|-------------5--5-----|-------------|-3------|-6------|
B|-------------|--------|--------|----------------------|-------------|--------|--------|


C|-------------------------------|--------------------|--------|-------------|--------------------|
G|-------------------------------|--------------------|--------|-------------|--------------------|
D|-------------------------------|--------------------|--------|-------------|--------------------|
A|-5---5-------------------------|-5---5----5---3-----|--------|-1-----3-----|-5---5--------------|
E|----------5--5--5--5---6--6----|--------------------|-3------|-------------|----------5---5-----|
B|-------------------------------|--------------------|--------|-------------|--------------------|


C|--------------------|--------|-------------|--------|----------------------|-------------|
G|--------------------|--------|-------------|--------|----------------------|-------------|
D|--------------------|--------|-------------|-7------|----------------------|-------------|
A|-5---5----5---3-----|--------|-1-----3-----|--------|-5--5---5-------------|-3-----------|
E|--------------------|-3------|-------------|--------|-------------6--6-----|-------5-----|
B|--------------------|--------|-------------|--------|----------------------|-------------|


C|----------------------|----------------------|-------------|--------------------|
G|----------------------|----------------------|-------------|--------------------|
D|----------------------|------------5--7--7---|-------------|------10--10--7-----|
A|-5--5---5-------------|-3--------------------|-5-----------|-3------------------|
E|-------------6--6-----|-------5--------------|-------6-----|--------------------|
B|----------------------|----------------------|-------------|--------------------|


C|--------|--------|-------------|---------------------------|-------------|----------------------|
G|--------|--------|-------------|---------------------------|-------------|----------5--7--7-----|
D|--------|--------|-------------|---------------------------|-------------|----------------------|
A|-1------|-3------|-0-----1-----|-3-----5--3--3---0--3--3---|-0-----1-----|-3---3----------------|
E|--------|--------|-------------|---------------------------|-------------|----------------------|
B|--------|--------|-------------|---------------------------|-------------|----------------------|


C|-------------------|-------------|-------------|--------|-------------|-----------------------------|
G|-------------------|-------------|-------------|--------|-------------|-----------------------------|
D|-------------------|-------------|-------------|--------|-------------|-----------------------------|
A|-0-----1-----3--5--|-3-----0-----|-5-----3-----|-2------|-1-----3-----|-----------------3--5---5----|
E|-------------------|-------------|-------------|--------|-------------|-1----1---1--1---------------|
B|-------------------|-------------|-------------|--------|-------------|-----------------------------|


C|-----------------------------|-----------------------------|-----------------------------|
G|-----------------------------|-----------------------------|-----------------------------|
D|-----------------------------|-----------------------------|-----------------3--5---5----|
A|-1----1---1--1---1--3---3----|-----------------3--5---5----|-1----1---1--1---------------|
E|-----------------------------|-1----1---1--1---------------|-----------------------------|
B|-----------------------------|-----------------------------|-----------------------------|


C|--------------------|--------|-------------|--------------------|--------------------|
G|--------------------|--------|-------------|--------------------|--------------------|
D|--------------------|--------|-------------|--------------------|--------------------|
A|-5---5----5---3-----|--------|-1-----3-----|-5---5--------------|-5---5----5---3-----|
E|--------------------|-3------|-------------|----------5---5-----|--------------------|
B|--------------------|--------|-------------|--------------------|--------------------|


C|--------|-------------|---------------------------|----------------------|-------------|
G|--------|-------------|-------------9--10-9-------|----------------------|-------------|
D|--------|-------------|-7-----7--7-----------7----|----------------------|-------------|
A|--------|-1-----3-----|---------------------------|-5--5---5-------------|-3-----------|
E|-3------|-------------|---------------------------|-------------6--6-----|-------5-----|
B|--------|-------------|---------------------------|----------------------|-------------|


C|----------------------|----------------------|-------------|--------------------|
G|----------------------|----------------------|-------------|--------------------|
D|----------------------|------------5--7--7---|-------------|------10--10--7-----|
A|-5--5---5-------------|-3--------------------|-5-----------|-3------------------|
E|-------------6--6-----|-------5--------------|-------6-----|--------------------|
B|----------------------|----------------------|-------------|--------------------|


C|--------|--------|-------------|---------------------------|-------------|----------------------|
G|--------|--------|-------------|---------------------------|-------------|----------5--7--7-----|
D|--------|--------|-------------|---------------------------|-------------|----------------------|
A|-1------|-3------|-0-----1-----|-3-----5--3--3---0--3--3---|-0-----1-----|-3---3----------------|
E|--------|--------|-------------|---------------------------|-------------|----------------------|
B|--------|--------|-------------|---------------------------|-------------|----------------------|


C|-------------|-------------|-------------|--------|-------------|-------------|--------|
G|-------------|-------------|-------------|--------|-------------|-------------|--------|
D|-------------|-------------|-------------|--------|-------------|-------------|--------|
A|-0-----1-----|-3-----0-----|-5-----3-----|-2------|-1-----3-----|-5-----3-----|--------|
E|-------------|-------------|-------------|--------|-------------|-------------|-3------|
B|-------------|-------------|-------------|--------|-------------|-------------|--------|


C|--------|----------------------|-------------|--------|--------|--------------------------|
G|--------|----------------------|-------------|--------|--------|--------------------------|
D|--------|----------------------|-------------|--------|--------|--------------------------|
A|--------|-5--5---5-------------|-5-----3-----|--------|--------|-5--5---5------------3----|
E|-5------|-------------5--5-----|-------------|-3------|-5------|-------------5--5---------|
B|--------|----------------------|-------------|--------|--------|--------------------------|


C|----------------------|----------------------|-------------|-------------|-------------|
G|----------------------|----------------------|-------------|-------------|-------------|
D|----------------------|------------7--8--7---|-------------|-------------|-------------|
A|-5--5---5-------------|-3--------------------|-5-----------|-3-----------|-5-----------|
E|-------------6--6-----|-------5--------------|-------6-----|-------5-----|-------6-----|
B|----------------------|----------------------|-------------|-------------|-------------|


C|-------------|--------|--------|--------|-------------|---------------------------|
G|-------------|--------|--------|--------|-------------|-------7--9--7---5--7--7---|
D|-------------|--------|--------|-10-----|-------------|---------------------------|
A|-3-----------|-1------|-3------|--------|-2-----3-----|-5-------------------------|
E|-------5-----|--------|--------|--------|-------------|---------------------------|
B|-------------|--------|--------|--------|-------------|---------------------------|


C|-------------|----------------------|--------|-------------|-------------|--------|
G|-------------|----------7--9--9-----|--------|-------------|-------------|--------|
D|-------------|----------------------|--------|-------------|-------------|--------|
A|-2-----3-----|-5---5----------------|-2------|-------2-----|-7-----5-----|-4------|
E|-------------|----------------------|--------|-------------|-------------|--------|
B|-------------|----------------------|--------|-3-----------|-------------|--------|


C|-------------|-----------------------------|-----------------------------|-----------------------------|
G|-------------|-----------------------------|-----------------------------|-----------------------------|
D|-------------|-----------------------------|-----------------------------|-----------------------------|
A|-3-----5-----|-----------------5--7---7----|-3----3---3--3---3--5---5----|-----------------5--7---7----|
E|-------------|-3----3---3--3---------------|-----------------------------|-3----3---3--3---------------|
B|-------------|-----------------------------|-----------------------------|-----------------------------|


C|------------------------------------|-----------------------------|-----------------------------|
G|------------------------------------|-----------------------------|-----------------------------|
D|------------------------------------|-----------------------------|-----------------------------|
A|-3----3---3--3--7--7--7---5--5--5---|-----------------5--7---7----|-3----3---3--3---3--5---5----|
E|------------------------------------|-3----3---3--3---------------|-----------------------------|
B|------------------------------------|-----------------------------|-----------------------------|


C|-----------------------------|------------------------------------|-----------------------------|
G|-----------------------------|------------------------------------|-----------------------------|
D|-----------------------------|------------------------------------|-----------------------------|
A|-----------------5--7---7----|-3----3---3--3--7--7--7---5--5--5---|-----------------5--7---7----|
E|-3----3---3--3---------------|------------------------------------|-3----3---3--3---------------|
B|-----------------------------|------------------------------------|-----------------------------|


C|-----------------------------|-----------------------------|------------------------------------|
G|-----------------------------|-----------------------------|------------------------------------|
D|-----------------------------|-----------------------------|------------------------------------|
A|-3----3---3--3---3--5---5----|-----------------5--7---7----|-3----3---3--3--7--7--7---5--5--5---|
E|-----------------------------|-3----3---3--3---------------|------------------------------------|
B|-----------------------------|-----------------------------|------------------------------------|


C|-----------------------------|-----------------------------|-----------------------------|
G|-----------------------------|------------------------7----|-----------------------------|
D|-----------------------------|-----------------------------|-----------------------------|
A|-----------------5--7---7----|-3----3---3--3---3--5--------|-----------------5--7---7----|
E|-3----3---3--3---------------|-----------------------------|-3----3---3--3---------------|
B|-----------------------------|-----------------------------|-----------------------------|


C|------------------------------------|--------|
G|------------------------------------|--------|
D|------------------------------------|--------|
A|-3----3---3--3--7--7--7---5--5--5---|--------|
E|------------------------------------|-3------|
B|------------------------------------|--------|