Menu:

 

Search:

 

dream theater - hollow years:

 



Title: John Petrucc
Artist: 
Album: Hollow Years
Author: John Petrucci


Track 1: Nylon String

E|--------------------------------|----------------------|----------------------------8---|
B|------------5-----6----6----10--|-10--11-11-11---------|--------------------------------|
G|---------------7----------------|----------------------|------------7--6--9----9--------|
D|---------7----------------------|----------------------|---------8----------------------|
A|--------------------------------|----------------------|--------------------------------|
E|--------------------------------|----------------------|--------------------------------|


E|----------------------|----------------------------6--8--|-8---6--6--6----5--5-------------|
B|-8---10-10-10---------|------------5-----6----6----------|-----------------------8----8----|
G|----------------------|---------------7------------------|---------------------------------|
D|----------------------|---------7------------------------|---------------------------------|
A|----------------------|----------------------------------|---------------------------------|
E|----------------------|----------------------------------|---------------------------------|


E|-------------------------------|-------------------------|--------|--------|--------|
B|-------------------------------|-------------------------|--------|--------|--------|
G|------------7--6--9----9----10-|-9-109--7--7--7----------|--------|--------|--------|
D|---------8---------------------|-------------------------|--------|--------|--------|
A|-------------------------------|-------------------------|--------|--------|--------|
E|-------------------------------|-------------------------|--------|--------|--------|


E|--------|--------|--------|--------|--------|--------|--------|--------|--------|
B|--------|--------|--------|--------|--------|--------|--------|--------|--------|
G|--------|--------|--------|--------|--------|--------|--------|--------|--------|
D|--------|--------|--------|--------|--------|--------|--------|--------|--------|
A|--------|--------|--------|--------|--------|--------|--------|--------|--------|
E|--------|--------|--------|--------|--------|--------|--------|--------|--------|


E|--------|--------|--------|--------|--------|--------|--------|--------|--------|
B|--------|--------|--------|--------|--------|--------|--------|--------|--------|
G|--------|--------|--------|--------|--------|--------|--------|--------|--------|
D|--------|--------|--------|--------|--------|--------|--------|--------|--------|
A|--------|--------|--------|--------|--------|--------|--------|--------|--------|
E|--------|--------|--------|--------|--------|--------|--------|--------|--------|


E|--------|--------|--------|--------|--------|--------|--------|--------|--------|
B|--------|--------|--------|--------|--------|--------|--------|--------|--------|
G|--------|--------|--------|--------|--------|--------|--------|--------|--------|
D|--------|--------|--------|--------|--------|--------|--------|--------|--------|
A|--------|--------|--------|--------|--------|--------|--------|--------|--------|
E|--------|--------|--------|--------|--------|--------|--------|--------|--------|


E|--------|--------|--------|--------|--------|--------|--------|--------|--------|
B|--------|--------|--------|--------|--------|--------|--------|--------|--------|
G|--------|--------|--------|--------|--------|--------|--------|--------|--------|
D|--------|--------|--------|--------|--------|--------|--------|--------|--------|
A|--------|--------|--------|--------|--------|--------|--------|--------|--------|
E|--------|--------|--------|--------|--------|--------|--------|--------|--------|


E|--------|--------|--------|--------|--------|--------|--------|--------|--------|
B|--------|--------|--------|--------|--------|--------|--------|--------|--------|
G|--------|--------|--------|--------|--------|--------|--------|--------|--------|
D|--------|--------|--------|--------|--------|--------|--------|--------|--------|
A|--------|--------|--------|--------|--------|--------|--------|--------|--------|
E|--------|--------|--------|--------|--------|--------|--------|--------|--------|


E|--------|--------|--------|--------|--------|--------|--------|--------|--------|
B|--------|--------|--------|--------|--------|--------|--------|--------|--------|
G|--------|--------|--------|--------|--------|--------|--------|--------|--------|
D|--------|--------|--------|--------|--------|--------|--------|--------|--------|
A|--------|--------|--------|--------|--------|--------|--------|--------|--------|
E|--------|--------|--------|--------|--------|--------|--------|--------|--------|


E|--------|-------------------------------------|-------------------------------------|
B|--------|------------5-----6----6-------8--10-|-10--11-11-11---11----------------8--|
G|--------|---------------7---------------------|--------------------10-12109---10----|
D|--------|---------7---------------------------|-------------------------------------|
A|--------|-------------------------------------|-------------------------------------|
E|--------|-------------------------------------|-------------------------------------|


E|-------------------------------|-------------------13---12-10--------|------------12-10-13---13-13-12--10-|
B|-8--------------------------8--|-8---10-10-10---10----------------10-|-10---10-10-------15---15-15-13--11-|
G|------------7--6--9----9-------|-------------------------------12----|------------------------------------|
D|---------8---------------------|-------------------------------------|------------------------------------|
A|-------------------------------|-------------------------------------|------------------------------------|
E|-------------------------------|-------------------------------------|------------------------------------|


E|-10-12--------6--6-8-6--5--6-------10----8-6-|---------5---------------------------|
B|-11------------------------------------------|-8----8--------6-5-6----5--5---------|
G|---------------------------------------------|---------------------------------7-6-|
D|---------------------------------------------|-------------------------------------|
A|---------------------------------------------|-------------------------------------|
E|---------------------------------------------|-------------------------------------|


E|---------------5-6---8---6---5-----------|-------------|--------|--------|--------|
B|-------------6-------------------8---6---|-10----------|--------|--------|--------|
G|-7----7----7-----------------------------|-------------|--------|--------|--------|
D|-----------------------------------------|-------------|--------|--------|--------|
A|-----------------------------------------|-------------|--------|--------|--------|
E|-----------------------------------------|-------------|--------|--------|--------|


E|--------|--------|--------|--------|--------|--------|--------|--------|--------|
B|--------|--------|--------|--------|--------|--------|--------|--------|--------|
G|--------|--------|--------|--------|--------|--------|--------|--------|--------|
D|--------|--------|--------|--------|--------|--------|--------|--------|--------|
A|--------|--------|--------|--------|--------|--------|--------|--------|--------|
E|--------|--------|--------|--------|--------|--------|--------|--------|--------|


E|--------|--------|--------|--------|--------|--------|--------|--------|--------|
B|--------|--------|--------|--------|--------|--------|--------|--------|--------|
G|--------|--------|--------|--------|--------|--------|--------|--------|--------|
D|--------|--------|--------|--------|--------|--------|--------|--------|--------|
A|--------|--------|--------|--------|--------|--------|--------|--------|--------|
E|--------|--------|--------|--------|--------|--------|--------|--------|--------|


E|--------|--------|--------|--------|--------|--------|--------|--------|--------|
B|--------|--------|--------|--------|--------|--------|--------|--------|--------|
G|--------|--------|--------|--------|--------|--------|--------|--------|--------|
D|--------|--------|--------|--------|--------|--------|--------|--------|--------|
A|--------|--------|--------|--------|--------|--------|--------|--------|--------|
E|--------|--------|--------|--------|--------|--------|--------|--------|--------|


E|--------|--------|--------|--------|--------|--------|
B|--------|--------|--------|--------|--------|--------|
G|--------|--------|--------|--------|--------|--------|
D|--------|--------|--------|--------|--------|--------|
A|--------|--------|--------|--------|--------|--------|
E|--------|--------|--------|--------|--------|--------|





Track 2: Acoustic String

E|--------|--------|--------|--------|--------|--------|--------|--------|---------------------------------|
B|--------|--------|--------|--------|--------|--------|--------|--------|-------------6---6---------------|
G|--------|--------|--------|--------|--------|--------|--------|--------|---------7-----------0-----------|
D|--------|--------|--------|--------|--------|--------|--------|--------|-----7-------------------7-------|
A|--------|--------|--------|--------|--------|--------|--------|--------|-5-------------------------------|
E|--------|--------|--------|--------|--------|--------|--------|--------|-----------------8-----------8---|


E|-----------------3---3---------------|---------------------------0-------|---------------------------0---------|
B|--------------3----------3-----------|-----------------------------------|---------6---3---3------------3------|
G|-----------3-----------------3-------|-------------5---7-------------7---|-------------5---5---------------5---|
D|--------7------------------------7---|---------5--------------5----------|-----7-------5---5------5------------|
A|-----5-------------------------------|-----8---------------8-------------|-5-----------0---0---0---------------|
E|-3-----------------------------------|-6---------------------------------|-------------------------------------|


E|---------------------------------|-----------------3---3---------------|---------------------------0-------|
B|-------------6---6---------------|--------------3----------3-----------|-----------------------------------|
G|---------7-----------0-----------|-----------3-----------------3-------|-------------5---7------0------7---|
D|-----7-------------------7-------|--------7------------------------7---|---------5-----------5-------------|
A|-5-------------------------------|-----5-------------------------------|-----8-----------------------------|
E|-----------------8-----------8---|-3-----------------------------------|-6---------------------------------|


E|-----------------------------0---------|--------|--------|--------|--------|--------|
B|-----------8---5---5------------5------|--------|--------|--------|--------|--------|
G|--------7------6---6---------------6---|--------|--------|--------|--------|--------|
D|-----8---------5---5------5------------|--------|--------|--------|--------|--------|
A|-0-------------0---0---0---------------|--------|--------|--------|--------|--------|
E|---------------------------------------|--------|--------|--------|--------|--------|


E|--------|--------|--------|--------|--------|--------|--------|--------|--------|
B|--------|--------|--------|--------|--------|--------|--------|--------|--------|
G|--------|--------|--------|--------|--------|--------|--------|--------|--------|
D|--------|--------|--------|--------|--------|--------|--------|--------|--------|
A|--------|--------|--------|--------|--------|--------|--------|--------|--------|
E|--------|--------|--------|--------|--------|--------|--------|--------|--------|


E|--------|--------|--------|--------|--------|--------|--------|---------------------------------|
B|--------|--------|--------|--------|--------|--------|--------|-------------6---6---------------|
G|--------|--------|--------|--------|--------|--------|--------|---------7-----------0-----------|
D|--------|--------|--------|--------|--------|--------|--------|-----7-------------------7-------|
A|--------|--------|--------|--------|--------|--------|--------|-5-------------------------------|
E|--------|--------|--------|--------|--------|--------|--------|-----------------8-----------8---|


E|-----------------3---3---------------|---------------------------0-------|---------------------------0---------|
B|--------------3----------3-----------|-----------------------------------|---------6---3---3------------3------|
G|-----------3-----------------3-------|-------------5---7-------------7---|-------------5---5---------------5---|
D|--------7------------------------7---|---------5--------------5----------|-----7-------5---5------5------------|
A|-----5-------------------------------|-----8---------------8-------------|-5-----------0---0---0---------------|
E|-3-----------------------------------|-6---------------------------------|-------------------------------------|


E|---------------------------------|-----------------3---3---------------|---------------------------0-------|
B|-------------6---6---------------|--------------3----------3-----------|-----------------------------------|
G|---------7-----------0-----------|-----------3-----------------3-------|-------------5---7------0------7---|
D|-----7-------------------7-------|--------7------------------------7---|---------5-----------5-------------|
A|-5-------------------------------|-----5-------------------------------|-----8-----------------------------|
E|-----------------8-----------8---|-3-----------------------------------|-6---------------------------------|


E|-----------------------------0---------|--------|--------|--------|--------|--------|
B|-----------8---5---5------------5------|--------|--------|--------|--------|--------|
G|--------7------6---6---------------6---|--------|--------|--------|--------|--------|
D|-----8---------5---5------5------------|--------|--------|--------|--------|--------|
A|-0-------------0---0---0---------------|--------|--------|--------|--------|--------|
E|---------------------------------------|--------|--------|--------|--------|--------|


E|--------|--------|--------|--------|--------|--------|--------|--------|--------|
B|--------|--------|--------|--------|--------|--------|--------|--------|--------|
G|--------|--------|--------|--------|--------|--------|--------|--------|--------|
D|--------|--------|--------|--------|--------|--------|--------|--------|--------|
A|--------|--------|--------|--------|--------|--------|--------|--------|--------|
E|--------|--------|--------|--------|--------|--------|--------|--------|--------|


E|--------|--------|--------|--------|--------|--------|--------|--------|--------|
B|--------|--------|--------|--------|--------|--------|--------|--------|--------|
G|--------|--------|--------|--------|--------|--------|--------|--------|--------|
D|--------|--------|--------|--------|--------|--------|--------|--------|--------|
A|--------|--------|--------|--------|--------|--------|--------|--------|--------|
E|--------|--------|--------|--------|--------|--------|--------|--------|--------|


E|--------|--------|--------|--------|--------|--------|--------|--------|--------|
B|--------|--------|--------|--------|--------|--------|--------|--------|--------|
G|--------|--------|--------|--------|--------|--------|--------|--------|--------|
D|--------|--------|--------|--------|--------|--------|--------|--------|--------|
A|--------|--------|--------|--------|--------|--------|--------|--------|--------|
E|--------|--------|--------|--------|--------|--------|--------|--------|--------|


E|--------|--------|--------|--------|--------|--------|--------|--------|--------|
B|--------|--------|--------|--------|--------|--------|--------|--------|--------|
G|--------|--------|--------|--------|--------|--------|--------|--------|--------|
D|--------|--------|--------|--------|--------|--------|--------|--------|--------|
A|--------|--------|--------|--------|--------|--------|--------|--------|--------|
E|--------|--------|--------|--------|--------|--------|--------|--------|--------|


E|--------|--------|--------|--------|--------|--------|--------|--------|--------|
B|--------|--------|--------|--------|--------|--------|--------|--------|--------|
G|--------|--------|--------|--------|--------|--------|--------|--------|--------|
D|--------|--------|--------|--------|--------|--------|--------|--------|--------|
A|--------|--------|--------|--------|--------|--------|--------|--------|--------|
E|--------|--------|--------|--------|--------|--------|--------|--------|--------|


E|--------|--------|--------|--------|--------|--------|--------|--------|--------|
B|--------|--------|--------|--------|--------|--------|--------|--------|--------|
G|--------|--------|--------|--------|--------|--------|--------|--------|--------|
D|--------|--------|--------|--------|--------|--------|--------|--------|--------|
A|--------|--------|--------|--------|--------|--------|--------|--------|--------|
E|--------|--------|--------|--------|--------|--------|--------|--------|--------|


E|--------|--------|--------|--------|--------|--------|--------|
B|--------|--------|--------|--------|--------|--------|--------|
G|--------|--------|--------|--------|--------|--------|--------|
D|--------|--------|--------|--------|--------|--------|--------|
A|--------|--------|--------|--------|--------|--------|--------|
E|--------|--------|--------|--------|--------|--------|--------|





Track 3: Clean Guitar

E|--------|--------|--------|--------|--------|--------|--------|--------|--------|
B|--------|--------|--------|--------|--------|--------|--------|--------|--------|
G|--------|--------|--------|--------|--------|--------|--------|--------|--------|
D|--------|--------|--------|--------|--------|--------|--------|--------|--------|
A|--------|--------|--------|--------|--------|--------|--------|--------|--------|
E|--------|--------|--------|--------|--------|--------|--------|--------|--------|


E|--------|--------|--------|--------|--------|--------|--------|-----0---------------0--------|
B|--------|--------|--------|--------|--------|--------|--------|---------6---------------6----|
G|--------|--------|--------|--------|--------|--------|--------|-------------7---7------------|
D|--------|--------|--------|--------|--------|--------|--------|------------------------------|
A|--------|--------|--------|--------|--------|--------|--------|------------------------------|
E|--------|--------|--------|--------|--------|--------|--------|------------------------------|


E|-----0---------------0--------|-----0---------------0--------|-----0---------------0--------|
B|---------6---------------6----|---------6---------------6----|---------6---------------6----|
G|-------------0---0------------|-------------7---7------------|-------------7---7------------|
D|------------------------------|------------------------------|------------------------------|
A|------------------------------|------------------------------|------------------------------|
E|------------------------------|------------------------------|------------------------------|


E|-----0---------------0--------|-----0---------------0--------|------------------------------|
B|---------6---------------6----|---------6---------------6----|---------6---------------6----|
G|-------------0---0------------|-------------7---7------------|-----5-------5---5---5--------|
D|------------------------------|------------------------------|------------------------------|
A|------------------------------|------------------------------|------------------------------|
E|------------------------------|------------------------------|------------------------------|


E|-------------------------0----|--------|--------|--------|--------|--------|--------|
B|---------6--------------------|--------|--------|--------|--------|--------|--------|
G|-----5-------5---5---5--------|--------|--------|--------|--------|--------|--------|
D|------------------------------|--------|--------|--------|--------|--------|--------|
A|------------------------------|--------|--------|--------|--------|--------|--------|
E|------------------------------|--------|--------|--------|--------|--------|--------|


E|--------|--------|--------|--------|--------|--------|--------|--------|--------|
B|--------|--------|--------|--------|--------|--------|--------|--------|--------|
G|--------|--------|--------|--------|--------|--------|--------|--------|--------|
D|--------|--------|--------|--------|--------|--------|--------|--------|--------|
A|--------|--------|--------|--------|--------|--------|--------|--------|--------|
E|--------|--------|--------|--------|--------|--------|--------|--------|--------|


E|--------|--------|--------|--------|--------|--------|-----0---------------0--------|
B|--------|--------|--------|--------|--------|--------|---------6---------------6----|
G|--------|--------|--------|--------|--------|--------|-------------7---7------------|
D|--------|--------|--------|--------|--------|--------|------------------------------|
A|--------|--------|--------|--------|--------|--------|------------------------------|
E|--------|--------|--------|--------|--------|--------|------------------------------|


E|-----0---------------0--------|-----0---------------0--------|-----0---------------0--------|
B|---------6---------------6----|---------6---------------6----|---------6---------------6----|
G|-------------0---0------------|-------------7---7------------|-------------7---7------------|
D|------------------------------|------------------------------|------------------------------|
A|------------------------------|------------------------------|------------------------------|
E|------------------------------|------------------------------|------------------------------|


E|-----0---------------0--------|-----0---------------0--------|------------------------------|
B|---------6---------------6----|---------6---------------6----|---------6---------------6----|
G|-------------0---0------------|-------------7---7------------|-----5-------5---5---5--------|
D|------------------------------|------------------------------|------------------------------|
A|------------------------------|------------------------------|------------------------------|
E|------------------------------|------------------------------|------------------------------|


E|-------------------------0----|--------|--------|--------|--------|--------|--------|
B|---------6--------------------|--------|--------|--------|--------|--------|--------|
G|-----5-------5---5---5--------|--------|--------|--------|--------|--------|--------|
D|------------------------------|--------|--------|--------|--------|--------|--------|
A|------------------------------|--------|--------|--------|--------|--------|--------|
E|------------------------------|--------|--------|--------|--------|--------|--------|


E|--------|--------|--------|--------|--------|--------|--------|--------|--------|
B|--------|--------|--------|--------|--------|--------|--------|--------|--------|
G|--------|--------|--------|--------|--------|--------|--------|--------|--------|
D|--------|--------|--------|--------|--------|--------|--------|--------|--------|
A|--------|--------|--------|--------|--------|--------|--------|--------|--------|
E|--------|--------|--------|--------|--------|--------|--------|--------|--------|


E|--------|--------|--------|--------|--------|--------|-----0---------------0--------|
B|--------|--------|--------|--------|--------|--------|---------6---------------6----|
G|--------|--------|--------|--------|--------|--------|-------------7---7------------|
D|--------|--------|--------|--------|--------|--------|------------------------------|
A|--------|--------|--------|--------|--------|--------|------------------------------|
E|--------|--------|--------|--------|--------|--------|------------------------------|


E|-----0---------------0--------|-----0---------------0--------|-----0---------------0--------|
B|---------6---------------6----|---------6---------------6----|---------6---------------6----|
G|-------------0---0------------|-------------7---7------------|-------------7---7------------|
D|------------------------------|------------------------------|------------------------------|
A|------------------------------|------------------------------|------------------------------|
E|------------------------------|------------------------------|------------------------------|


E|-----0---------------0--------|-----0---------------0--------|------------------------------|
B|---------6---------------6----|---------6---------------6----|---------6---------------6----|
G|-------------0---0------------|-------------7---7------------|-----5-------5---5---5--------|
D|------------------------------|------------------------------|------------------------------|
A|------------------------------|------------------------------|------------------------------|
E|------------------------------|------------------------------|------------------------------|


E|---------------------------------|------------------------------|---------------------------------|
B|---------6---------------6-------|---------8---------------8----|---------8---------------8-------|
G|-----5-------5---5---5-------5---|-----5-------5---5---5--------|-----7-------7-------7-------7---|
D|---------------------------------|------------------------------|-9---------------10--------------|
A|---------------------------------|------------------------------|---------------------------------|
E|---------------------------------|------------------------------|---------------------------------|


E|---------------------------------|---------------------------------|---------------------------------|
B|---------8---------------7---8---|---------8---------------8-------|---------8---------------7---8---|
G|-----7-------7-------7-----------|-----7-------7-------7-------7---|-----7-------7-------7-----------|
D|-7---------------7---------------|-9---------------10--------------|-7---------------7---------------|
A|---------------------------------|---------------------------------|---------------------------------|
E|---------------------------------|---------------------------------|---------------------------------|


E|---------------------------------|---------------------------------|---------3---------------3-------|
B|---------8---------------8-------|---------8-------7-------7-------|-----5-------5-------3-------3---|
G|-----7-------7-------7-------7---|-----7-------7-------8-------8---|-0---------------4---------------|
D|-9---------------10--------------|-7-------------------------------|---------------------------------|
A|---------------------------------|---------------------------------|---------------------------------|
E|---------------------------------|---------------------------------|---------------------------------|


E|---------5---------------5-------|---------3---------------3-------|-7---7--7--7---7--7--7--7--7--7--7---7--7--|
B|-----5-------5-------5-------5---|-----3-------3-------3-------3---|-8---8--8--8---8--8--8--8--8--8--8---8--8--|
G|-6---------------7---------------|-0---------------0---------------|-7---7--7--7---7--7--9--9--9--9--9---9--9--|
D|---------------------------------|---------------------------------|-------------------------------------------|
A|---------------------------------|---------------------------------|-------------------------------------------|
E|---------------------------------|---------------------------------|-------------------------------------------|


E|-7---7--7--7---7--7------------------------|-7---7--7--7---7--7--7--7--7--7--7---7--7--|
B|-8---8--8--8---8--8--8--8--8--8--8---8--8--|-8---8--8--8---8--8--8--8--8--8--8---8--8--|
G|-5---5--5--5---5--5--7--7--7--7--7---7--7--|-7---7--7--7---7--7--9--9--9--9--9---9--9--|
D|---------------------7--7--7--7--7---7--7--|-------------------------------------------|
A|-------------------------------------------|-------------------------------------------|
E|-------------------------------------------|-------------------------------------------|


E|-7---7--7--7---7--7------------------------|-7---7--7--7---7--7--7--7--7--7--7---7--7--|
B|-8---8--8--8---8--8--8--8--8--8--8---8--8--|-8---8--8--8---8--8--8--8--8--8--8---8--8--|
G|-5---5--5--5---5--5--7--7--7--7--7---7--7--|-7---7--7--7---7--7--9--9--9--9--9---9--9--|
D|---------------------7--7--7--7--7---7--7--|-------------------------------------------|
A|-------------------------------------------|-------------------------------------------|
E|-------------------------------------------|-------------------------------------------|


E|-7---7--7--7---7--7------------------------|-7---7--7--7---7--7--7--7--7--7--7---7--7--|
B|-8---8--8--8---8--8--8--8--8--8--8---8--8--|-8---8--8--8---8--8--8--8--8--8--8---8--8--|
G|-5---5--5--5---5--5--7--7--7--7--7---7--7--|-7---7--7--7---7--7--9--9--9--9--9---9--9--|
D|---------------------7--7--7--7--7---7--7--|-------------------------------------------|
A|-------------------------------------------|-------------------------------------------|
E|-------------------------------------------|-------------------------------------------|


E|-7---7--7--7---7--7------------------------|-7---7--7--7---7--7--7--7--7--7--7---7--7--|
B|-8---8--8--8---8--8--8--8--8--8--8---8--8--|-8---8--8--8---8--8--8--8--8--8--8---8--8--|
G|-5---5--5--5---5--5--7--7--7--7--7---7--7--|-7---7--7--7---7--7--9--9--9--9--9---9--9--|
D|---------------------7--7--7--7--7---7--7--|-------------------------------------------|
A|-------------------------------------------|-------------------------------------------|
E|-------------------------------------------|-------------------------------------------|


E|-7---7--7--7---7--7------------------------|-7---7--7--7---7--7--7--7--7--7--7---7--7--|
B|-8---8--8--8---8--8--8--8--8--8--8---8--8--|-8---8--8--8---8--8--8--8--8--8--8---8--8--|
G|-5---5--5--5---5--5--7--7--7--7--7---7--7--|-7---7--7--7---7--7--9--9--9--9--9---9--9--|
D|---------------------7--7--7--7--7---7--7--|-------------------------------------------|
A|-------------------------------------------|-------------------------------------------|
E|-------------------------------------------|-------------------------------------------|


E|-7---7--7--7---7--7------------------------|-7---7--7--7---7--7--7--7--7--7--7---7--7--|
B|-8---8--8--8---8--8--8--8--8--8--8---8--8--|-8---8--8--8---8--8--8--8--8--8--8---8--8--|
G|-5---5--5--5---5--5--7--7--7--7--7---7--7--|-7---7--7--7---7--7--9--9--9--9--9---9--9--|
D|---------------------7--7--7--7--7---7--7--|-------------------------------------------|
A|-------------------------------------------|-------------------------------------------|
E|-------------------------------------------|-------------------------------------------|


E|-7---7--7--7---7--7------------------------|-7---7--7--7---7--7--7--7--7--7--7---7--7--|
B|-8---8--8--8---8--8--8--8--8--8--8---8--8--|-8---8--8--8---8--8--8--8--8--8--8---8--8--|
G|-5---5--5--5---5--5--7--7--7--7--7---7--7--|-7---7--7--7---7--7--9--9--9--9--9---9--9--|
D|---------------------7--7--7--7--7---7--7--|-------------------------------------------|
A|-------------------------------------------|-------------------------------------------|
E|-------------------------------------------|-------------------------------------------|


E|-7---7--7--7---7--7------------------------|--------|--------|--------|
B|-8---8--8--8---8--8--8--8--8--8--8---8--8--|--------|--------|--------|
G|-5---5--5--5---5--5--7--7--7--7--7---7--7--|--------|--------|--------|
D|---------------------7--7--7--7--7---7--7--|--------|--------|--------|
A|-------------------------------------------|--------|--------|--------|
E|-------------------------------------------|--------|--------|--------|





Track 4: Elec. w/dist

E|--------|--------|--------|--------|--------|--------|--------|--------|--------|
B|--------|--------|--------|--------|--------|--------|--------|--------|--------|
G|--------|--------|--------|--------|--------|--------|--------|--------|--------|
D|--------|--------|--------|--------|--------|--------|--------|--------|--------|
A|--------|--------|--------|--------|--------|--------|--------|--------|--------|
E|--------|--------|--------|--------|--------|--------|--------|--------|--------|


E|--------|--------|--------|--------|--------|--------|--------|--------|--------|
B|--------|--------|--------|--------|--------|--------|--------|--------|--------|
G|--------|--------|--------|--------|--------|--------|--------|--------|--------|
D|--------|--------|--------|--------|--------|--------|--------|--------|--------|
A|--------|--------|--------|--------|--------|--------|--------|--------|--------|
E|--------|--------|--------|--------|--------|--------|--------|--------|--------|


E|--------|------------------------------|--------|--------|--------|--------|---------------------------|
B|--------|--------------6-------5-------|--------|--------|--------|--------|---------6------------6----|
G|--------|------------------------------|-7------|--------|--------|--------|-----5------------5--------|
D|--------|----------7-------7-------7---|--------|--------|--------|--------|---------------------------|
A|--------|------------------------------|--------|--------|--------|--------|---------------------------|
E|--------|------------------------------|--------|--------|--------|--------|---------------------------|


E|----------------------0-------|---------------------------|----------------------0-------|
B|---------6----------------6---|---------6------------6----|---------6----------------6---|
G|-----5------------5-----------|-----5------------5--------|-----5------------5-----------|
D|------------------------------|---------------------------|------------------------------|
A|------------------------------|---------------------------|------------------------------|
E|------------------------------|---------------------------|------------------------------|


E|---------------------------|------------------------------|-----0------------0--------|
B|---------6------------6----|---------6----5---------------|---------6------------6----|
G|-----5------------5--------|-----5------------6-----------|---------------------------|
D|---------------------------|----------------------7-------|-7------------7------------|
A|---------------------------|------------------------------|---------------------------|
E|---------------------------|------------------------------|---------------------------|


E|------------------------------|------------------------------|-------------|--------|
B|---------8---------------8----|---------6------------6-------|-6-----------|--------|
G|-----7-------7-------7--------|-----5------------5--------5--|-------------|--------|
D|-5---------------5------------|-8------------5---------------|-------------|--------|
A|------------------------------|------------------------------|-------------|--------|
E|------------------------------|------------------------------|-------------|--------|


E|--------|--------|--------|--------|--------|--------|--------|--------|--------|
B|--------|--------|--------|--------|--------|--------|--------|--------|--------|
G|--------|--------|--------|--------|--------|--------|--------|--------|--------|
D|--------|--------|--------|--------|--------|--------|--------|--------|--------|
A|--------|--------|--------|--------|--------|--------|--------|--------|--------|
E|--------|--------|--------|--------|--------|--------|--------|--------|--------|


E|--------|--------|--------|--------|------------------------------|--------|--------|
B|--------|--------|--------|--------|--------------6-------5-------|--------|--------|
G|--------|--------|--------|--------|------------------------------|-7------|--------|
D|--------|--------|--------|--------|----------7-------7-------7---|--------|--------|
A|--------|--------|--------|--------|------------------------------|--------|--------|
E|--------|--------|--------|--------|------------------------------|--------|--------|


E|--------|--------|---------------------------|----------------------0-------|---------------------------|
B|--------|--------|---------6------------6----|---------6----------------6---|---------6------------6----|
G|--------|--------|-----5------------5--------|-----5------------5-----------|-----5------------5--------|
D|--------|--------|---------------------------|------------------------------|---------------------------|
A|--------|--------|---------------------------|------------------------------|---------------------------|
E|--------|--------|---------------------------|------------------------------|---------------------------|


E|----------------------0-------|---------------------------|------------------------------|
B|---------6----------------6---|---------6------------6----|---------6----5---------------|
G|-----5------------5-----------|-----5------------5--------|-----5------------6-----------|
D|------------------------------|---------------------------|----------------------7-------|
A|------------------------------|---------------------------|------------------------------|
E|------------------------------|---------------------------|------------------------------|


E|-----0------------0--------|------------------------------|------------------------------|
B|---------6------------6----|---------8---------------8----|---------6------------6-------|
G|---------------------------|-----7-------7-------7--------|-----5------------5--------5--|
D|-7------------7------------|-5---------------5------------|-8------------5---------------|
A|---------------------------|------------------------------|------------------------------|
E|---------------------------|------------------------------|------------------------------|


E|-------------|--------|--------|--------|--------|--------|--------|--------|--------|
B|-6-----------|--------|--------|--------|--------|--------|--------|--------|--------|
G|-------------|--------|--------|--------|--------|--------|--------|--------|--------|
D|-------------|--------|--------|--------|--------|--------|--------|--------|--------|
A|-------------|--------|--------|--------|--------|--------|--------|--------|--------|
E|-------------|--------|--------|--------|--------|--------|--------|--------|--------|


E|--------|--------|--------|--------|--------|--------|------------------------------|
B|--------|--------|--------|--------|--------|--------|--------------6-------5-------|
G|--------|--------|--------|--------|--------|--------|------------------------------|
D|--------|--------|--------|--------|--------|--------|----------7-------7-------7---|
A|--------|--------|--------|--------|--------|--------|------------------------------|
E|--------|--------|--------|--------|--------|--------|------------------------------|


E|--------|--------|---------------------------------|---------------------------------|
B|--------|--------|---------6---------------6-------|---------6---------------6-------|
G|-7------|--------|-----5-------5-------5-------5---|-----5-------5-------5-------5---|
D|--------|--------|-8---------------8---------------|-5---------------5---------------|
A|--------|--------|---------------------------------|---------------------------------|
E|--------|--------|---------------------------------|---------------------------------|


E|---------------------------------|---------------------------|------------------------------|
B|---------5---------------5-------|---------8------------8----|---------8------------7---8---|
G|-----5-------5-------5-------5---|-----7------------7--------|-----7------------7-----------|
D|-5---------------5---------------|---------------------------|------------------------------|
A|---------------------------------|---------------------------|------------------------------|
E|---------------------------------|---------------------------|------------------------------|


E|---------------------------|------------------------------|---------------------------|
B|---------8------------8----|---------8------------7---8---|---------8------------8----|
G|-----7------------7--------|-----7------------7-----------|-----7------------7--------|
D|---------------------------|------------------------------|---------------------------|
A|---------------------------|------------------------------|---------------------------|
E|---------------------------|------------------------------|---------------------------|


E|------------------------------|------------------------------|------------------------------|
B|---------8----7---------------|---------8------------8-------|---------10--------------10---|
G|-----7------------8-------8---|---------9--------7-------7---|-----9-------9-------9--------|
D|----------------------9-------|-----9--------7---------------|-7---------------7------------|
A|------------------------------|-7----------------------------|------------------------------|
E|------------------------------|------------------------------|------------------------------|


E|---------------------------|------------------------------|------------------------------|
B|---------8------------8----|---------8------------8-------|---------8------------8-------|
G|-----7------------7--------|-----7---7--------7---7---7---|-----7---7--------7---7---7---|
D|-10-----------7------------|-5------------5---------------|-5------------5---------------|
A|---------------------------|------------------------------|------------------------------|
E|---------------------------|------------------------------|------------------------------|


E|------------------------------|------------------------------|------------------------------|
B|---------8------------8-------|---------8------------8-------|---------8------------8-------|
G|-----7---7--------7---7---7---|-----7---7--------7---7---7---|-----7---7--------7---7---7---|
D|-5------------5---------------|-5------------5---------------|-5------------5---------------|
A|------------------------------|------------------------------|------------------------------|
E|------------------------------|------------------------------|------------------------------|


E|------------------------------|------------------------------|------------------------------|
B|---------8------------8-------|---------8------------8-------|---------8------------8-------|
G|-----7---7--------7---7---7---|-----7---7--------7---7---7---|-----7---7--------7---7---7---|
D|-5------------5---------------|-5------------5---------------|-5------------5---------------|
A|------------------------------|------------------------------|------------------------------|
E|------------------------------|------------------------------|------------------------------|


E|------------------------------|------------------------------|------------------------------|
B|---------8------------8-------|---------8------------8-------|---------8------------8-------|
G|-----7---7--------7---7---7---|-----7---7--------7---7---7---|-----7---7--------7---7---7---|
D|-5------------5---------------|-5------------5---------------|-5------------5---------------|
A|------------------------------|------------------------------|------------------------------|
E|------------------------------|------------------------------|------------------------------|


E|------------------------------|------------------------------|------------------------------|
B|---------8------------8-------|---------8------------8-------|---------8------------8-------|
G|-----7---7--------7---7---7---|-----7---7--------7---7---7---|-----7---7--------7---7---7---|
D|-5------------5---------------|-5------------5---------------|-5------------5---------------|
A|------------------------------|------------------------------|------------------------------|
E|------------------------------|------------------------------|------------------------------|


E|------------------------------|------------------------------|------------------------------|
B|---------8------------8-------|---------8------------8-------|-8----8---------------8-------|
G|-----7---7--------7---7---7---|-----7---7--------7---7---7---|-7--------7-------7-------7---|
D|-5------------5---------------|-5------------5---------------|-5------------5---------------|
A|------------------------------|------------------------------|------------------------------|
E|------------------------------|------------------------------|------------------------------|


E|---------------------------------|--------|
B|---------8---------------7---8---|-8------|
G|-----7-------7-------7---7---7---|-7------|
D|-5---------------5-------7---9---|-9------|
A|---------------------------------|--------|
E|---------------------------------|--------|





Track 5: 12 String Guitar

E|--------|--------|--------|--------|--------|--------|--------|--------|--------|
B|--------|--------|--------|--------|--------|--------|--------|--------|--------|
G|--------|--------|--------|--------|--------|--------|--------|--------|--------|
D|--------|--------|--------|--------|--------|--------|--------|--------|--------|
A|--------|--------|--------|--------|--------|--------|--------|--------|--------|
E|--------|--------|--------|--------|--------|--------|--------|--------|--------|


E|--------|--------|--------|--------|--------|--------|--------|--------|--------|
B|--------|--------|--------|--------|--------|--------|--------|--------|--------|
G|--------|--------|--------|--------|--------|--------|--------|--------|--------|
D|--------|--------|--------|--------|--------|--------|--------|--------|--------|
A|--------|--------|--------|--------|--------|--------|--------|--------|--------|
E|--------|--------|--------|--------|--------|--------|--------|--------|--------|


E|--------|--------|--------|--------|---------------------------------|---------------------------------|
B|--------|--------|--------|--------|---------5---------------5-------|---------6---------------5-------|
G|--------|--------|--------|--------|-----5-------5-------5-------5---|-----5-------5-------5-------5---|
D|--------|--------|--------|--------|-8---------------8---------------|-5---------------5---------------|
A|--------|--------|--------|--------|---------------------------------|---------------------------------|
E|--------|--------|--------|--------|---------------------------------|---------------------------------|


E|---------------------------------|-------------------------0-------|---------------------------------|
B|---------6---------------6-------|---------6-------------------6---|---------6---------------6-------|
G|-----5-------5-------5-------5---|-----5-------5-------5-----------|-----5-------5-------5-------5---|
D|-7---------------8---------------|-5---------------5---------------|-7---------------8---------------|
A|---------------------------------|---------------------------------|---------------------------------|
E|---------------------------------|---------------------------------|---------------------------------|


E|-------------------------0-------|---------------------------------|---------------------------------|
B|---------6-------------------6---|---------6---------------6-------|---------6-------5-----------5---|
G|-----5-------5-------5-----------|-----5-------5-------5-------5---|-----5-------5-------6-----------|
D|-5---------------5---------------|-7---------------8---------------|-5-----------------------7-------|
A|---------------------------------|---------------------------------|---------------------------------|
E|---------------------------------|---------------------------------|---------------------------------|


E|-----0---------------0--------|---------3---------------3-------|---------------------------------|
B|---------6---------------6----|-----3-------3-------3-------3---|---------6---------------6-------|
G|-7-----------7---5------------|-----------------0---------------|-----5-------5-------5-------5---|
D|------------------------------|---------------------------------|-8---------------5---------------|
A|------------------------------|---------------------------------|---------------------------------|
E|------------------------------|---------------------------------|---------------------------------|


E|-5---5--5--5---5--5--5--5--5--5--5---5--5--|-5---5--5--5---5--5------------------------|
B|-6---6--6--6---6--6--6--6--6--6--6---6--6--|-6---6--6--6---6--6--6--6--6--6--6---6--6--|
G|-5---5--5--5---5--5--5--7--7--7--7---7--7--|-3---3--3--3---3--3--5--5--5--5--5---5--5--|
D|-------------------------------------------|---------------------5--5--5--5--5---5--5--|
A|-------------------------------------------|-------------------------------------------|
E|-------------------------------------------|-------------------------------------------|


E|-5---5--5--5---5--5--5--5--5--5--5---5--5--|-5---5--5--5---5--5------------------------|
B|-6---6--6--6---6--6--6--6--6--6--6---6--6--|-6---6--6--6---6--6--6--6--6--6--6---6--6--|
G|-5---5--5--5---5--5--5--7--7--7--7---7--7--|-3---3--3--3---3--3--5--5--5--5--5---5--5--|
D|-------------------------------------------|---------------------5--5--5--5--5---5--5--|
A|-------------------------------------------|-------------------------------------------|
E|-------------------------------------------|-------------------------------------------|


E|--------|--------|--------|--------|--------|--------|--------|--------|--------|
B|--------|--------|--------|--------|--------|--------|--------|--------|--------|
G|--------|--------|--------|--------|--------|--------|--------|--------|--------|
D|--------|--------|--------|--------|--------|--------|--------|--------|--------|
A|--------|--------|--------|--------|--------|--------|--------|--------|--------|
E|--------|--------|--------|--------|--------|--------|--------|--------|--------|


E|--------|--------|--------|--------|--------|---------------------------------|---------------------------------|
B|--------|--------|--------|--------|--------|---------5---------------5-------|---------6---------------5-------|
G|--------|--------|--------|--------|--------|-----5-------5-------5-------5---|-----5-------5-------5-------5---|
D|--------|--------|--------|--------|--------|-8---------------8---------------|-5---------------5---------------|
A|--------|--------|--------|--------|--------|---------------------------------|---------------------------------|
E|--------|--------|--------|--------|--------|---------------------------------|---------------------------------|


E|---------------------------------|-------------------------0-------|---------------------------------|
B|---------6---------------6-------|---------6-------------------6---|---------6---------------6-------|
G|-----5-------5-------5-------5---|-----5-------5-------5-----------|-----5-------5-------5-------5---|
D|-7---------------8---------------|-5---------------5---------------|-7---------------8---------------|
A|---------------------------------|---------------------------------|---------------------------------|
E|---------------------------------|---------------------------------|---------------------------------|


E|-------------------------0-------|---------------------------------|---------------------------------|
B|---------6-------------------6---|---------6---------------6-------|---------6-------5-----------5---|
G|-----5-------5-------5-----------|-----5-------5-------5-------5---|-----5-------5-------6-----------|
D|-5---------------5---------------|-7---------------8---------------|-5-----------------------7-------|
A|---------------------------------|---------------------------------|---------------------------------|
E|---------------------------------|---------------------------------|---------------------------------|


E|-----0---------------0--------|---------3---------------3-------|---------------------------------|
B|---------6---------------6----|-----3-------3-------3-------3---|---------6---------------6-------|
G|-7-----------7---5------------|-----------------0---------------|-----5-------5-------5-------5---|
D|------------------------------|---------------------------------|-8---------------5---------------|
A|------------------------------|---------------------------------|---------------------------------|
E|------------------------------|---------------------------------|---------------------------------|


E|-5---5--5--5---5--5--5--5--5--5--5---5--5--|-5---5--5--5---5--5------------------------|
B|-6---6--6--6---6--6--6--6--6--6--6---6--6--|-6---6--6--6---6--6--6--6--6--6--6---6--6--|
G|-5---5--5--5---5--5--5--7--7--7--7---7--7--|-3---3--3--3---3--3--5--5--5--5--5---5--5--|
D|-------------------------------------------|---------------------5--5--5--5--5---5--5--|
A|-------------------------------------------|-------------------------------------------|
E|-------------------------------------------|-------------------------------------------|


E|-5---5--5--5---5--5--5--5--5--5--5---5--5--|-5---5--5--5---5--5------------------------|
B|-6---6--6--6---6--6--6--6--6--6--6---6--6--|-6---6--6--6---6--6--6--6--6--6--6---6--6--|
G|-5---5--5--5---5--5--5--7--7--7--7---7--7--|-3---3--3--3---3--3--5--5--5--5--5---5--5--|
D|-------------------------------------------|---------------------5--5--5--5--5---5--5--|
A|-------------------------------------------|-------------------------------------------|
E|-------------------------------------------|-------------------------------------------|


E|--------|--------|--------|--------|--------|--------|--------|--------|--------|
B|--------|--------|--------|--------|--------|--------|--------|--------|--------|
G|--------|--------|--------|--------|--------|--------|--------|--------|--------|
D|--------|--------|--------|--------|--------|--------|--------|--------|--------|
A|--------|--------|--------|--------|--------|--------|--------|--------|--------|
E|--------|--------|--------|--------|--------|--------|--------|--------|--------|


E|--------|--------|--------|--------|--------|--------|--------|--------|--------|
B|--------|--------|--------|--------|--------|--------|--------|--------|--------|
G|--------|--------|--------|--------|--------|--------|--------|--------|--------|
D|--------|--------|--------|--------|--------|--------|--------|--------|--------|
A|--------|--------|--------|--------|--------|--------|--------|--------|--------|
E|--------|--------|--------|--------|--------|--------|--------|--------|--------|


E|--------|--------|--------|--------|--------|--------|--------|--------|--------|
B|--------|--------|--------|--------|--------|--------|--------|--------|--------|
G|--------|--------|--------|--------|--------|--------|--------|--------|--------|
D|--------|--------|--------|--------|--------|--------|--------|--------|--------|
A|--------|--------|--------|--------|--------|--------|--------|--------|--------|
E|--------|--------|--------|--------|--------|--------|--------|--------|--------|


E|--------|--------|--------|--------|--------|--------|--------|--------|--------|
B|--------|--------|--------|--------|--------|--------|--------|--------|--------|
G|--------|--------|--------|--------|--------|--------|--------|--------|--------|
D|--------|--------|--------|--------|--------|--------|--------|--------|--------|
A|--------|--------|--------|--------|--------|--------|--------|--------|--------|
E|--------|--------|--------|--------|--------|--------|--------|--------|--------|


E|--------|--------|--------|--------|--------|--------|-7------|-7------|--------|
B|--------|--------|--------|--------|--------|--------|-8------|-8------|--------|
G|--------|--------|--------|--------|--------|--------|-7------|-7------|--------|
D|--------|--------|--------|--------|--------|--------|--------|--------|--------|
A|--------|--------|--------|--------|--------|--------|--------|--------|--------|
E|--------|--------|--------|--------|--------|--------|--------|--------|--------|





Track 6: Elec. w/dist

E|--------|--------|--------|--------|--------|--------|--------|--------|--------|
B|--------|--------|--------|--------|--------|--------|--------|--------|--------|
G|--------|--------|--------|--------|--------|--------|--------|--------|--------|
D|--------|--------|--------|--------|--------|--------|--------|--------|--------|
A|--------|--------|--------|--------|--------|--------|--------|--------|--------|
E|--------|--------|--------|--------|--------|--------|--------|--------|--------|


E|--------|--------|--------|--------|--------|--------|--------|--------|--------|
B|--------|--------|--------|--------|--------|--------|--------|--------|--------|
G|--------|--------|--------|--------|--------|--------|--------|--------|--------|
D|--------|--------|--------|--------|--------|--------|--------|--------|--------|
A|--------|--------|--------|--------|--------|--------|--------|--------|--------|
E|--------|--------|--------|--------|--------|--------|--------|--------|--------|


E|--------|--------|--------|--------|--------|--------|--------|--------|--------|
B|--------|--------|--------|--------|--------|--------|--------|--------|--------|
G|--------|--------|--------|--------|--------|--------|--------|--------|--------|
D|--------|--------|--------|--------|--------|--------|--------|--------|--------|
A|--------|--------|--------|--------|--------|--------|--------|--------|--------|
E|--------|--------|--------|--------|--------|--------|--------|--------|--------|


E|--------|--------|--------|--------|--------|--------|--------|--------|--------|
B|--------|--------|--------|--------|--------|--------|--------|--------|--------|
G|--------|--------|--------|--------|--------|--------|--------|--------|--------|
D|--------|--------|--------|--------|--------|--------|--------|--------|--------|
A|--------|--------|--------|--------|--------|--------|--------|--------|--------|
E|--------|--------|--------|--------|--------|--------|--------|--------|--------|


E|--------|--------|--------|--------|--------|--------|--------|--------|--------|
B|--------|--------|--------|--------|--------|--------|--------|--------|--------|
G|--------|--------|--------|--------|--------|--------|--------|--------|--------|
D|--------|--------|--------|--------|--------|--------|--------|--------|--------|
A|--------|--------|--------|--------|--------|--------|--------|--------|--------|
E|--------|--------|--------|--------|--------|--------|--------|--------|--------|


E|--------|--------|--------|--------|--------|--------|--------|--------|--------|
B|--------|--------|--------|--------|--------|--------|--------|--------|--------|
G|--------|--------|--------|--------|--------|--------|--------|--------|--------|
D|--------|--------|--------|--------|--------|--------|--------|--------|--------|
A|--------|--------|--------|--------|--------|--------|--------|--------|--------|
E|--------|--------|--------|--------|--------|--------|--------|--------|--------|


E|--------|--------|--------|--------|--------|--------|--------|--------|--------|
B|--------|--------|--------|--------|--------|--------|--------|--------|--------|
G|--------|--------|--------|--------|--------|--------|--------|--------|--------|
D|--------|--------|--------|--------|--------|--------|--------|--------|--------|
A|--------|--------|--------|--------|--------|--------|--------|--------|--------|
E|--------|--------|--------|--------|--------|--------|--------|--------|--------|


E|--------|--------|--------|--------|--------|--------|--------|--------|--------|
B|--------|--------|--------|--------|--------|--------|--------|--------|--------|
G|--------|--------|--------|--------|--------|--------|--------|--------|--------|
D|--------|--------|--------|--------|--------|--------|--------|--------|--------|
A|--------|--------|--------|--------|--------|--------|--------|--------|--------|
E|--------|--------|--------|--------|--------|--------|--------|--------|--------|


E|--------|--------|--------|--------|--------|--------|--------|--------|--------|
B|--------|--------|--------|--------|--------|--------|--------|--------|--------|
G|--------|--------|--------|--------|--------|--------|--------|--------|--------|
D|--------|--------|--------|--------|--------|--------|--------|--------|--------|
A|--------|--------|--------|--------|--------|--------|--------|--------|--------|
E|--------|--------|--------|--------|--------|--------|--------|--------|--------|


E|--------|--------|--------|--------|--------|--------|--------|--------|-------------|
B|--------|--------|--------|--------|--------|--------|--------|--------|-------------|
G|--------|--------|--------|--------|--------|--------|--------|--------|-------------|
D|--------|--------|--------|--------|--------|--------|--------|--------|-5-----9-----|
A|--------|--------|--------|--------|--------|--------|--------|--------|-7-----5-----|
E|--------|--------|--------|--------|--------|--------|--------|--------|-------------|


E|----------------|--------|--------|--------|--------|--------|--------|--------|
B|----------------|--------|--------|--------|--------|--------|--------|--------|
G|----------------|--------|--------|--------|--------|--------|--------|--------|
D|-7------7---7---|--------|--------|--------|--------|--------|--------|--------|
A|-4------4---4---|--------|--------|--------|--------|--------|--------|--------|
E|----------------|--------|--------|--------|--------|--------|--------|--------|


E|--------|--------|--------|--------|--------|--------|--------|--------|--------|
B|--------|--------|--------|--------|--------|--------|--------|--------|--------|
G|--------|--------|--------|--------|--------|--------|--------|--------|--------|
D|--------|--------|--------|--------|--------|--------|--------|--------|--------|
A|--------|--------|--------|--------|--------|--------|--------|--------|--------|
E|--------|--------|--------|--------|--------|--------|--------|--------|--------|


E|--------|--------|--------|--------|
B|--------|--------|--------|--------|
G|--------|--------|--------|--------|
D|--------|--------|--------|--------|
A|--------|--------|--------|--------|
E|--------|--------|--------|--------|





Track 7: Untitled

G|--------|--------|--------|--------|--------|--------|--------|--------|--------|
D|--------|--------|--------|--------|--------|--------|--------|--------|--------|
A|--------|--------|--------|--------|--------|--------|--------|--------|--------|
E|--------|--------|--------|--------|--------|--------|--------|--------|--------|


G|--------|--------|--------|--------|--------|--------|--------|--------|--------|
D|--------|--------|--------|--------|--------|--------|--------|--------|--------|
A|--------|--------|--------|--------|--------|--------|--------|--------|--------|
E|--------|--------|--------|--------|--------|--------|--------|--------|--------|


G|--------|--------|--------|--------|--------|--------|--------|--------|--------|
D|--------|--------|--------|--------|--------|--------|--------|--------|--------|
A|--------|--------|--------|--------|--------|--------|--------|--------|--------|
E|--------|--------|--------|--------|--------|--------|--------|--------|--------|


G|--------|--------|--------|--------|--------|--------|--------|--------|--------|
D|--------|--------|--------|--------|--------|--------|--------|--------|--------|
A|--------|--------|--------|--------|--------|--------|--------|--------|--------|
E|--------|--------|--------|--------|--------|--------|--------|--------|--------|


G|--------|--------|--------|--------|--------|--------|--------|--------|--------|
D|--------|--------|--------|--------|--------|--------|--------|--------|--------|
A|--------|--------|--------|--------|--------|--------|--------|--------|--------|
E|--------|--------|--------|--------|--------|--------|--------|--------|--------|


G|--------|--------|--------|--------|--------|--------|--------|--------|--------|
D|--------|--------|--------|--------|--------|--------|--------|--------|--------|
A|--------|--------|--------|--------|--------|--------|--------|--------|--------|
E|--------|--------|--------|--------|--------|--------|--------|--------|--------|


G|--------|--------|--------|--------|--------|--------|--------|--------|--------|
D|--------|--------|--------|--------|--------|--------|--------|--------|--------|
A|--------|--------|--------|--------|--------|--------|--------|--------|--------|
E|--------|--------|--------|--------|--------|--------|--------|--------|--------|


G|--------|--------|--------|--------|--------|--------|--------|--------|--------|
D|--------|--------|--------|--------|--------|--------|--------|--------|--------|
A|--------|--------|--------|--------|--------|--------|--------|--------|--------|
E|--------|--------|--------|--------|--------|--------|--------|--------|--------|


G|--------|--------|--------|--------|--------|--------|--------|--------|--------|
D|--------|--------|--------|--------|--------|--------|--------|--------|--------|
A|--------|--------|--------|--------|--------|--------|--------|--------|--------|
E|--------|--------|--------|--------|--------|--------|--------|--------|--------|


G|--------|--------|--------|--------|--------|--------|--------|--------|--------|
D|--------|--------|--------|--------|--------|--------|--------|--------|--------|
A|--------|--------|--------|--------|--------|--------|--------|--------|--------|
E|--------|--------|--------|--------|--------|--------|--------|--------|--------|


G|--------|--------|--------|--------|--------|--------|--------|--------|--------|
D|--------|--------|--------|--------|--------|--------|--------|--------|--------|
A|--------|--------|--------|--------|--------|--------|--------|--------|--------|
E|--------|--------|--------|--------|--------|--------|--------|--------|--------|


G|--------|--------|--------|--------|--------|--------|--------|--------|--------|
D|--------|--------|--------|--------|--------|--------|--------|--------|--------|
A|--------|--------|--------|--------|--------|--------|--------|--------|--------|
E|--------|--------|--------|--------|--------|--------|--------|--------|--------|


G|--------|--------|--------|
D|--------|--------|--------|
A|--------|--------|--------|
E|--------|--------|--------|