Menu:

 

Search:

 

dream theater - hells kitchen:

 



Title: Hell's Kitchen
Artist: 
Album: Falling Into Infinity
Author: Mike Portnoy, John Myung, Derek Sherinian & John Petrucci


Track 1: Electric Piano

E|---------7---------------7-------|---------10--------------10------|---------9---------------9----|
B|-----0-------0-------0-------0---|-7---------------7---------------|------------------------------|
G|---------------------------------|-----7-------7-------7-------7---|-----6-------6-------6--------|
D|---------------------------------|---------------------------------|------------------------------|
A|-7---------------7---------------|---------------------------------|-7---------------7------------|
E|---------------------------------|---------------------------------|------------------------------|


E|-9-----------|---------7---------------7-------|---------10--------------10------|
B|-------------|-----0-------0-------0-------0---|-7---------------7---------------|
G|-------------|---------------------------------|-----7-------7-------7-------7---|
D|-------------|---------------------------------|---------------------------------|
A|-------------|-7---------------7---------------|---------------------------------|
E|-------------|---------------------------------|---------------------------------|


E|---------8---------------8-------|---------6--------------------|------------------|
B|---------------------------------|-------------------------7----|------------------|
G|-----5-------5-------5-------5---|---------------------6--------|-3-----------4----|
D|---------------------------------|-----8-------8----------------|-------6----------|
A|-7---------------7---------------|-7---------------7------------|------------------|
E|---------------------------------|------------------------------|------------------|


E|---------------------|------------------|------------------|-----4---------------------|
B|---------------------|------------------|------------------|-5-------5-----------------|
G|-----------3---------|------4-----------|-3-----------4----|-------------4---3---------|
D|-----6-----------6---|------------6-----|-------6----------|-----------------------6---|
A|---------------------|------------------|------------------|---------------------------|
E|---------------------|------------------|------------------|---------------------------|


E|---------------4-----------|--------|--------|--------|--------|--------|--------|
B|-----------5-------5-------|--------|--------|--------|--------|--------|--------|
G|------4----------------4---|--------|--------|--------|--------|--------|--------|
D|---------------------------|--------|--------|--------|--------|--------|--------|
A|---------------------------|--------|--------|--------|--------|--------|--------|
E|---------------------------|--------|--------|--------|--------|--------|--------|


E|--------|--------|--------|--------|--------|--------|--------|--------|--------|
B|--------|--------|--------|--------|--------|--------|--------|--------|--------|
G|--------|--------|--------|--------|--------|--------|--------|--------|--------|
D|--------|--------|--------|--------|--------|--------|--------|--------|--------|
A|--------|--------|--------|--------|--------|--------|--------|--------|--------|
E|--------|--------|--------|--------|--------|--------|--------|--------|--------|


E|--------|--------|--------|--------|--------|--------|--------|--------|--------|
B|--------|--------|--------|--------|--------|--------|--------|--------|--------|
G|--------|--------|--------|--------|--------|--------|--------|--------|--------|
D|--------|--------|--------|--------|--------|--------|--------|--------|--------|
A|--------|--------|--------|--------|--------|--------|--------|--------|--------|
E|--------|--------|--------|--------|--------|--------|--------|--------|--------|


E|--------|--------|--------|--------|--------|--------|--------|--------|--------|
B|--------|--------|--------|--------|--------|--------|--------|--------|--------|
G|--------|--------|--------|--------|--------|--------|--------|--------|--------|
D|--------|--------|--------|--------|--------|--------|--------|--------|--------|
A|--------|--------|--------|--------|--------|--------|--------|--------|--------|
E|--------|--------|--------|--------|--------|--------|--------|--------|--------|


E|--------|--------|--------|--------|--------|--------|--------|--------|--------|
B|--------|--------|--------|--------|--------|--------|--------|--------|--------|
G|--------|--------|--------|--------|--------|--------|--------|--------|--------|
D|--------|--------|--------|--------|--------|--------|--------|--------|--------|
A|--------|--------|--------|--------|--------|--------|--------|--------|--------|
E|--------|--------|--------|--------|--------|--------|--------|--------|--------|


E|--------|--------|--------|--------|--------|--------|--------|--------|--------|
B|--------|--------|--------|--------|--------|--------|--------|--------|--------|
G|--------|--------|--------|--------|--------|--------|--------|--------|--------|
D|--------|--------|--------|--------|--------|--------|--------|--------|--------|
A|--------|--------|--------|--------|--------|--------|--------|--------|--------|
E|--------|--------|--------|--------|--------|--------|--------|--------|--------|


E|--------|--------|--------|--------|--------|--------|--------|--------|--------|
B|--------|--------|--------|--------|--------|--------|--------|--------|--------|
G|--------|--------|--------|--------|--------|--------|--------|--------|--------|
D|--------|--------|--------|--------|--------|--------|--------|--------|--------|
A|--------|--------|--------|--------|--------|--------|--------|--------|--------|
E|--------|--------|--------|--------|--------|--------|--------|--------|--------|


E|--------|--------|--------|--------|--------|--------|--------|--------|--------|
B|--------|--------|--------|--------|--------|--------|--------|--------|--------|
G|--------|--------|--------|--------|--------|--------|--------|--------|--------|
D|--------|--------|--------|--------|--------|--------|--------|--------|--------|
A|--------|--------|--------|--------|--------|--------|--------|--------|--------|
E|--------|--------|--------|--------|--------|--------|--------|--------|--------|


E|--------|--------|--------|--------|--------|--------|--------|--------|--------|
B|--------|--------|--------|--------|--------|--------|--------|--------|--------|
G|--------|--------|--------|--------|--------|--------|--------|--------|--------|
D|--------|--------|--------|--------|--------|--------|--------|--------|--------|
A|--------|--------|--------|--------|--------|--------|--------|--------|--------|
E|--------|--------|--------|--------|--------|--------|--------|--------|--------|


E|--------|--------|--------|--------|--------|--------|--------|--------|--------|
B|--------|--------|--------|--------|--------|--------|--------|--------|--------|
G|--------|--------|--------|--------|--------|--------|--------|--------|--------|
D|--------|--------|--------|--------|--------|--------|--------|--------|--------|
A|--------|--------|--------|--------|--------|--------|--------|--------|--------|
E|--------|--------|--------|--------|--------|--------|--------|--------|--------|


E|--------|--------|--------|--------|--------|--------|--------|--------|--------|
B|--------|--------|--------|--------|--------|--------|--------|--------|--------|
G|--------|--------|--------|--------|--------|--------|--------|--------|--------|
D|--------|--------|--------|--------|--------|--------|--------|--------|--------|
A|--------|--------|--------|--------|--------|--------|--------|--------|--------|
E|--------|--------|--------|--------|--------|--------|--------|--------|--------|


E|--------|--------|--------|--------|--------|--------|--------|--------|--------|
B|--------|--------|--------|--------|--------|--------|--------|--------|--------|
G|--------|--------|--------|--------|--------|--------|--------|--------|--------|
D|--------|--------|--------|--------|--------|--------|--------|--------|--------|
A|--------|--------|--------|--------|--------|--------|--------|--------|--------|
E|--------|--------|--------|--------|--------|--------|--------|--------|--------|


E|--------|--------|--------|
B|--------|--------|--------|
G|--------|--------|--------|
D|--------|--------|--------|
A|--------|--------|--------|
E|--------|--------|--------|





Track 2: Dist

E|--------|--------|--------|---------------------|--------|--------|--------|-------------|
B|--------|--------|--------|---------------------|--------|--------|--------|-------------|
G|--------|--------|--------|---------------------|--------|--------|--------|-------------|
D|--------|--------|--------|-8-----6---6---------|--------|--------|--------|-8-----4-----|
A|--------|--------|--------|----------------5----|-7------|--------|--------|-------------|
E|--------|--------|--------|---------------------|--------|--------|--------|-------------|


E|-0------|-------0-----|--------|-0------0----|---------24---24-----------|----------------24--------|
B|-0------|-------0-----|--------|-0------0----|------------------24---24--|------24---24--------24---|
G|-3------|-------3-----|--------|-3------3----|---------------------------|--------------------------|
D|-2------|-------2-----|--------|-2------2----|---------------------------|--------------------------|
A|--------|-------------|--------|-------------|---------------------------|--------------------------|
E|--------|-------------|--------|-------------|---------------------------|--------------------------|


E|--------|--------|--------|--------|--------|--------|--------|-------------|--------|
B|--------|--------|--------|--------|--------|--------|--------|-------------|--------|
G|--------|--------|--------|--------|--------|--------|--------|-------------|--------|
D|--------|--------|--------|--------|--------|--------|--------|-------------|--------|
A|--------|--------|--------|--------|--------|--------|--------|-------------|--------|
E|--------|--------|--------|--------|--------|--------|--------|-------------|--------|


E|------------------|-----------------|-------------|-----------------|------------------------|
B|------------------|-----------------|-------------|-----------------|------------------------|
G|-------------9----|-----------------|------9------|-9---------------|------------------------|
D|-------7----------|-----9-----9-----|-------------|-----7----7------|-----9-----9---11---11--|
A|-7----------------|-----------------|-------------|-----------------|------------------------|
E|------------------|-----------------|-------------|-----------------|------------------------|


E|-----------------|---------------------|-----------------|------------------|-------------|
B|-----------------|---------------------|-------------7---|------9-----10----|-12-----10---|
G|-----------------|---------------------|-----------------|------------------|-------------|
D|-----------7-----|-7--------------9----|-------9---------|------------------|-------------|
A|-----------------|------9---9----------|-----------------|------------------|-------------|
E|-----------------|---------------------|-----------------|------------------|-------------|


E|-------------|------------------|------------------|---------------------|--------------------17------|
B|-------------|------10----12----|-14----12----14---|-14--12----17----17--|------17------17-19----21---|
G|-------7-----|------------------|------------------|---------------------|-----------19---------------|
D|-------------|------------------|------------------|---------------------|----------------------------|
A|-------------|------------------|------------------|---------------------|----------------------------|
E|-------------|------------------|------------------|---------------------|----------------------------|


E|-----------------|-----------------------------|--------------17------19---|-----17--------------|
B|-------21----21--|-----17--15----15---15-17-15-|-14---15--15------15-------|-----------17----17--|
G|-----------------|-----------------------------|---------------------------|---------------------|
D|-----------------|-----------------------------|---------------------------|---------------------|
A|-----------------|-----------------------------|---------------------------|---------------------|
E|-----------------|-----------------------------|---------------------------|---------------------|


E|---------19----17----|------19----------------|------------------------|------------------------|
B|-----17--------------|-17-------17--19----19--|-19----19--19--17--17---|-17---15--15--14---15---|
G|---------------------|------------------------|------------------------|------------------------|
D|---------------------|------------------------|------------------------|------------------------|
A|---------------------|------------------------|------------------------|------------------------|
E|---------------------|------------------------|------------------------|------------------------|


E|------------------------|-------------------------------|---------------------------------------------------|
B|-17------17---17--17----|-17--17---17--15-14-15-17-15---|-----15-14----14-----14-141214-15141214151412141512|
G|------------------------|-------------------------------|-----------16--------------------------------------|
D|------------------------|-------------------------------|---------------------------------------------------|
A|------------------------|-------------------------------|---------------------------------------------------|
E|------------------------|-------------------------------|---------------------------------------------------|


E|----------------------------------------|--------------------------|------------------------------17-19-19--19---|
B|-14-15-17---14-15-17---141514-15-17-----|-----17-------------------|---------------------------19----------------|
G|------------------------------------16--|-----------14-16-14---14--|-----14-----------16-18-19-------------------|
D|----------------------------------------|--------------------------|------------16-19----------------------------|
A|----------------------------------------|--------------------------|---------17----------------------------------|
E|----------------------------------------|--------------------------|---------------------------------------------|


E|-19-20-19---19-19-17-19--------|-------------------19-16---------------------------------------|
B|-------------------------------|----------17-------------17-------------------------------1617-|
G|-------------------------------|----16-------14-16----------16----------------1617--161718-----|
D|-------------------------------|-14----14--------------------------19-18-19-19----19-----------|
A|---------------------------14--|---------------------------------------------------------------|
E|-------------------------------|---------------------------------------------------------------|


E|--------------16-17-17-17--17---17-16-17--|-----16----16-17-16----------16-17-16----------16-17-16----|
B|-17-----17-19-----------------------------|--------19----------19-17-19----------19-17-19----------19-|
G|------------------------------------------|-----------------------------------------------------------|
D|------------------------------------------|-----------------------------------------------------------|
A|------------------------------------------|-----------------------------------------------------------|
E|------------------------------------------|-----------------------------------------------------------|


E|-16-1916----------1617-16----------16-19-1716-----------------|------------------------------------------|
B|--------19-17---19--------19-17-19-----------1917-------------|-----17----17-------------------16----16--|
G|----------------------------------------------------19-19-1816|-1819--1819---191819-18161816-------------|
D|--------------------------------------------------------------|-----------------------------19-----------|
A|--------------------------------------------------------------|------------------------------------------|
E|--------------------------------------------------------------|------------------------------------------|


E|----------------|---------------------|-----------------------------|----------------------------------------------------|
B|-----17--14-----|-16----16---19--17---|-----17---16--16---14--14--16|---14-12--10--12-10-8---7---8--7--5---3---5--3--2---|
G|----------------|---------------------|-----------------------------|----------------------------------------------------|
D|----------------|---------------------|-----------------------------|----------------------------------------------------|
A|----------------|---------------------|-----------------------------|----------------------------------------------------|
E|----------------|---------------------|-----------------------------|----------------------------------------------------|


E|--------4--2--0---|-4--2--0---2--4--4-------------|---------------------|---------------------|
B|-0----------------|-------------------------------|---------------------|---------------------|
G|------------------|---------------------0-----0---|-----0-----0---------|---------------------|
D|------------------|-------------------------------|----------------0----|-----0----0-----0----|
A|------------------|-------------------------------|---------------------|---------------------|
E|------------------|-------------------------------|---------------------|---------------------|


E|---------------------------------|---------------------------------|---------------------------------|
B|---------------------------------|---------------------------------|---------------------------------|
G|---------2---4---2-----------2---|-4---2-----------2---4---2-------|-----2---4---2-----------2---4---|
D|-----2-------------------2-------|-------------2-------------------|-2-------------------2-----------|
A|---------------------------------|---------------------------------|---------------------------------|
E|-0-------------------0-----------|---------0-------------------0---|-----------------2---------------|


E|---------------------------------|---------------------------------|---------------------------------|
B|---------------------------------|-----5-------------------5-------|---------------------------------|
G|-2-----------2---4---2-----------|-4-------4-----------4-------4---|---------2---4---2-----------2---|
D|---------2-------------------7---|-----------------7---------------|-----2-------------------2-------|
A|-------------------------5-------|-------------5-------------------|---------------------------------|
E|-----2---------------------------|---------------------------------|-0-------------------0-----------|


E|---------------------------------|---------------------------------|---------------------------------|
B|---------------------------------|---------------------------------|---------------------------------|
G|-4---2-----------2---4---2-------|-----2---4---2-----------2---4---|-2-----------2---4---2-----------|
D|-------------2-------------------|-2-------------------2-----------|---------2-------------------7---|
A|---------------------------------|---------------------------------|-------------------------5-------|
E|---------0-------------------0---|-----------------2---------------|-----2---------------------------|


E|---------------------------------|---------------------------------|---------------------------------|
B|-----5-------------------5-------|---------------------------------|---------------------------------|
G|-4-------4-----------4-------4---|---------2---4---2-----------2---|-4---2-----------2---4---2-------|
D|-----------------7---------------|-----2-------------------2-------|-------------2-------------------|
A|-------------5-------------------|---------------------------------|---------------------------------|
E|---------------------------------|-0-------------------0-----------|---------0-------------------0---|


E|---------------------------------|---------------------------------|-----------------------------------|
B|---------------------------------|---------------------------------|-----5-------------------5---------|
G|-----2---4---2-----------2---4---|-2-----------2---4---2-----------|-4-------4-----------4-------------|
D|-2-------------------2-----------|---------2-------------------7---|-----------------7-----------12-14-|
A|---------------------------------|-------------------------5-------|-------------5---------------------|
E|-----------------2---------------|-----2---------------------------|-----------------------------------|


E|-------------------------------------------------|-------------------------------------------------|
B|----------12-------15----------------------------|----12-------15-------------------------------12-|
G|-14----14----13-14----14-13-14-13----------14----|-14----13-14----14-13-14-13----------14----14----|
D|----14----------------------------14-12-14----14-|----------------------------14-12-14----14-------|
A|-------------------------------------------------|-------------------------------------------------|
E|-------------------------------------------------|-------------------------------------------------|


E|-------------------------------------------------|-------------------------------------------------|
B|-------15-------------------------------12-------|-15-------------------------------12-------15----|
G|-13-14----14-13-14-13----------14----14----13-14-|----14-13-14-13----------14----14----13-14----14-|
D|----------------------14-12-14----14-------------|----------------14-12-14----14-------------------|
A|-------------------------------------------------|-------------------------------------------------|
E|-------------------------------------------------|-------------------------------------------------|


E|-------------------------------------------------|-------------------------------------------------|
B|----------------------------12-------15----------|----------------------12-------15----------------|
G|-13-14-13----------14----14----13-14----14-13-14-|-13----------14----14----13-14----14-13-14-13----|
D|----------14-12-14----14-------------------------|----14-12-14----14----------------------------14-|
A|-------------------------------------------------|-------------------------------------------------|
E|-------------------------------------------------|-------------------------------------------------|


E|-------------------------------------------------|-------------------------------------------------|
B|----------------12-------15----------------------|----------12-------15----------------------------|
G|-------14----14----13-14----14-13-14-13----------|-14----14----13-14----14-13-14-13----------14----|
D|-12-14----14----------------------------14-12-14-|----14----------------------------14-12-14----14-|
A|-------------------------------------------------|-------------------------------------------------|
E|-------------------------------------------------|-------------------------------------------------|


E|-------------------------------------------------|-----------------------------------------------|
B|----12-------15-------------12----------------12-|-------15-------------------------------12-----|
G|-14----13-14-------14----14----------14----14----|-13-14----14-13-14-13----------14----14--------|
D|----------------14----14-------12-14----14-------|----------------------14-12-14----14-----------|
A|-------------------------------------------------|-----------------------------------------------|
E|-------------------------------------------------|-----------------------------------------------|


E|----------------------------------------|-------------------------------------------------|
B|-------------------------12-------15----|----------------------------12-------15----------|
G|----------------14----14----13-14----14-|-13-14-13----------14----14----13-14-------14----|
D|----------12-14----14-------------------|----------14-12-14----14----------------14----14-|
A|----------------------------------------|-------------------------------------------------|
E|----------------------------------------|-------------------------------------------------|


E|-------------------------------------------------|-12-------------------------------------------------|
B|----12----------------12-------15----------------|-------14-15-14-12----12----------------------------|
G|-14----------14----14----13-14----14-13-14-13----|----15-------------15----15-13-11-------------------|
D|-------12-14----14----------------------------14-|----------------------------------14-12-11----------|
A|-------------------------------------------------|-------------------------------------------14-13-11-|
E|-------------------------------------------------|----------------------------------------------------|


E|------------------------------------------|---------------------|------------------|
B|------------------------------------------|---------11----9-----|-12----9-----11---|
G|------------------------------------------|---------3-----1-----|-4-----1-----3----|
D|-14----11-1211------------12--11----------|---------------------|------------------|
A|----13--------14-13-11------------14--13--|-11------------------|------------------|
E|-----------------------14-----------------|-----14--------------|------------------|


E|---------------------|------------------|---------------------|---------------------|
B|-----9-----12---9----|-11----9-----12---|-----9-----11----9---|------12---9----11---|
G|-----1-----4----1----|-3-----1-----4----|-----1-----3-----1---|------4----1----3----|
D|---------------------|------------------|---------------------|---------------------|
A|---------------------|------------------|---------------------|---------------------|
E|---------------------|------------------|---------------------|---------------------|


E|---------------------|------------------------|-11---------------|-------11---------|
B|-----12----14----14--|-----14--11---12---14---|-4----11----12----|-14----4-----10---|
G|-----4-----6-----6---|-----6---3----4----6----|------3-----4-----|-6-----------6----|
D|---------------------|------------------------|------------------|------------------|
A|---------------------|------------------------|------------------|------------------|
E|---------------------|------------------------|------------------|------------------|


E|-----------------11--|------12----12----|-11---12-11-9-----8----|-----8------------------|
B|-----12----14----7---|------9-----9-----|-7----------5-----9----|-----9----9---9-----9---|
G|-----8-----9---------|------------------|-----------------------|----------8---8-----8---|
D|---------------------|------------------|-----------------------|------------------------|
A|---------------------|------------------|-----------------------|------------------------|
E|---------------------|------------------|-----------------------|------------------------|


E|-----8--9--11----9-----|-7----9--7--5-----7----|-----7-----5---------|------------------|
B|-----4--5--7-----5-----|-4----5--4--2-----4----|-----4-----2-----5---|------12----10----|
G|-----------------------|-----------------------|-----------------2---|------4-----2-----|
D|-----------------------|-----------------------|---------------------|------------------|
A|-----------------------|-----------------------|---------------------|------------------|
E|-----------------------|-----------------------|---------------------|------------------|


E|------------------|---------------------|-19----17----20---|-----17----19----17--|
B|-13----10----12---|-----10----13---10---|-12----10----13---|-----10----12----10--|
G|-5-----2-----4----|-----2-----5----2----|------------------|---------------------|
D|------------------|---------------------|------------------|---------------------|
A|------------------|---------------------|------------------|---------------------|
E|------------------|---------------------|------------------|---------------------|


E|------20---17---19---|-----20----22----22--|-----22--19----20----|-22----15---------|
B|------13---10---12---|-----13----15----15--|-----15--12----13----|-15----8----------|
G|---------------------|---------------------|---------------------|------------------|
D|---------------------|---------------------|---------------------|------------------|
A|---------------------|---------------------|---------------------|------------------|
E|---------------------|---------------------|---------------------|------------------|





Track 3: Clean Guitar

E|--------|--------|--------|--------|--------|--------|--------|--------|--------|
B|--------|--------|--------|--------|--------|--------|--------|--------|--------|
G|--------|--------|--------|--------|--------|--------|--------|--------|--------|
D|--------|--------|--------|--------|--------|--------|--------|--------|--------|
A|--------|--------|--------|--------|--------|--------|--------|--------|--------|
E|--------|--------|--------|--------|--------|--------|--------|--------|--------|


E|--------|--------|--------|--------|--------|---------------------------|---------------------------|
B|--------|--------|--------|--------|--------|-------------0-------------|-----0-----------------0---|
G|--------|--------|--------|--------|--------|---------2-----------------|-2-----------------2-------|
D|--------|--------|--------|--------|--------|-----2-----------------2---|---------------0-----------|
A|--------|--------|--------|--------|--------|---------------------------|---------------------------|
E|--------|--------|--------|--------|--------|---------------------------|---------------------------|


E|------------------------|---------------------------------|---------------------------------|
B|------------------0-----|-------------0-------------------|-----0-----------------------0---|
G|--------------2---------|---------2-------2---------------|-2-------2---------------2-------|
D|----------0-------------|-----2---------------2-------2---|-------------2-------2-----------|
A|------------------------|---------------------------------|---------------------------------|
E|------------------------|---------------------------------|---------------------------------|


E|---------------------------------|---------------------------|---------------------------|
B|---------------------0-----------|-------------0-------------|-----0-----------------0---|
G|-2---------------2-------2-------|---------2-----------------|-2-----------------2-------|
D|-----2-------2---------------2---|-----2-----------------2---|---------------0-----------|
A|---------------------------------|---------------------------|---------------------------|
E|---------------------------------|---------------------------|---------------------------|


E|------------------------|---------------------------------|---------------------------------|
B|------------------0-----|-------------0-------------------|-----0-----------------------0---|
G|--------------2---------|---------2-------2---------------|-2-------2---------------2-------|
D|----------0-------------|-----2---------------2-------2---|-------------2-------2-----------|
A|------------------------|---------------------------------|---------------------------------|
E|------------------------|---------------------------------|---------------------------------|


E|---------------------------------|---------------------------|---------------------------|
B|---------------------0-----------|-------------0-------------|-----0-----------------0---|
G|-2---------------2-------2-------|---------2-----------------|-2-----------------2-------|
D|-----2-------2---------------2---|-----2-----------------2---|---------------0-----------|
A|---------------------------------|---------------------------|---------------------------|
E|---------------------------------|---------------------------|---------------------------|


E|------------------------|---------------------------------|---------------------------------|
B|------------------0-----|-------------0-------------------|-----0-----------------------0---|
G|--------------2---------|---------2-------2---------------|-2-------2---------------2-------|
D|----------0-------------|-----2---------------2-------2---|-------------2-------2-----------|
A|------------------------|---------------------------------|---------------------------------|
E|------------------------|---------------------------------|---------------------------------|


E|---------------------------------|---------------------------|---------------------------|
B|---------------------0-----------|-------------0-------------|-----0-----------------0---|
G|-2---------------2-------2-------|---------2-----------------|-2-----------------2-------|
D|-----2-------2---------------2---|-----0-----------------0---|---------------0-----------|
A|---------------------------------|---------------------------|---------------------------|
E|---------------------------------|---------------------------|---------------------------|


E|------------------------|---------------------------------|---------------------------------|
B|------------------0-----|-------------0-------------------|-----0-----------------------0---|
G|--------------2---------|---------2-------2---------------|-2-------2---------------2-------|
D|----------0-------------|-----2---------------2-------2---|-------------2-------2-----------|
A|------------------------|---------------------------------|---------------------------------|
E|------------------------|---------------------------------|---------------------------------|


E|---------------------------------|---------------------------|------------------------|
B|---------------------------------|-----0-----------------0---|------------------0-----|
G|-2---------------2---------------|-2-----------------2-------|--------------2---------|
D|-----2-------2---------------0---|---------------0-----------|----------0-------------|
A|---------------------------------|---------------------------|------------------------|
E|---------------------------------|---------------------------|------------------------|


E|---------------------------|---------------------------------|---------------------------------|
B|-------------0-------------|-----0-----------------------0---|---------------------0-----------|
G|---------2-----------------|-2-------2---------------2-------|-2---------------2-------2-------|
D|-----0-----------------2---|-------------2-------2-----------|-----2-------2---------------2---|
A|---------------------------|---------------------------------|---------------------------------|
E|---------------------------|---------------------------------|---------------------------------|


E|---------------------------------|------------------------|------------------------------|
B|-----------------------------0---|------------------0-----|-------------0----------------|
G|---------2---------------2-------|--------------2---------|---------2----------------2---|
D|-----2---------------0-----------|----------0-------------|-----0----------------0-------|
A|---------------------------------|------------------------|------------------------------|
E|---------------------------------|------------------------|------------------------------|


E|------------------------------|---------------------------------|---------------------------------|
B|-0----------------0-----------|-------------0-------------------|-----0---------------------------|
G|--------------2-------2-------|---------2-------2---------------|-2-------2---------------2-------|
D|----------2---------------2---|-----2---------------2-------2---|-------------2-------2-----------|
A|------------------------------|---------------------------------|---------------------------------|
E|------------------------------|---------------------------------|---------------------------------|


E|---------------------------|---------------------------|------------------------------|
B|-------------0-------------|-----0-----------------0---|-----------------0------------|
G|---------2-----------------|-2-----------------2-------|-------------2----------------|
D|-----0-----------------0---|---------------0-----------|---------0----------------2---|
A|---------------------------|---------------------------|------------------------------|
E|---------------------------|---------------------------|------------------------------|


E|---------------------------------|---------------------------------|-----------------------|
B|-----0-----------------------0---|---------------------0-----------|-----------------------|
G|-2-------2---------------2-------|-2---------------2-------2-------|---------2-------------|
D|-------------2-------2-----------|-----2-------2---------------2---|-----2-----------------|
A|---------------------------------|---------------------------------|-----------------------|
E|---------------------------------|---------------------------------|-----------------------|


E|--------|--------|--------|--------|--------|--------|--------|--------|--------|
B|--------|--------|--------|--------|--------|--------|--------|--------|--------|
G|--------|--------|--------|--------|--------|--------|--------|--------|--------|
D|--------|--------|--------|--------|--------|--------|--------|--------|--------|
A|--------|--------|--------|--------|--------|--------|--------|--------|--------|
E|--------|--------|--------|--------|--------|--------|--------|--------|--------|


E|--------|--------|--------|--------|--------|--------|--------|--------|--------|
B|--------|--------|--------|--------|--------|--------|--------|--------|--------|
G|--------|--------|--------|--------|--------|--------|--------|--------|--------|
D|--------|--------|--------|--------|--------|--------|--------|--------|--------|
A|--------|--------|--------|--------|--------|--------|--------|--------|--------|
E|--------|--------|--------|--------|--------|--------|--------|--------|--------|


E|--------|--------|--------|--------|--------|--------|--------|--------|--------|
B|--------|--------|--------|--------|--------|--------|--------|--------|--------|
G|--------|--------|--------|--------|--------|--------|--------|--------|--------|
D|--------|--------|--------|--------|--------|--------|--------|--------|--------|
A|--------|--------|--------|--------|--------|--------|--------|--------|--------|
E|--------|--------|--------|--------|--------|--------|--------|--------|--------|


E|--------|--------|--------|--------|--------|--------|--------|--------|--------|
B|--------|--------|--------|--------|--------|--------|--------|--------|--------|
G|--------|--------|--------|--------|--------|--------|--------|--------|--------|
D|--------|--------|--------|--------|--------|--------|--------|--------|--------|
A|--------|--------|--------|--------|--------|--------|--------|--------|--------|
E|--------|--------|--------|--------|--------|--------|--------|--------|--------|


E|--------|--------|--------|--------|--------|--------|--------|--------|--------|
B|--------|--------|--------|--------|--------|--------|--------|--------|--------|
G|--------|--------|--------|--------|--------|--------|--------|--------|--------|
D|--------|--------|--------|--------|--------|--------|--------|--------|--------|
A|--------|--------|--------|--------|--------|--------|--------|--------|--------|
E|--------|--------|--------|--------|--------|--------|--------|--------|--------|


E|--------|--------|--------|--------|--------|--------|--------|--------|--------|
B|--------|--------|--------|--------|--------|--------|--------|--------|--------|
G|--------|--------|--------|--------|--------|--------|--------|--------|--------|
D|--------|--------|--------|--------|--------|--------|--------|--------|--------|
A|--------|--------|--------|--------|--------|--------|--------|--------|--------|
E|--------|--------|--------|--------|--------|--------|--------|--------|--------|


E|--------|--------|--------|--------|--------|--------|--------|--------|--------|
B|--------|--------|--------|--------|--------|--------|--------|--------|--------|
G|--------|--------|--------|--------|--------|--------|--------|--------|--------|
D|--------|--------|--------|--------|--------|--------|--------|--------|--------|
A|--------|--------|--------|--------|--------|--------|--------|--------|--------|
E|--------|--------|--------|--------|--------|--------|--------|--------|--------|


E|--------|--------|--------|--------|
B|--------|--------|--------|--------|
G|--------|--------|--------|--------|
D|--------|--------|--------|--------|
A|--------|--------|--------|--------|
E|--------|--------|--------|--------|





Track 4: Dist Rythm

E|--------|--------|--------|--------|--------|--------|--------|--------|--------|
B|--------|--------|--------|--------|--------|--------|--------|--------|--------|
G|--------|--------|--------|--------|--------|--------|--------|--------|--------|
D|--------|--------|--------|--------|--------|--------|--------|--------|--------|
A|--------|--------|--------|--------|--------|--------|--------|--------|--------|
E|--------|--------|--------|--------|--------|--------|--------|--------|--------|


E|--------|--------|--------|--------|--------|--------|--------|--------|--------|
B|--------|--------|--------|--------|--------|--------|--------|--------|--------|
G|--------|--------|--------|--------|--------|--------|--------|--------|--------|
D|--------|--------|--------|--------|--------|--------|--------|--------|--------|
A|--------|--------|--------|--------|--------|--------|--------|--------|--------|
E|--------|--------|--------|--------|--------|--------|--------|--------|--------|


E|--------|--------|--------|--------|--------|--------|--------|--------|--------|
B|--------|--------|--------|--------|--------|--------|--------|--------|--------|
G|--------|--------|--------|--------|--------|--------|--------|--------|--------|
D|--------|--------|--------|--------|--------|--------|--------|--------|--------|
A|--------|--------|--------|--------|--------|--------|--------|--------|--------|
E|--------|--------|--------|--------|--------|--------|--------|--------|--------|


E|--------|--------|--------|--------|--------|--------|--------|--------|--------|
B|--------|--------|--------|--------|--------|--------|--------|--------|--------|
G|--------|--------|--------|--------|--------|--------|--------|--------|--------|
D|--------|--------|--------|--------|--------|--------|--------|--------|--------|
A|--------|--------|--------|--------|--------|--------|--------|--------|--------|
E|--------|--------|--------|--------|--------|--------|--------|--------|--------|


E|--------|--------|--------|--------|--------|--------|--------|--------|--------|
B|--------|--------|--------|--------|--------|--------|--------|--------|--------|
G|--------|--------|--------|--------|--------|--------|--------|--------|--------|
D|--------|--------|--------|--------|--------|--------|--------|--------|--------|
A|--------|--------|--------|--------|--------|--------|--------|--------|--------|
E|--------|--------|--------|--------|--------|--------|--------|--------|--------|


E|--------|--------|--------|--------|--------|--------|--------|--------|--------|
B|--------|--------|--------|--------|--------|--------|--------|--------|--------|
G|--------|--------|--------|--------|--------|--------|--------|--------|--------|
D|--------|--------|--------|--------|--------|--------|--------|--------|--------|
A|--------|--------|--------|--------|--------|--------|--------|--------|--------|
E|--------|--------|--------|--------|--------|--------|--------|--------|--------|


E|-----------------------|------------------------|------------------------|-----------------|
B|-------------------0---|------------------0-----|-------------0----------|-----------------|
G|---------------2-------|--------------2---------|---------2--------------|-----------------|
D|-----------2-----------|----------2-------------|-----2------------------|-----------------|
A|-----------------------|------------------------|------------------------|-----------------|
E|-----------------------|------------------------|------------------------|-----19----------|


E|--------|--------|--------|--------|--------|--------|--------|--------|--------|
B|--------|--------|--------|--------|--------|--------|--------|--------|--------|
G|--------|--------|--------|--------|--------|--------|--------|--------|--------|
D|--------|--------|--------|--------|--------|--------|--------|--------|--------|
A|--------|--------|--------|--------|--------|--------|--------|--------|--------|
E|--------|--------|--------|--------|--------|--------|--------|--------|--------|


E|--------|--------|--------|--------|--------|--------|--------|--------|--------|
B|--------|--------|--------|--------|--------|--------|--------|--------|--------|
G|--------|--------|--------|--------|--------|--------|--------|--------|--------|
D|--------|--------|--------|--------|--------|--------|--------|--------|--------|
A|--------|--------|--------|--------|--------|--------|--------|--------|--------|
E|--------|--------|--------|--------|--------|--------|--------|--------|--------|


E|--------|--------|--------|--------|----------------|---------------------------------|
B|--------|--------|--------|--------|----------------|---------------------------------|
G|--------|--------|--------|--------|----------------|-----2---4---2-------4-----------|
D|--------|--------|--------|--------|----------------|-2---------------2-----------2---|
A|--------|--------|--------|--------|----------------|---------------------------------|
E|--------|--------|--------|--------|------------0---|-------------------------0-------|


E|---------------------------------|---------------------------------|---------------------------------|
B|---------------------------------|-----------------------------5---|---------------------------------|
G|-2---4---2-------4-----------2---|-4---2-------4-----------4-------|-4-------------------2---4---2---|
D|-------------2-----------2-------|---------2-----------7-----------|-----7-----------2---------------|
A|---------------------------------|-----------------5---------------|---------5-----------------------|
E|---------------------2-----------|---------------------------------|-------------0-------------------|


E|---------------------------------|---------------------------------|-----------------------------------|
B|---------------------------------|---------------------------------|-------------5---------------------|
G|-----4-----------2---4---2-------|-4-----------2---4---2-------4---|---------4-------4-----------------|
D|-2-----------2---------------2---|---------2---------------2-------|-----7---------------7-------0--2--|
A|---------------------------------|---------------------------------|-5-----------------------5---------|
E|---------0-----------------------|-----2---------------------------|-----------------------------------|


E|-------------------------------------------------|-------------------------------------------------|
B|----------0--------3-----------------------------|-3--------------------------0-----------------0--|
G|-2-----2-----1--2-----2--1--2--1-----------1--2--|----2--1--2--1-----2-----2-----------2-----2-----|
D|----2-----------------------------2--0--2--------|----------------2-----2--------0--2-----2--------|
A|-------------------------------------------------|-------------------------------------------------|
E|-------------------------------------------------|-------------------------------------------------|


E|-------------------------------------------------|----------------12-------------------------------|
B|-------3--------------------------------0--------|----------12-15-------------------0--------3-----|
G|-1--2-----2--1--2--1-----------2-----2-----------|-14----14----------------2-----2-----1--2-----2--|
D|----------------------2--0--2-----2--------12-14-|----14-------------0--2-----2--------------------|
A|-------------------------------------------------|-------------------------------------------------|
E|-------------------------------------------------|-------------------------------------------------|


E|-------------------------------------------------|-------------------------------------------------|
B|-------------------------3-----------------------|----0-----------------0--------3-----------------|
G|-1--2--1-----------1--2-----2--1--2--1-----2-----|-2-----------2-----2-----1--2-----2--1--2--1-----|
D|----------2--0--2-----------------------2-----2--|-------0--2-----2-----------------------------2--|
A|-------------------------------------------------|-------------------------------------------------|
E|-------------------------------------------------|-------------------------------------------------|


E|----------------------------------------------------|------------------------------------------|
B|-5-----2--3--2--------------------------------------|------------------------------------------|
G|----3-----------4--3--4--3--1-----------------------|------------------------------------------|
D|-------------------------------4--2--0--------------|-2------------------------0---------------|
A|----------------------------------------4--2--1-----|----1--4--5-4-2--1------------4---2---1---|
E|-------------------------------------------------4--|--------------------4--2------------------|


E|----------------|--------|--------|--------|--------|--------|--------|--------|
B|----------------|--------|--------|--------|--------|--------|--------|--------|
G|----------------|--------|--------|--------|--------|--------|--------|--------|
D|----------------|--------|--------|--------|--------|--------|--------|--------|
A|----------------|--------|--------|--------|--------|--------|--------|--------|
E|-4---2----------|--------|--------|--------|--------|--------|--------|--------|


E|--------|--------|--------|--------|--------|--------|--------|--------|--------|
B|--------|--------|--------|--------|--------|--------|--------|--------|--------|
G|--------|--------|--------|--------|--------|--------|--------|--------|--------|
D|--------|--------|--------|--------|--------|--------|--------|--------|--------|
A|--------|--------|--------|--------|--------|--------|--------|--------|--------|
E|--------|--------|--------|--------|--------|--------|--------|--------|--------|


E|--------|--------|--------|--------|--------|--------|--------|--------|--------|
B|--------|--------|--------|--------|--------|--------|--------|--------|--------|
G|--------|--------|--------|--------|--------|--------|--------|--------|--------|
D|--------|--------|--------|--------|--------|--------|--------|--------|--------|
A|--------|--------|--------|--------|--------|--------|--------|--------|--------|
E|--------|--------|--------|--------|--------|--------|--------|--------|--------|





Track 5: Untitled

G|--------|--------|--------|--------|--------|--------|--------|--------|--------|
D|--------|--------|--------|--------|--------|--------|--------|--------|--------|
A|--------|--------|--------|--------|--------|--------|--------|--------|--------|
E|--------|--------|--------|--------|--------|--------|--------|--------|--------|


G|--------|--------|--------|--------|--------|--------|--------|--------|--------|
D|--------|--------|--------|--------|--------|--------|--------|--------|--------|
A|--------|--------|--------|--------|--------|--------|--------|--------|--------|
E|--------|--------|--------|--------|--------|--------|--------|--------|--------|


G|--------|--------|--------|--------|--------|--------|--------|--------|--------|
D|--------|--------|--------|--------|--------|--------|--------|--------|--------|
A|--------|--------|--------|--------|--------|--------|--------|--------|--------|
E|--------|--------|--------|--------|--------|--------|--------|--------|--------|


G|--------|--------|--------|--------|--------|--------|--------|--------|--------|
D|--------|--------|--------|--------|--------|--------|--------|--------|--------|
A|--------|--------|--------|--------|--------|--------|--------|--------|--------|
E|--------|--------|--------|--------|--------|--------|--------|--------|--------|


G|--------|--------|--------|--------|--------|--------|--------|--------|--------|
D|--------|--------|--------|--------|--------|--------|--------|--------|--------|
A|--------|--------|--------|--------|--------|--------|--------|--------|--------|
E|--------|--------|--------|--------|--------|--------|--------|--------|--------|


G|--------|--------|--------|--------|--------|--------|--------|--------|--------|
D|--------|--------|--------|--------|--------|--------|--------|--------|--------|
A|--------|--------|--------|--------|--------|--------|--------|--------|--------|
E|--------|--------|--------|--------|--------|--------|--------|--------|--------|


G|--------|--------|--------|--------|--------|--------|--------|--------|--------|
D|--------|--------|--------|--------|--------|--------|--------|--------|--------|
A|--------|--------|--------|--------|--------|--------|--------|--------|--------|
E|--------|--------|--------|--------|--------|--------|--------|--------|--------|


G|--------|--------|--------|--------|--------|--------|--------|--------|--------|
D|--------|--------|--------|--------|--------|--------|--------|--------|--------|
A|--------|--------|--------|--------|--------|--------|--------|--------|--------|
E|--------|--------|--------|--------|--------|--------|--------|--------|--------|


G|--------|--------|--------|--------|--------|--------|--------|--------|--------|
D|--------|--------|--------|--------|--------|--------|--------|--------|--------|
A|--------|--------|--------|--------|--------|--------|--------|--------|--------|
E|--------|--------|--------|--------|--------|--------|--------|--------|--------|


G|--------|--------|--------|--------|--------|--------|--------|--------|--------|
D|--------|--------|--------|--------|--------|--------|--------|--------|--------|
A|--------|--------|--------|--------|--------|--------|--------|--------|--------|
E|--------|--------|--------|--------|--------|--------|--------|--------|--------|


G|--------|--------|--------|--------|--------|--------|--------|--------|--------|
D|--------|--------|--------|--------|--------|--------|--------|--------|--------|
A|--------|--------|--------|--------|--------|--------|--------|--------|--------|
E|--------|--------|--------|--------|--------|--------|--------|--------|--------|


G|--------|--------|--------|--------|--------|--------|--------|--------|--------|
D|--------|--------|--------|--------|--------|--------|--------|--------|--------|
A|--------|--------|--------|--------|--------|--------|--------|--------|--------|
E|--------|--------|--------|--------|--------|--------|--------|--------|--------|


G|--------|--------|--------|--------|--------|--------|--------|--------|--------|
D|--------|--------|--------|--------|--------|--------|--------|--------|--------|
A|--------|--------|--------|--------|--------|--------|--------|--------|--------|
E|--------|--------|--------|--------|--------|--------|--------|--------|--------|


G|--------|--------|--------|--------|--------|
D|--------|--------|--------|--------|--------|
A|--------|--------|--------|--------|--------|
E|--------|--------|--------|--------|--------|