Menu:

 

Search:

 

dream theater - finally free:

 



Title: Scene Nine: Finally Free
Artist: 
Album: Metropolis 2000: Pt. 2, Scenes From A Memory
Author: Dream Theater


Track 1: Acoustic Guitar

E|-----------------2---------------|-----------------0--2--0--------------|-----------------3-----------------|
B|---------3---------------3-------|-------------3------------3-----------|-------------3---------------------|
G|-----2-------2---------------2---|---------2--------------------2-------|---------0---------------------0---|
D|-0-------------------0-----------|-----0----------------------------0---|-----0-----------------------------|
A|---------------------------------|--------------------------------------|-------------------------0--2------|
E|---------------------------------|-2------------------------------------|-3-------------------3-------------|


E|------------------0------------------|-----------------2---------------|-----------------2---------------|
B|-----3---------3---------3-----------|-------------3-----------3-------|-------------3-----------3-------|
G|---------0--2----------------2-------|---------4-------------------4---|---------4-------------------4---|
D|-0-------------------------------4---|-----4---------------------------|-----4---------------------------|
A|---------------------4---------------|-2-------------------2-----------|-0-------------------0-----------|
E|-------------------------------------|---------------------------------|---------------------------------|


E|-----------------0---------------|---------------------------0-------|-----------------2---------------|
B|-------------3-----------3-------|-------------2---3-----------------|---------3---------------3-------|
G|---------4-------------------4---|---------2-----------0--2------2---|-----2-------2---------------2---|
D|-----2---------------------------|-----2-----------------------------|-0-------------------0-----------|
A|---------------------------------|-0---------------------------------|---------------------------------|
E|-4-------------------4-----------|-----------------------------------|---------------------------------|


E|-----------------0--2--0--------------|----------------------------------------|
B|-------------3------------3-----------|-------------------0--------------------|
G|---------2--------------------2-------|---------0---0--2------2---0--2--0------|
D|-----0----------------------------0---|-----0------------------------------4---|
A|--------------------------------------|----------------------------------------|
E|-2------------------------------------|-3--------------------------------------|


E|-----------------0---------------|---------------------------------|-------------------0---------------|
B|---------------------0-----------|-----------------2---------------|-------------2--3------3---2---0---|
G|-0-----------0-----------0-------|---------2---------------2-------|---------2-------------------------|
D|-----2-----------------------2---|-----2-------2---------------2---|-----2-----------------------------|
A|---------2-----------------------|-4-------------------4-----------|-0---------------------------------|
E|-0-------------------------------|---------------------------------|-----------------------------------|


E|-----------------2---------------|---------------------------------|----------------------------------3--|
B|-------------------------2-------|-3-------------------------------|-2-----------2---2-------------2-----|
G|-3---------------------------3---|-----4-----------4-----------4---|-----3---------------3------3--------|
D|-----4-------4-------------------|---------4-----------4---3-------|---------2---------------1-----------|
A|---------4-----------------------|-2-----------0-------------------|-------------------------------------|
E|-2-------------------2-----------|-----------------4---------------|-3---------------0-------------------|


E|---------------------------------|---------------------------------|---------------------------------|
B|---------0-------4-------0-------|---------0-------4-------0-------|---------0-------4-------0-------|
G|-----3-------3-------3-------3---|-----3-------3-------3-------3---|-----3-------3-------3-------3---|
D|---------------------------------|---------------------------------|---------------------------------|
A|---------------------------------|---------------------------------|---------------------------------|
E|-4-------------------------------|-4-------------------------------|-4-------------------------------|


E|---------------------------------|--------|--------|--------|--------|--------|--------|
B|---------0-------4-------0-------|--------|--------|--------|--------|--------|--------|
G|-----3-------3-------3-------3---|--------|--------|--------|--------|--------|--------|
D|---------------------------------|--------|--------|--------|--------|--------|--------|
A|---------------------------------|--------|--------|--------|--------|--------|--------|
E|-4-------------------------------|--------|--------|--------|--------|--------|--------|


E|--------|--------|--------|--------|--------|--------|--------|--------|--------|
B|--------|--------|--------|--------|--------|--------|--------|--------|--------|
G|--------|--------|--------|--------|--------|--------|--------|--------|--------|
D|--------|--------|--------|--------|--------|--------|--------|--------|--------|
A|--------|--------|--------|--------|--------|--------|--------|--------|--------|
E|--------|--------|--------|--------|--------|--------|--------|--------|--------|


E|--------|--------|--------|--------|--------|--------|--------|--------|--------|
B|--------|--------|--------|--------|--------|--------|--------|--------|--------|
G|--------|--------|--------|--------|--------|--------|--------|--------|--------|
D|--------|--------|--------|--------|--------|--------|--------|--------|--------|
A|--------|--------|--------|--------|--------|--------|--------|--------|--------|
E|--------|--------|--------|--------|--------|--------|--------|--------|--------|


E|--------|-----4----4--4---4---4--4--4---4---|-4----------------------------|-----0----0--0--0--0---0----0--0---|
B|--------|-----4----4--4---4---4--4--4---4---|-4---4----4--4---4---8----8---|-8---0----0--0--0--0---0----0--0---|
G|--------|-----4----4--4---4---4--4--4---4---|-4---3----3--3---2---8----8---|-8---9----9--9--9--0---6----6--6---|
D|--------|-----6----6--6---6---6--6--6---6---|-6---1----1--1---1---8----8---|-8---9----9--9--9--2---6----6--6---|
A|--------|-----6----6--6---6---6--6--6---6---|-6---2----2--2---2---6----6---|-6---7----7--7--7--2---4----4--4---|
E|--------|-----4----4--4---4---4--4--4---4---|-4---3----3--3---3------------|-----0----0--0--0--0---------------|


E|-0--0--------------------2----2--2---|-2---4----4--4---4---4--4--4---4---|-4----------------------------|
B|-0--0--4----4--4--4------2----2--2---|-2---4----4--4---4---4--4--4---4---|-4---4----4--4---4---8----8---|
G|-6--6--4----4--4--4------3----3--3---|-3---4----4--4---4---4--4--4---4---|-4---3----3--3---2---8----8---|
D|-6--6--4----4--4--4------4----4--4---|-4---6----6--6---6---6--6--6---6---|-6---1----1--1---1---8----8---|
A|-4--4--6----6--6--6------4----4--4---|-4---6----6--6---6---6--6--6---6---|-6---2----2--2---2---6----6---|
E|---------------------0---2----2--2---|-2---4----4--4---4---4--4--4---4---|-4---3----3--3---3------------|


E|-----0----0--0--0--0---0----0--0---|-0--0--------------------2----2--2---|-2--------------|
B|-8---0----0--0--0--0---0----0--0---|-0--0--4----4--4--4------2----2--2---|-2--------------|
G|-8---9----9--9--9--0---6----6--6---|-6--6--4----4--4--4------3----3--3---|-3--------------|
D|-8---9----9--9--9--2---6----6--6---|-6--6--4----4--4--4------4----4--4---|-4--------------|
A|-6---7----7--7--7--2---4----4--4---|-4--4--6----6--6--6------4----4--4---|-4--------------|
E|-----0----0--0--0--0---------------|---------------------0---2----2--2---|-2--------------|


E|--------|--------|--------|--------|--------|--------|--------|--------|--------|
B|--------|--------|--------|--------|--------|--------|--------|--------|--------|
G|--------|--------|--------|--------|--------|--------|--------|--------|--------|
D|--------|--------|--------|--------|--------|--------|--------|--------|--------|
A|--------|--------|--------|--------|--------|--------|--------|--------|--------|
E|--------|--------|--------|--------|--------|--------|--------|--------|--------|


E|--------|--------4----4--|-4---4---4--4--4---4---4-----------|----------------------0----0--|
B|--------|--------4----4--|-4---4---4--4--4---4---4---4----4--|-4---4---8----8---8---0----0--|
G|--------|--------4----4--|-4---4---4--4--4---4---4---3----3--|-3---2---8----8---8---9----9--|
D|--------|--------6----6--|-6---6---6--6--6---6---6---1----1--|-1---1---8----8---8---9----9--|
A|--------|--------6----6--|-6---6---6--6--6---6---6---2----2--|-2---2---6----6---6---7----7--|
E|--------|--------4----4--|-4---4---4--4--4---4---4---3----3--|-3---3----------------0----0--|


E|-0--0--0---0----0--0---0--0----------|-----------2----2--2---2---4----4--|-4---4---4--4--4---4---4-----------|
B|-0--0--0---0----0--0---0--0--4----4--|-4--4------2----2--2---2---4----4--|-4---4---4--4--4---4---4---4----4--|
G|-9--9--0---6----6--6---6--6--4----4--|-4--4------3----3--3---3---4----4--|-4---4---4--4--4---4---4---3----3--|
D|-9--9--2---6----6--6---6--6--4----4--|-4--4------4----4--4---4---6----6--|-6---6---6--6--6---6---6---1----1--|
A|-7--7--2---4----4--4---4--4--6----6--|-6--6------4----4--4---4---6----6--|-6---6---6--6--6---6---6---2----2--|
E|-0--0--0-----------------------------|-------0---2----2--2---2---4----4--|-4---4---4--4--4---4---4---3----3--|


E|----------------------0----0--|-0--0--0---0----0--0---0--0----------|-----------2----2--2---2--------|
B|-4---4---8----8---8---0----0--|-0--0--0---0----0--0---0--0--4----4--|-4--4------2----2--2---2--------|
G|-3---2---8----8---8---9----9--|-9--9--0---6----6--6---6--6--4----4--|-4--4------3----3--3---3--------|
D|-1---1---8----8---8---9----9--|-9--9--2---6----6--6---6--6--4----4--|-4--4------4----4--4---4--------|
A|-2---2---6----6---6---7----7--|-7--7--2---4----4--4---4--4--6----6--|-6--6------4----4--4---4--------|
E|-3---3----------------0----0--|-0--0--0-----------------------------|-------0---2----2--2---2--------|


E|--------|--------|--------|--------|--------|--------|--------|--------|--------|
B|--------|--------|--------|--------|--------|--------|--------|--------|--------|
G|--------|--------|--------|--------|--------|--------|--------|--------|--------|
D|--------|--------|--------|--------|--------|--------|--------|--------|--------|
A|--------|--------|--------|--------|--------|--------|--------|--------|--------|
E|--------|--------|--------|--------|--------|--------|--------|--------|--------|


E|--------|--------|--------|--------|--------|--------|--------|--------|--------|
B|--------|--------|--------|--------|--------|--------|--------|--------|--------|
G|--------|--------|--------|--------|--------|--------|--------|--------|--------|
D|--------|--------|--------|--------|--------|--------|--------|--------|--------|
A|--------|--------|--------|--------|--------|--------|--------|--------|--------|
E|--------|--------|--------|--------|--------|--------|--------|--------|--------|


E|--------|--------|--------|--------|--------|--------|--------|--------|--------|
B|--------|--------|--------|--------|--------|--------|--------|--------|--------|
G|--------|--------|--------|--------|--------|--------|--------|--------|--------|
D|--------|--------|--------|--------|--------|--------|--------|--------|--------|
A|--------|--------|--------|--------|--------|--------|--------|--------|--------|
E|--------|--------|--------|--------|--------|--------|--------|--------|--------|


E|--------|--------|--------|--------|--------|--------|--------|--------|--------|
B|--------|--------|--------|--------|--------|--------|--------|--------|--------|
G|--------|--------|--------|--------|--------|--------|--------|--------|--------|
D|--------|--------|--------|--------|--------|--------|--------|--------|--------|
A|--------|--------|--------|--------|--------|--------|--------|--------|--------|
E|--------|--------|--------|--------|--------|--------|--------|--------|--------|


E|--------|--------|--------|--------|--------|--------|--------|--------|--------|
B|--------|--------|--------|--------|--------|--------|--------|--------|--------|
G|--------|--------|--------|--------|--------|--------|--------|--------|--------|
D|--------|--------|--------|--------|--------|--------|--------|--------|--------|
A|--------|--------|--------|--------|--------|--------|--------|--------|--------|
E|--------|--------|--------|--------|--------|--------|--------|--------|--------|


E|--------|--------|--------|--------|--------|--------|--------|--------|--------|
B|--------|--------|--------|--------|--------|--------|--------|--------|--------|
G|--------|--------|--------|--------|--------|--------|--------|--------|--------|
D|--------|--------|--------|--------|--------|--------|--------|--------|--------|
A|--------|--------|--------|--------|--------|--------|--------|--------|--------|
E|--------|--------|--------|--------|--------|--------|--------|--------|--------|


E|--------|--------|--------|--------|--------|--------|--------|--------|-4----4--4---4---4--4--4---4---4---|
B|--------|--------|--------|--------|--------|--------|--------|--------|-4----4--4---4---4--4--4---4---4---|
G|--------|--------|--------|--------|--------|--------|--------|--------|-4----4--4---4---4--4--4---4---4---|
D|--------|--------|--------|--------|--------|--------|--------|--------|-6----6--6---6---6--6--6---6---6---|
A|--------|--------|--------|--------|--------|--------|--------|--------|-6----6--6---6---6--6--6---6---6---|
E|--------|--------|--------|--------|--------|--------|--------|--------|-4----4--4---4---4--4--4---4---4---|


E|------------------------------|-0----0--0--0--0---0----0--0---0--0--|-------------------2----2--2---2---|
B|-4----4--4---4---8----8---8---|-0----0--0--0--0---0----0--0---0--0--|-4----4--4--4------2----2--2---2---|
G|-3----3--3---2---8----8---8---|-9----9--9--9--0---6----6--6---6--6--|-4----4--4--4------3----3--3---3---|
D|-1----1--1---1---8----8---8---|-9----9--9--9--2---6----6--6---6--6--|-4----4--4--4------4----4--4---4---|
A|-2----2--2---2---6----6---6---|-7----7--7--7--2---4----4--4---4--4--|-6----6--6--6------4----4--4---4---|
E|-3----3--3---3----------------|-0----0--0--0--0---------------------|---------------0---2----2--2---2---|


E|-4----4--4---4---4--4--4---4---4---|------------------------------|-0----0--0--0--0---0----0--0---0--0--|
B|-4----4--4---4---4--4--4---4---4---|-4----4--4---4---8----8---8---|-0----0--0--0--0---0----0--0---0--0--|
G|-4----4--4---4---4--4--4---4---4---|-3----3--3---2---8----8---8---|-9----9--9--9--0---6----6--6---6--6--|
D|-6----6--6---6---6--6--6---6---6---|-1----1--1---1---8----8---8---|-9----9--9--9--2---6----6--6---6--6--|
A|-6----6--6---6---6--6--6---6---6---|-2----2--2---2---6----6---6---|-7----7--7--7--2---4----4--4---4--4--|
E|-4----4--4---4---4--4--4---4---4---|-3----3--3---3----------------|-0----0--0--0--0---------------------|


E|-------------------2----2--2---2---|--------|--------|--------|--------|--------|
B|-4----4--4--4------2----2--2---2---|--------|--------|--------|--------|--------|
G|-4----4--4--4------3----3--3---3---|--------|--------|--------|--------|--------|
D|-4----4--4--4------4----4--4---4---|--------|--------|--------|--------|--------|
A|-6----6--6--6------4----4--4---4---|--------|--------|--------|--------|--------|
E|---------------0---2----2--2---2---|--------|--------|--------|--------|--------|


E|--------|--------|--------|--------|--------|--------|--------|--------|--------|
B|--------|--------|--------|--------|--------|--------|--------|--------|--------|
G|--------|--------|--------|--------|--------|--------|--------|--------|--------|
D|--------|--------|--------|--------|--------|--------|--------|--------|--------|
A|--------|--------|--------|--------|--------|--------|--------|--------|--------|
E|--------|--------|--------|--------|--------|--------|--------|--------|--------|


E|--------|--------|--------|--------|--------|--------|--------|--------|--------|
B|--------|--------|--------|--------|--------|--------|--------|--------|--------|
G|--------|--------|--------|--------|--------|--------|--------|--------|--------|
D|--------|--------|--------|--------|--------|--------|--------|--------|--------|
A|--------|--------|--------|--------|--------|--------|--------|--------|--------|
E|--------|--------|--------|--------|--------|--------|--------|--------|--------|


E|--------|--------|--------|--------|--------|--------|--------|--------|--------|
B|--------|--------|--------|--------|--------|--------|--------|--------|--------|
G|--------|--------|--------|--------|--------|--------|--------|--------|--------|
D|--------|--------|--------|--------|--------|--------|--------|--------|--------|
A|--------|--------|--------|--------|--------|--------|--------|--------|--------|
E|--------|--------|--------|--------|--------|--------|--------|--------|--------|


E|--------|--------|--------|--------|--------|--------|--------|--------|--------|
B|--------|--------|--------|--------|--------|--------|--------|--------|--------|
G|--------|--------|--------|--------|--------|--------|--------|--------|--------|
D|--------|--------|--------|--------|--------|--------|--------|--------|--------|
A|--------|--------|--------|--------|--------|--------|--------|--------|--------|
E|--------|--------|--------|--------|--------|--------|--------|--------|--------|


E|--------|--------|--------|--------|--------|--------|--------|--------|--------|
B|--------|--------|--------|--------|--------|--------|--------|--------|--------|
G|--------|--------|--------|--------|--------|--------|--------|--------|--------|
D|--------|--------|--------|--------|--------|--------|--------|--------|--------|
A|--------|--------|--------|--------|--------|--------|--------|--------|--------|
E|--------|--------|--------|--------|--------|--------|--------|--------|--------|


E|--------|--------|--------|--------|--------|--------|--------|--------|--------|
B|--------|--------|--------|--------|--------|--------|--------|--------|--------|
G|--------|--------|--------|--------|--------|--------|--------|--------|--------|
D|--------|--------|--------|--------|--------|--------|--------|--------|--------|
A|--------|--------|--------|--------|--------|--------|--------|--------|--------|
E|--------|--------|--------|--------|--------|--------|--------|--------|--------|


E|--------|--------|--------|--------|
B|--------|--------|--------|--------|
G|--------|--------|--------|--------|
D|--------|--------|--------|--------|
A|--------|--------|--------|--------|
E|--------|--------|--------|--------|





Track 2: Keyboard Strings

E|--------|--------|--------|--------|--------|--------|--------|--------|--------|
B|--------|--------|--------|--------|--------|--------|--------|--------|--------|
G|--------|--------|--------|--------|--------|--------|--------|--------|--------|
D|--------|--------|--------|--------|--------|--------|--------|--------|--------|
A|--------|--------|--------|--------|--------|--------|--------|--------|--------|
E|--------|--------|--------|--------|--------|--------|--------|--------|--------|


E|--------|--------|--------|--------|--------|--------|--------|--------|--------|
B|--------|--------|--------|--------|--------|--------|--------|--------|--------|
G|--------|--------|--------|--------|--------|--------|--------|--------|--------|
D|--------|--------|--------|--------|--------|--------|--------|--------|--------|
A|--------|--------|--------|--------|--------|--------|--------|--------|--------|
E|--------|--------|--------|--------|--------|--------|--------|--------|--------|


E|--------|--------|--------|---------------------|-----------------------------|------------------------|
B|--------|--------|--------|---------------------|-----------------------------|------------------------|
G|--------|--------|--------|------8---------8----|------9------------9---------|------8---------8-------|
D|--------|--------|--------|---------------------|-----------------------------|------------------------|
A|--------|--------|--------|---------------------|--------------4--------------|-----------7--------6---|
E|--------|--------|--------|-4---------6----7----|-6--------7------------7--6--|-4----------------------|


E|---------------------------|---------------------|-----------------------------|
B|---------------------------|---------------------|-----------------------------|
G|------9------------9-------|------8---------8----|------9------------9---------|
D|---------------------------|---------------------|-----------------------------|
A|-4---------4---6-----------|---------------------|--------------4--------------|
E|-------------------7---6---|-4---------6----7----|-6--------7------------7--6--|


E|---------------------|---------7---12--11--7-----------|-------11---12---|--------|
B|---------------------|-----9-------------------7---4---|-----------------|--------|
G|------8---------8----|---------------------------------|-6---------------|--------|
D|---------------------|---------------------------------|-----------------|--------|
A|---------------------|-7---------------6---------------|-4-----6---------|--------|
E|-4---------2---------|---------------------------------|-----------------|--------|


E|--------|--------|--------|--------|--------|--------|--------|--------|--------|
B|--------|--------|--------|--------|--------|--------|--------|--------|--------|
G|--------|--------|--------|--------|--------|--------|--------|--------|--------|
D|--------|--------|--------|--------|--------|--------|--------|--------|--------|
A|--------|--------|--------|--------|--------|--------|--------|--------|--------|
E|--------|--------|--------|--------|--------|--------|--------|--------|--------|


E|--------|--------|--------|--------|--------|--------|--------|--------|--------|
B|--------|--------|--------|--------|--------|--------|--------|--------|--------|
G|--------|--------|--------|--------|--------|--------|--------|--------|--------|
D|--------|--------|--------|--------|--------|--------|--------|--------|--------|
A|--------|--------|--------|--------|--------|--------|--------|--------|--------|
E|--------|--------|--------|--------|--------|--------|--------|--------|--------|


E|--------|--------|--------|--------|--------|--------|--------|--------|--------|
B|--------|--------|--------|--------|--------|--------|--------|--------|--------|
G|--------|--------|--------|--------|--------|--------|--------|--------|--------|
D|--------|--------|--------|--------|--------|--------|--------|--------|--------|
A|--------|--------|--------|--------|--------|--------|--------|--------|--------|
E|--------|--------|--------|--------|--------|--------|--------|--------|--------|


E|--------|--------|--------|--------|--------|--------|--------|--------|--------|
B|--------|--------|--------|--------|--------|--------|--------|--------|--------|
G|--------|--------|--------|--------|--------|--------|--------|--------|--------|
D|--------|--------|--------|--------|--------|--------|--------|--------|--------|
A|--------|--------|--------|--------|--------|--------|--------|--------|--------|
E|--------|--------|--------|--------|--------|--------|--------|--------|--------|


E|--------|--------|--------|--------|--------|--------|--------|--------|--------|
B|--------|--------|--------|--------|--------|--------|--------|--------|--------|
G|--------|--------|--------|--------|--------|--------|--------|--------|--------|
D|--------|--------|--------|--------|--------|--------|--------|--------|--------|
A|--------|--------|--------|--------|--------|--------|--------|--------|--------|
E|--------|--------|--------|--------|--------|--------|--------|--------|--------|


E|--------|--------|--------|--------|--------|--------|--------|--------|--------|
B|--------|--------|--------|--------|--------|--------|--------|--------|--------|
G|--------|--------|--------|--------|--------|--------|--------|--------|--------|
D|--------|--------|--------|--------|--------|--------|--------|--------|--------|
A|--------|--------|--------|--------|--------|--------|--------|--------|--------|
E|--------|--------|--------|--------|--------|--------|--------|--------|--------|


E|--------|--------|--------|--------|--------|--------|--------|--------|--------|
B|--------|--------|--------|--------|--------|--------|--------|--------|--------|
G|--------|--------|--------|--------|--------|--------|--------|--------|--------|
D|--------|--------|--------|--------|--------|--------|--------|--------|--------|
A|--------|--------|--------|--------|--------|--------|--------|--------|--------|
E|--------|--------|--------|--------|--------|--------|--------|--------|--------|


E|--------|--------|--------|--------|--------|--------|--------|--------|--------|
B|--------|--------|--------|--------|--------|--------|--------|--------|--------|
G|--------|--------|--------|--------|--------|--------|--------|--------|--------|
D|--------|--------|--------|--------|--------|--------|--------|--------|--------|
A|--------|--------|--------|--------|--------|--------|--------|--------|--------|
E|--------|--------|--------|--------|--------|--------|--------|--------|--------|


E|--------|--------|--------|--------|--------|--------|--------|--------|--------|
B|--------|--------|--------|--------|--------|--------|--------|--------|--------|
G|--------|--------|--------|--------|--------|--------|--------|--------|--------|
D|--------|--------|--------|--------|--------|--------|--------|--------|--------|
A|--------|--------|--------|--------|--------|--------|--------|--------|--------|
E|--------|--------|--------|--------|--------|--------|--------|--------|--------|


E|--------|--------|--------|--------|--------|--------|--------|--------|--------|
B|--------|--------|--------|--------|--------|--------|--------|--------|--------|
G|--------|--------|--------|--------|--------|--------|--------|--------|--------|
D|--------|--------|--------|--------|--------|--------|--------|--------|--------|
A|--------|--------|--------|--------|--------|--------|--------|--------|--------|
E|--------|--------|--------|--------|--------|--------|--------|--------|--------|


E|--------|--------|--------|--------|--------|--------|--------|--------|--------|
B|--------|--------|--------|--------|--------|--------|--------|--------|--------|
G|--------|--------|--------|--------|--------|--------|--------|--------|--------|
D|--------|--------|--------|--------|--------|--------|--------|--------|--------|
A|--------|--------|--------|--------|--------|--------|--------|--------|--------|
E|--------|--------|--------|--------|--------|--------|--------|--------|--------|


E|--------|--------|--------|--------|--------|--------|--------|--------|--------|
B|--------|--------|--------|--------|--------|--------|--------|--------|--------|
G|--------|--------|--------|--------|--------|--------|--------|--------|--------|
D|--------|--------|--------|--------|--------|--------|--------|--------|--------|
A|--------|--------|--------|--------|--------|--------|--------|--------|--------|
E|--------|--------|--------|--------|--------|--------|--------|--------|--------|


E|--------|--------|--------|--------|--------|---------------------|---------------------|
B|--------|--------|--------|--------|--------|-12--------------12--|-11--------------11--|
G|--------|--------|--------|--------|--------|------8----8---------|------8----8---------|
D|--------|--------|--------|--------|--------|---------------------|---------------------|
A|--------|--------|--------|--------|--------|---------------------|---------------------|
E|--------|--------|--------|--------|--------|---------------------|---------------------|


E|-------------------------|---------------------------|---------------------|---------------------|
B|-9-------------------9---|-7-------------------9--11-|-12--------------12--|-11--------------11--|
G|-----------8---6---------|------9----8---6-----------|------8----8---------|------8----8---------|
D|------9------------------|---------------------------|---------------------|---------------------|
A|-------------------------|---------------------------|---------------------|---------------------|
E|-------------------------|---------------------------|---------------------|---------------------|


E|-------------------------|--------|--------|--------|--------|--------|--------|
B|-9-------------------9---|-7------|--------|--------|--------|--------|--------|
G|-----------8---6---------|--------|--------|--------|--------|--------|--------|
D|------9------------------|--------|--------|--------|--------|--------|--------|
A|-------------------------|--------|--------|--------|--------|--------|--------|
E|-------------------------|--------|--------|--------|--------|--------|--------|


E|--------|--------|--------|--------|--------|--------|--------|--------|--------|
B|--------|--------|--------|--------|--------|--------|--------|--------|--------|
G|--------|--------|--------|--------|--------|--------|--------|--------|--------|
D|--------|--------|--------|--------|--------|--------|--------|--------|--------|
A|--------|--------|--------|--------|--------|--------|--------|--------|--------|
E|--------|--------|--------|--------|--------|--------|--------|--------|--------|


E|--------|--------|--------|--------|--------|--------|--------|--------|--------|
B|--------|--------|--------|--------|--------|--------|--------|--------|--------|
G|--------|--------|--------|--------|--------|--------|--------|--------|--------|
D|--------|--------|--------|--------|--------|--------|--------|--------|--------|
A|--------|--------|--------|--------|--------|--------|--------|--------|--------|
E|--------|--------|--------|--------|--------|--------|--------|--------|--------|


E|--------|--------|--------|--------|--------|--------|--------|--------|--------|
B|--------|--------|--------|--------|--------|--------|--------|--------|--------|
G|--------|--------|--------|--------|--------|--------|--------|--------|--------|
D|--------|--------|--------|--------|--------|--------|--------|--------|--------|
A|--------|--------|--------|--------|--------|--------|--------|--------|--------|
E|--------|--------|--------|--------|--------|--------|--------|--------|--------|


E|--------|--------|--------|--------|--------|--------|--------|--------|--------|
B|--------|--------|--------|--------|--------|--------|--------|--------|--------|
G|--------|--------|--------|--------|--------|--------|--------|--------|--------|
D|--------|--------|--------|--------|--------|--------|--------|--------|--------|
A|--------|--------|--------|--------|--------|--------|--------|--------|--------|
E|--------|--------|--------|--------|--------|--------|--------|--------|--------|


E|--------|--------|--------|--------|--------|--------|--------|--------|--------|
B|--------|--------|--------|--------|--------|--------|--------|--------|--------|
G|--------|--------|--------|--------|--------|--------|--------|--------|--------|
D|--------|--------|--------|--------|--------|--------|--------|--------|--------|
A|--------|--------|--------|--------|--------|--------|--------|--------|--------|
E|--------|--------|--------|--------|--------|--------|--------|--------|--------|


E|--------|--------|--------|--------|--------|
B|--------|--------|--------|--------|--------|
G|--------|--------|--------|--------|--------|
D|--------|--------|--------|--------|--------|
A|--------|--------|--------|--------|--------|
E|--------|--------|--------|--------|--------|





Track 3: Piano

E|--------|--------|--------|--------|--------|--------|--------|--------|--------|
B|--------|--------|--------|--------|--------|--------|--------|--------|--------|
G|--------|--------|--------|--------|--------|--------|--------|--------|--------|
D|--------|--------|--------|--------|--------|--------|--------|--------|--------|
A|--------|--------|--------|--------|--------|--------|--------|--------|--------|
E|--------|--------|--------|--------|--------|--------|--------|--------|--------|


E|--------|--------|--------|--------|--------|--------|--------|--------|--------|
B|--------|--------|--------|--------|--------|--------|--------|--------|--------|
G|--------|--------|--------|--------|--------|--------|--------|--------|--------|
D|--------|--------|--------|--------|--------|--------|--------|--------|--------|
A|--------|--------|--------|--------|--------|--------|--------|--------|--------|
E|--------|--------|--------|--------|--------|--------|--------|--------|--------|


E|--------|--------|--------|--------|--------|--------|--------|--------|--------|
B|--------|--------|--------|--------|--------|--------|--------|--------|--------|
G|--------|--------|--------|--------|--------|--------|--------|--------|--------|
D|--------|--------|--------|--------|--------|--------|--------|--------|--------|
A|--------|--------|--------|--------|--------|--------|--------|--------|--------|
E|--------|--------|--------|--------|--------|--------|--------|--------|--------|


E|--------|--------|--------|---------------------------------------------|---------------------------------------------|
B|--------|--------|--------|----------0---------4---0-----0--------------|----0---------4---0-----0-----------------0--|
G|--------|--------|--------|-------3------3------------3-----3-----------|-3------3------------3-----3-----------3-----|
D|--------|--------|--------|-----------------6------------------6--------|-----------6------------------6--------------|
A|--------|--------|--------|----6-------------------------------------6--|------------------------------------6--------|
E|--------|--------|--------|-4-------------------------------------4-----|---------------------------------4-----------|


E|---------------------------------------------|----4--------------------------|-----------------|
B|----------4---0-----0-----------------0------|--------0-----4---0------------|-----------------|
G|----3------------3-----3-----------3------3--|-----------3---------3---------|-----------------|
D|-------6------------------6------------------|-6-----------------------------|-----------------|
A|--------------------------------6------------|-------------------------------|-----------------|
E|-----------------------------4---------------|-------------------------------|-----------------|


E|-----------------|-----------------|-----------------|-----------------|-----------------|
B|-----------------|-----------------|-----------------|-----------------|-----------------|
G|-----------------|-----------------|-----------------|-----------------|-----------------|
D|-----------------|-----------------|-----------------|-----------------|-----------------|
A|-----------------|-----------------|-----------------|-----------------|-----------------|
E|-----------------|-----------------|-----------------|-----------------|-----------------|


E|-----------------|--------|--------|--------|--------|--------|--------|--------|
B|-----------------|--------|--------|--------|--------|--------|--------|--------|
G|-----------------|--------|--------|--------|--------|--------|--------|--------|
D|-----------------|--------|--------|--------|--------|--------|--------|--------|
A|-----------------|--------|--------|--------|--------|--------|--------|--------|
E|-----------------|--------|--------|--------|--------|--------|--------|--------|


E|--------|--------|--------|--------|--------|--------|-------------------------------------------|
B|--------|--------|--------|--------|--------|--------|--------------0---------4---0-----0--------|
G|--------|--------|--------|--------|--------|--------|-----------3------3------------3-----3-----|
D|--------|--------|--------|--------|--------|--------|---------------------6------------------6--|
A|--------|--------|--------|--------|--------|--------|--------6----------------------------------|
E|--------|--------|--------|--------|--------|--------|-----4-------------------------------------|


E|---------------------------------------------|---------------------------------------------|
B|----------0---------4---0-----0--------------|----0---------4---0-----0-----------------0--|
G|-------3------3------------3-----3-----------|-3------3------------3-----3-----------3-----|
D|-----------------6------------------6--------|-----------6------------------6--------------|
A|----6-------------------------------------6--|------------------------------------6--------|
E|-4-------------------------------------4-----|---------------------------------4-----------|


E|----------4-------------------------|--------|--------|--------|--------|--------|
B|--------------0-----4---0-----------|--------|--------|--------|--------|--------|
G|----3------------3---------3--------|--------|--------|--------|--------|--------|
D|-------6----------------------------|--------|--------|--------|--------|--------|
A|------------------------------------|--------|--------|--------|--------|--------|
E|------------------------------------|--------|--------|--------|--------|--------|


E|--------|--------|--------|--------|--------|--------|--------|--------|--------|
B|--------|--------|--------|--------|--------|--------|--------|--------|--------|
G|--------|--------|--------|--------|--------|--------|--------|--------|--------|
D|--------|--------|--------|--------|--------|--------|--------|--------|--------|
A|--------|--------|--------|--------|--------|--------|--------|--------|--------|
E|--------|--------|--------|--------|--------|--------|--------|--------|--------|


E|--------|--------|--------|--------|--------|--------|--------|--------|--------|
B|--------|--------|--------|--------|--------|--------|--------|--------|--------|
G|--------|--------|--------|--------|--------|--------|--------|--------|--------|
D|--------|--------|--------|--------|--------|--------|--------|--------|--------|
A|--------|--------|--------|--------|--------|--------|--------|--------|--------|
E|--------|--------|--------|--------|--------|--------|--------|--------|--------|


E|--------|--------|--------|--------|--------|--------|--------|--------|--------|
B|--------|--------|--------|--------|--------|--------|--------|--------|--------|
G|--------|--------|--------|--------|--------|--------|--------|--------|--------|
D|--------|--------|--------|--------|--------|--------|--------|--------|--------|
A|--------|--------|--------|--------|--------|--------|--------|--------|--------|
E|--------|--------|--------|--------|--------|--------|--------|--------|--------|


E|--------|--------|--------|-------------|---------------------------|---------------------------|
B|--------|--------|--------|-------------|---------------------------|---------------------------|
G|--------|--------|--------|-------------|---------------------------|---------------------------|
D|--------|--------|--------|-------------|-6---4--------6---4--------|-6---4--------6---4--------|
A|--------|--------|--------|--------6----|----------6-----------4----|----------4-----------7----|
E|--------|--------|--------|-------------|---------------------------|---------------------------|


E|---------------------------|------------------------------|--------|--------|--------|
B|---------------------------|------------------------------|--------|--------|--------|
G|---------------------------|-------------4----------------|--------|--------|--------|
D|-6---4--------6---4--------|-6---4---7-------4------------|--------|--------|--------|
A|----------7-----------7----|---------------------6--------|--------|--------|--------|
E|---------------------------|------------------------------|--------|--------|--------|


E|--------|--------|--------|--------|--------|--------|--------|--------|--------|
B|--------|--------|--------|--------|--------|--------|--------|--------|--------|
G|--------|--------|--------|--------|--------|--------|--------|--------|--------|
D|--------|--------|--------|--------|--------|--------|--------|--------|--------|
A|--------|--------|--------|--------|--------|--------|--------|--------|--------|
E|--------|--------|--------|--------|--------|--------|--------|--------|--------|


E|--------|--------|--------|--------|--------|--------|--------|--------|--------|
B|--------|--------|--------|--------|--------|--------|--------|--------|--------|
G|--------|--------|--------|--------|--------|--------|--------|--------|--------|
D|--------|--------|--------|--------|--------|--------|--------|--------|--------|
A|--------|--------|--------|--------|--------|--------|--------|--------|--------|
E|--------|--------|--------|--------|--------|--------|--------|--------|--------|


E|--------|--------|--------|--------|--------|--------|--------|--------|--------|
B|--------|--------|--------|--------|--------|--------|--------|--------|--------|
G|--------|--------|--------|--------|--------|--------|--------|--------|--------|
D|--------|--------|--------|--------|--------|--------|--------|--------|--------|
A|--------|--------|--------|--------|--------|--------|--------|--------|--------|
E|--------|--------|--------|--------|--------|--------|--------|--------|--------|


E|--------|--------|--------|--------|--------|--------|--------|--------|--------|
B|--------|--------|--------|--------|--------|--------|--------|--------|--------|
G|--------|--------|--------|--------|--------|--------|--------|--------|--------|
D|--------|--------|--------|--------|--------|--------|--------|--------|--------|
A|--------|--------|--------|--------|--------|--------|--------|--------|--------|
E|--------|--------|--------|--------|--------|--------|--------|--------|--------|


E|--------|--------|--------|--------|--------|--------|--------|--------|--------|
B|--------|--------|--------|--------|--------|--------|--------|--------|--------|
G|--------|--------|--------|--------|--------|--------|--------|--------|--------|
D|--------|--------|--------|--------|--------|--------|--------|--------|--------|
A|--------|--------|--------|--------|--------|--------|--------|--------|--------|
E|--------|--------|--------|--------|--------|--------|--------|--------|--------|


E|--------|--------|--------|--------|--------|--------|--------|--------|--------|
B|--------|--------|--------|--------|--------|--------|--------|--------|--------|
G|--------|--------|--------|--------|--------|--------|--------|--------|--------|
D|--------|--------|--------|--------|--------|--------|--------|--------|--------|
A|--------|--------|--------|--------|--------|--------|--------|--------|--------|
E|--------|--------|--------|--------|--------|--------|--------|--------|--------|


E|--------|--------|--------|--------|--------|--------|--------|--------|--------|
B|--------|--------|--------|--------|--------|--------|--------|--------|--------|
G|--------|--------|--------|--------|--------|--------|--------|--------|--------|
D|--------|--------|--------|--------|--------|--------|--------|--------|--------|
A|--------|--------|--------|--------|--------|--------|--------|--------|--------|
E|--------|--------|--------|--------|--------|--------|--------|--------|--------|


E|--------|--------|--------|--------|--------|--------|--------|--------|--------|
B|--------|--------|--------|--------|--------|--------|--------|--------|--------|
G|--------|--------|--------|--------|--------|--------|--------|--------|--------|
D|--------|--------|--------|--------|--------|--------|--------|--------|--------|
A|--------|--------|--------|--------|--------|--------|--------|--------|--------|
E|--------|--------|--------|--------|--------|--------|--------|--------|--------|


E|--------|--------|--------|--------|--------|--------|--------|--------|--------|
B|--------|--------|--------|--------|--------|--------|--------|--------|--------|
G|--------|--------|--------|--------|--------|--------|--------|--------|--------|
D|--------|--------|--------|--------|--------|--------|--------|--------|--------|
A|--------|--------|--------|--------|--------|--------|--------|--------|--------|
E|--------|--------|--------|--------|--------|--------|--------|--------|--------|


E|--------|--------|--------|--------|--------|--------|--------|--------|--------|
B|--------|--------|--------|--------|--------|--------|--------|--------|--------|
G|--------|--------|--------|--------|--------|--------|--------|--------|--------|
D|--------|--------|--------|--------|--------|--------|--------|--------|--------|
A|--------|--------|--------|--------|--------|--------|--------|--------|--------|
E|--------|--------|--------|--------|--------|--------|--------|--------|--------|


E|--------|--------|--------|--------|--------|--------|--------|--------|--------|
B|--------|--------|--------|--------|--------|--------|--------|--------|--------|
G|--------|--------|--------|--------|--------|--------|--------|--------|--------|
D|--------|--------|--------|--------|--------|--------|--------|--------|--------|
A|--------|--------|--------|--------|--------|--------|--------|--------|--------|
E|--------|--------|--------|--------|--------|--------|--------|--------|--------|


E|--------|--------|--------|--------|--------|--------|--------|
B|--------|--------|--------|--------|--------|--------|--------|
G|--------|--------|--------|--------|--------|--------|--------|
D|--------|--------|--------|--------|--------|--------|--------|
A|--------|--------|--------|--------|--------|--------|--------|
E|--------|--------|--------|--------|--------|--------|--------|





Track 4: Clean Guitar

E|--------|--------|--------|--------|--------|--------|--------|--------|--------|
B|--------|--------|--------|--------|--------|--------|--------|--------|--------|
G|--------|--------|--------|--------|--------|--------|--------|--------|--------|
D|--------|--------|--------|--------|--------|--------|--------|--------|--------|
A|--------|--------|--------|--------|--------|--------|--------|--------|--------|
E|--------|--------|--------|--------|--------|--------|--------|--------|--------|


E|--------|--------|--------|--------|--------|--------|--------|--------|--------|
B|--------|--------|--------|--------|--------|--------|--------|--------|--------|
G|--------|--------|--------|--------|--------|--------|--------|--------|--------|
D|--------|--------|--------|--------|--------|--------|--------|--------|--------|
A|--------|--------|--------|--------|--------|--------|--------|--------|--------|
E|--------|--------|--------|--------|--------|--------|--------|--------|--------|


E|--------|--------|--------|--------|--------|--------|--------|--------|--------|
B|--------|--------|--------|--------|--------|--------|--------|--------|--------|
G|--------|--------|--------|--------|--------|--------|--------|--------|--------|
D|--------|--------|--------|--------|--------|--------|--------|--------|--------|
A|--------|--------|--------|--------|--------|--------|--------|--------|--------|
E|--------|--------|--------|--------|--------|--------|--------|--------|--------|


E|--------|--------|--------|--------|--------|--------|--------|--------|--------|
B|--------|--------|--------|--------|--------|--------|--------|--------|--------|
G|--------|--------|--------|--------|--------|--------|--------|--------|--------|
D|--------|--------|--------|--------|--------|--------|--------|--------|--------|
A|--------|--------|--------|--------|--------|--------|--------|--------|--------|
E|--------|--------|--------|--------|--------|--------|--------|--------|--------|


E|--------|--------|--------|--------|--------|-----------------------|---------------4-------------|
B|--------|--------|--------|--------|--------|--------------------4--|-----5----7--------4----5----|
G|--------|--------|--------|--------|--------|---------------6-------|-----------------------------|
D|--------|--------|--------|--------|--------|-----------------------|-----------------------------|
A|--------|--------|--------|--------|--------|-----------------------|-----------------------------|
E|--------|--------|--------|--------|--------|-----------------------|-----------------------------|


E|----------------------------|---------------4---7-----|-6--4------------------|----------------|
B|-4--5--4-----------------4--|-----5----7--------------|-------7---------------|----------------|
G|----------6---------6-------|-------------------------|-------------6----4----|-3--------------|
D|----------------------------|-------------------------|-----------------------|----------------|
A|----------------------------|-------------------------|-----------------------|----------------|
E|----------------------------|-------------------------|-----------------------|----------------|


E|--------|--------|--------|--------|--------|--------|--------|--------|--------|
B|--------|--------|--------|--------|--------|--------|--------|--------|--------|
G|--------|--------|--------|--------|--------|--------|--------|--------|--------|
D|--------|--------|--------|--------|--------|--------|--------|--------|--------|
A|--------|--------|--------|--------|--------|--------|--------|--------|--------|
E|--------|--------|--------|--------|--------|--------|--------|--------|--------|


E|--------|--------|--------|--------|--------|--------|--------|--------|--------|
B|--------|--------|--------|--------|--------|--------|--------|--------|--------|
G|--------|--------|--------|--------|--------|--------|--------|--------|--------|
D|--------|--------|--------|--------|--------|--------|--------|--------|--------|
A|--------|--------|--------|--------|--------|--------|--------|--------|--------|
E|--------|--------|--------|--------|--------|--------|--------|--------|--------|


E|--------|--------|--------|--------|--------|--------|--------|--------|--------|
B|--------|--------|--------|--------|--------|--------|--------|--------|--------|
G|--------|--------|--------|--------|--------|--------|--------|--------|--------|
D|--------|--------|--------|--------|--------|--------|--------|--------|--------|
A|--------|--------|--------|--------|--------|--------|--------|--------|--------|
E|--------|--------|--------|--------|--------|--------|--------|--------|--------|


E|--------|--------|--------|--------|--------|--------|--------|--------|--------|
B|--------|--------|--------|--------|--------|--------|--------|--------|--------|
G|--------|--------|--------|--------|--------|--------|--------|--------|--------|
D|--------|--------|--------|--------|--------|--------|--------|--------|--------|
A|--------|--------|--------|--------|--------|--------|--------|--------|--------|
E|--------|--------|--------|--------|--------|--------|--------|--------|--------|


E|--------|--------|--------|--------|--------|--------|--------|--------|--------|
B|--------|--------|--------|--------|--------|--------|--------|--------|--------|
G|--------|--------|--------|--------|--------|--------|--------|--------|--------|
D|--------|--------|--------|--------|--------|--------|--------|--------|--------|
A|--------|--------|--------|--------|--------|--------|--------|--------|--------|
E|--------|--------|--------|--------|--------|--------|--------|--------|--------|


E|--------|--------|--------|--------|--------|--------|--------|--------|--------|
B|--------|--------|--------|--------|--------|--------|--------|--------|--------|
G|--------|--------|--------|--------|--------|--------|--------|--------|--------|
D|--------|--------|--------|--------|--------|--------|--------|--------|--------|
A|--------|--------|--------|--------|--------|--------|--------|--------|--------|
E|--------|--------|--------|--------|--------|--------|--------|--------|--------|


E|--------|--------|--------|--------|--------|--------|--------|--------|--------|
B|--------|--------|--------|--------|--------|--------|--------|--------|--------|
G|--------|--------|--------|--------|--------|--------|--------|--------|--------|
D|--------|--------|--------|--------|--------|--------|--------|--------|--------|
A|--------|--------|--------|--------|--------|--------|--------|--------|--------|
E|--------|--------|--------|--------|--------|--------|--------|--------|--------|


E|--------|--------|--------|--------|--------|--------|--------|--------|--------|
B|--------|--------|--------|--------|--------|--------|--------|--------|--------|
G|--------|--------|--------|--------|--------|--------|--------|--------|--------|
D|--------|--------|--------|--------|--------|--------|--------|--------|--------|
A|--------|--------|--------|--------|--------|--------|--------|--------|--------|
E|--------|--------|--------|--------|--------|--------|--------|--------|--------|


E|--------|--------|--------|--------|--------|--------|--------|--------|--------|
B|--------|--------|--------|--------|--------|--------|--------|--------|--------|
G|--------|--------|--------|--------|--------|--------|--------|--------|--------|
D|--------|--------|--------|--------|--------|--------|--------|--------|--------|
A|--------|--------|--------|--------|--------|--------|--------|--------|--------|
E|--------|--------|--------|--------|--------|--------|--------|--------|--------|


E|--------|--------|--------|--------|--------|--------|--------|--------|--------|
B|--------|--------|--------|--------|--------|--------|--------|--------|--------|
G|--------|--------|--------|--------|--------|--------|--------|--------|--------|
D|--------|--------|--------|--------|--------|--------|--------|--------|--------|
A|--------|--------|--------|--------|--------|--------|--------|--------|--------|
E|--------|--------|--------|--------|--------|--------|--------|--------|--------|


E|--------|--------|--------|--------|--------|--------|--------|--------|--------|
B|--------|--------|--------|--------|--------|--------|--------|--------|--------|
G|--------|--------|--------|--------|--------|--------|--------|--------|--------|
D|--------|--------|--------|--------|--------|--------|--------|--------|--------|
A|--------|--------|--------|--------|--------|--------|--------|--------|--------|
E|--------|--------|--------|--------|--------|--------|--------|--------|--------|


E|--------|--------|--------|--------|--------|--------|--------|--------|--------|
B|--------|--------|--------|--------|--------|--------|--------|--------|--------|
G|--------|--------|--------|--------|--------|--------|--------|--------|--------|
D|--------|--------|--------|--------|--------|--------|--------|--------|--------|
A|--------|--------|--------|--------|--------|--------|--------|--------|--------|
E|--------|--------|--------|--------|--------|--------|--------|--------|--------|


E|--------|--------|--------|--------|--------|--------|--------|--------|--------|
B|--------|--------|--------|--------|--------|--------|--------|--------|--------|
G|--------|--------|--------|--------|--------|--------|--------|--------|--------|
D|--------|--------|--------|--------|--------|--------|--------|--------|--------|
A|--------|--------|--------|--------|--------|--------|--------|--------|--------|
E|--------|--------|--------|--------|--------|--------|--------|--------|--------|


E|--------|--------|--------|--------|--------|--------|--------|--------|--------|
B|--------|--------|--------|--------|--------|--------|--------|--------|--------|
G|--------|--------|--------|--------|--------|--------|--------|--------|--------|
D|--------|--------|--------|--------|--------|--------|--------|--------|--------|
A|--------|--------|--------|--------|--------|--------|--------|--------|--------|
E|--------|--------|--------|--------|--------|--------|--------|--------|--------|


E|--------|--------|--------|--------|--------|--------|--------|--------|--------|
B|--------|--------|--------|--------|--------|--------|--------|--------|--------|
G|--------|--------|--------|--------|--------|--------|--------|--------|--------|
D|--------|--------|--------|--------|--------|--------|--------|--------|--------|
A|--------|--------|--------|--------|--------|--------|--------|--------|--------|
E|--------|--------|--------|--------|--------|--------|--------|--------|--------|


E|--------|--------|--------|--------|--------|--------|--------|--------|--------|
B|--------|--------|--------|--------|--------|--------|--------|--------|--------|
G|--------|--------|--------|--------|--------|--------|--------|--------|--------|
D|--------|--------|--------|--------|--------|--------|--------|--------|--------|
A|--------|--------|--------|--------|--------|--------|--------|--------|--------|
E|--------|--------|--------|--------|--------|--------|--------|--------|--------|


E|--------|--------|--------|--------|--------|--------|--------|--------|--------|
B|--------|--------|--------|--------|--------|--------|--------|--------|--------|
G|--------|--------|--------|--------|--------|--------|--------|--------|--------|
D|--------|--------|--------|--------|--------|--------|--------|--------|--------|
A|--------|--------|--------|--------|--------|--------|--------|--------|--------|
E|--------|--------|--------|--------|--------|--------|--------|--------|--------|


E|--------|--------|--------|--------|--------|--------|--------|
B|--------|--------|--------|--------|--------|--------|--------|
G|--------|--------|--------|--------|--------|--------|--------|
D|--------|--------|--------|--------|--------|--------|--------|
A|--------|--------|--------|--------|--------|--------|--------|
E|--------|--------|--------|--------|--------|--------|--------|





Track 5: Distortion (Rhythm)

E|--------|--------|--------|--------|--------|--------|--------|--------|--------|
B|--------|--------|--------|--------|--------|--------|--------|--------|--------|
G|--------|--------|--------|--------|--------|--------|--------|--------|--------|
D|--------|--------|--------|--------|--------|--------|--------|--------|--------|
A|--------|--------|--------|--------|--------|--------|--------|--------|--------|
E|--------|--------|--------|--------|--------|--------|--------|--------|--------|


E|--------|--------|--------|--------|--------|--------|--------|--------|--------|
B|--------|--------|--------|--------|--------|--------|--------|--------|--------|
G|--------|--------|--------|--------|--------|--------|--------|--------|--------|
D|--------|--------|--------|--------|--------|--------|--------|--------|--------|
A|--------|--------|--------|--------|--------|--------|--------|--------|--------|
E|--------|--------|--------|--------|--------|--------|--------|--------|--------|


E|--------|--------|--------|--------|--------|--------|--------|--------|--------|
B|--------|--------|--------|--------|--------|--------|--------|--------|--------|
G|--------|--------|--------|--------|--------|--------|--------|--------|--------|
D|--------|--------|--------|--------|--------|--------|--------|--------|--------|
A|--------|--------|--------|--------|--------|--------|--------|--------|--------|
E|--------|--------|--------|--------|--------|--------|--------|--------|--------|


E|--------|--------|--------|--------|--------|--------|--------|--------|--------|
B|--------|--------|--------|--------|--------|--------|--------|--------|--------|
G|--------|--------|--------|--------|--------|--------|--------|--------|--------|
D|--------|--------|--------|--------|--------|--------|--------|--------|--------|
A|--------|--------|--------|--------|--------|--------|--------|--------|--------|
E|--------|--------|--------|--------|--------|--------|--------|--------|--------|


E|--------|--------|--------|--------|--------|--------|--------|--------|--------|
B|--------|--------|--------|--------|--------|--------|--------|--------|--------|
G|--------|--------|--------|--------|--------|--------|--------|--------|--------|
D|--------|--------|--------|--------|--------|--------|--------|--------|--------|
A|--------|--------|--------|--------|--------|--------|--------|--------|--------|
E|--------|--------|--------|--------|--------|--------|--------|--------|--------|


E|--------|--------|--------|--------|--------|--------|--------|--------|--------|
B|--------|--------|--------|--------|--------|--------|--------|--------|--------|
G|--------|--------|--------|--------|--------|--------|--------|--------|--------|
D|--------|--------|--------|--------|--------|--------|--------|--------|--------|
A|--------|--------|--------|--------|--------|--------|--------|--------|--------|
E|--------|--------|--------|--------|--------|--------|--------|--------|--------|


E|--------|--------|--------|------------------|-------------------------------|-------------------------------------|
B|--------|--------|--------|------------------|-------------------------------|----------------------------------9--|
G|--------|--------|--------|--------6--8---8--|----8--8---8-------------------|----------------------------------9--|
D|--------|--------|--------|--------4--6---6--|----6--6---6----------------8--|-------8---8----8-----------------9--|
A|--------|--------|--------|------------------|-----------------4--5--6----6--|----6--6---6----6--4--6---6----------|
E|--------|--------|--------|------------------|-------------------------------|-----------------------------0-------|


E|-------------------------------------|----------------------2-----------------|-------------------------------|
B|------------9---------------------4--|--------------------------2-------------|-------------------------------|
G|----9-------9---------------------4--|------------------------------6--8---8--|----8--8---8-------------------|
D|----9-------9---9--11-9-----------4--|----6-4------------4----------4--6---6--|----6--6---6----------------8--|
A|-------------------------11--6-------|--------6-------4-----------------------|-----------------4--5--6----6--|
E|-------9-----------------------------|------------2---------------------------|-------------------------------|


E|-------------------------------------|-------------------------------------|---------------------------------|
B|----------------------------------9--|------------9---------------------4--|-------------------------12------|
G|----------------------------------9--|----9-------9---------------------4--|--------------------8---------8--|
D|-------8---8----8-----------------9--|----9-------9---9--11-9-----------4--|----6-4---------8--------9-------|
A|----6--6---6----6--4--6---6----------|-------------------------11--6-------|--------6---6-----------------6--|
E|-----------------------------0-------|-------9-----------------------------|---------------------------------|


E|-----------------------|-----------------------|---------------------------|-----------------------------|
B|-----------12--11------|-----------11--9-------|---------------9---7-------|---------------9--11-12------|
G|-8-----8------------8--|-8-----8------------4--|-----8---6--------------8--|-----4---6----------------8--|
D|-----------9---8-------|-----------8---6-------|---------------6---4-------|---------------6--8--9-------|
A|-6-----6------------6--|-6-----6------------2--|-----6---4--------------6--|-----2---4----------------6--|
E|-----------------------|-----------------------|---------------------------|-----------------------------|


E|-----------------------|-----------------------|---------------------------|------------------------|
B|-----------12--11------|-----------11--9-------|---------------9---7-------|------------------------|
G|-8-----8------------8--|-8-----8------------4--|-----8---6--------------8--|-----4---3----8----8----|
D|-----------9---8-------|-----------8---6-------|---------------6---4-------|------------------------|
A|-6-----6------------6--|-6-----6------------2--|-----6---4--------------6--|-----2---1----6----9----|
E|-----------------------|-----------------------|---------------------------|------------------------|


E|-------------|-----------------|-----------------|-----------------|-------------|
B|-------------|-----------------|-----------------|-----------------|-------------|
G|--------8----|------6-----6----|------4-----4----|-3----1-----8----|--------8----|
D|-------------|-----------------|-----------------|-----------------|-------------|
A|--------7----|------------6----|-----------------|-----------------|--------7----|
E|-------------|-----------------|------------4----|------------2----|-------------|


E|-----------------|-----------------|-----------------|--------|--------|--------|
B|-----------------|-----------------|-----------------|--------|--------|--------|
G|------6-----6----|------4-----3----|------3----------|--------|--------|--------|
D|-----------------|-----------------|-----------------|--------|--------|--------|
A|------------6----|------------13---|-----------------|--------|--------|--------|
E|-----------------|------------11---|------3----------|--------|--------|--------|


E|--------|--------|--------|--------|--------|--------|--------|--------|--------|
B|--------|--------|--------|--------|--------|--------|--------|--------|--------|
G|--------|--------|--------|--------|--------|--------|--------|--------|--------|
D|--------|--------|--------|--------|--------|--------|--------|--------|--------|
A|--------|--------|--------|--------|--------|--------|--------|--------|--------|
E|--------|--------|--------|--------|--------|--------|--------|--------|--------|


E|--------|--------|--------|--------|--------|--------|--------|--------|--------|
B|--------|--------|--------|--------|--------|--------|--------|--------|--------|
G|--------|--------|--------|--------|--------|--------|--------|--------|--------|
D|--------|--------|--------|--------|--------|--------|--------|--------|--------|
A|--------|--------|--------|--------|--------|--------|--------|--------|--------|
E|--------|--------|--------|--------|--------|--------|--------|--------|--------|


E|--------|--------|--------|--------|--------|--------|--------|--------|--------|
B|--------|--------|--------|--------|--------|--------|--------|--------|--------|
G|--------|--------|--------|--------|--------|--------|--------|--------|--------|
D|--------|--------|--------|--------|--------|--------|--------|--------|--------|
A|--------|--------|--------|--------|--------|--------|--------|--------|--------|
E|--------|--------|--------|--------|--------|--------|--------|--------|--------|


E|--------|--------|--------|--------|--------|--------|--------|--------|--------|
B|--------|--------|--------|--------|--------|--------|--------|--------|--------|
G|--------|--------|--------|--------|--------|--------|--------|--------|--------|
D|--------|--------|--------|--------|--------|--------|--------|--------|--------|
A|--------|--------|--------|--------|--------|--------|--------|--------|--------|
E|--------|--------|--------|--------|--------|--------|--------|--------|--------|


E|--------23---|-----23----24----24--|------24-----|-------------|--------|-------------|
B|-------------|---------------------|-------------|-------------|--------|-------------|
G|-------------|---------------------|-------------|-------------|--------|-------------|
D|-------------|---------------------|-------------|-------------|--------|-------------|
A|-------------|---------------------|-------------|-------------|--------|-------------|
E|-------------|---------------------|-------------|-------------|--------|-------------|


E|-------------|--------|------------------------------------|--------------------------------------|
B|-------------|--------|--------------------------------9---|-10------------------------9--10-12---|
G|-------------|--------|---------------------8--9---11------|------------------8--9--11------------|
D|-------------|--------|------------7--9--11----------------|---------7--9--11---------------------|
A|-------------|--------|---------7--------------------------|--------------------------------------|
E|-------------|--------|------------------------------------|--------------------------------------|


E|-------------------------9--11-----------------------------|-9--11-12-11-12-14-16----20---20-21-|
B|----------------9--10-12-----------------9--10-12-9--10-12-|------------------------------------|
G|-------8--9--11-----------------8--9--11-------------------|------------------------------------|
D|-9--11-----------------------------------------------------|------------------------------------|
A|-----------------------------------------------------------|------------------------------------|
E|-----------------------------------------------------------|------------------------------------|


E|-21-16-16-12-12----------------------------------|-------------|--------|--------|
B|----------------14-14----------------------------|-------------|--------|--------|
G|----------------------13-13----------------------|-------------|--------|--------|
D|----------------------------14-14-11-11----------|-------------|--------|--------|
A|----------------------------------------11-11----|-13----12----|-12-----|--------|
E|----------------------------------------------12-|-------------|--------|--------|


E|--------|--------|--------|--------|--------|--------|--------|--------|----------------------|
B|--------|--------|--------|--------|--------|--------|--------|--------|----------------------|
G|--------|--------|--------|--------|--------|--------|--------|--------|----------------------|
D|--------|--------|--------|--------|--------|--------|--------|-6------|----------------------|
A|--------|--------|--------|--------|--------|--------|--------|-6------|------8---6-----4--6--|
E|--------|--------|--------|--------|--------|--------|--------|-4------|-3--------------------|


E|-----------------|-----------------|--------|----------------------|-----------------|
B|-----------------|-----------------|--------|----------------------|-----------------|
G|-9---------6-----|-4---------3-----|--------|----------------------|-9---------6-----|
D|-9---------6-----|-4---------4-----|-6------|----------------------|-9---------6-----|
A|-7-----6---4-----|-6---------4-----|-6------|------8---6-----4--6--|-7-----6---4-----|
E|-----------------|-------0---2-----|-4------|-3--------------------|-----------------|


E|-------------|----------------0----|---------------------|-------------|-----------------------|
B|-------------|----------------0----|---------------------|-------------|-----------------------|
G|-4-----8-----|-9--------------6----|-4---------3-----3---|-3-----3-----|-----------------------|
D|-4-----8-----|-9--------------6----|-4---------4-----4---|-4-----4-----|-----------------------|
A|-6-----6-----|-7-----7---4---------|-6---------4-----4---|-4-----4-----|-----------------------|
E|-------------|---------------------|-------0---2-----2---|-2-----2-----|-9---7---5---3---4-----|


E|---------------------|-------------------|-----------------|-----------------|---------------------|
B|---------------------|-------------------|-----------------|-----------------|---------------------|
G|---------------------|-------------------|-----------------|-----------------|---------------------|
D|---------------------|-------------------|-------8---6-----|-----------------|---------------------|
A|---------------------|-4-----------------|-2-----6---4-----|-----------------|---------------------|
E|-6----7----6-----7---|-------7--6--4-----|-0---------------|-7----6----4-----|-6----7----6-----7---|


E|-------------------|-------------|-------------|---------------------|-------------------|
B|-------------------|-------------|-------------|---------------------|-------------------|
G|-------------------|-------------|-------------|---------------------|-------------------|
D|-------------------|-4-----2-----|-4-----------|---------------------|-------------------|
A|-4-----------------|-4-----2-----|-4-----------|---------------------|-4-----------------|
E|-------7--6--4-----|-2-----0-----|-2-----4-----|-6----7----6-----7---|-------7--6--4-----|


E|-----------------|-----------------|---------------------|-------------------|-----------------|
B|-----------------|-----------------|---------------------|-------------------|-----------------|
G|-----------------|-----------------|---------------------|-------------------|-----------------|
D|-------8---6-----|-----------------|---------------------|-------------------|-------8---6-----|
A|-2-----6---4-----|-----------------|---------------------|-------------------|-2-----6---4-----|
E|-0---------------|-7----6----4-----|-6----7----6-----7---|-3-----4--6--4-----|-0---------------|


E|-------------|---------------------|-------------------|-----------------|-----------------|
B|-------------|---------------------|-------------------|-----------------|-----------------|
G|-------------|---------------------|-------------------|-----------------|-----------------|
D|-8-----------|---------------------|-------------------|-------8---6-----|-----------------|
A|-6-----------|---------------------|-4-----------------|-2-----6---4-----|-----------------|
E|-------4-----|-6----7----6-----7---|-------7--6--4-----|-0---------------|-7----6----4-----|


E|---------------------|-------------------|-------------|-------------|---------------------|
B|---------------------|-------------------|-------------|-------------|---------------------|
G|---------------------|-------------------|-------------|-------------|---------------------|
D|---------------------|-------------------|-4-----2-----|-4-----------|---------------------|
A|---------------------|-4-----------------|-4-----2-----|-4-----------|---------------------|
E|-6----7----6-----7---|-------7--6--4-----|-2-----0-----|-2-----4-----|-6----7----6-----7---|


E|-------------------|-----------------|-----------------|---------------------|-------------------|
B|-------------------|-----------------|-----------------|---------------------|-------------------|
G|-------------------|-----------------|-----------------|---------------------|-------------------|
D|-------------------|-------8---6-----|-----------------|---------------------|-------------------|
A|-4-----------------|-2-----6---4-----|-----------------|---------------------|-------------------|
E|-------7--6--4-----|-0---------------|-7----6----4-----|-6----7----6-----4---|-3-----4--6--4-----|


E|-----------------|-------------|---------------------|-------------------|-----------------|
B|-----------------|-------------|---------------------|-------------------|-----------------|
G|-----------------|-------------|---------------------|-6-----------------|-9-----8---6-----|
D|-------8---6-----|-8-----6-----|-8----9----8-----9---|-------9--8--6-----|-------8---6-----|
A|-2-----6---4-----|-6-----------|---------------------|-4-----------------|-2-----6---4-----|
E|-0---------------|-------4-----|-6----7----6-----7---|-------7--6--4-----|-0---------------|


E|-----------------|---------------------|-------------------|-------------|-------------|
B|-----------------|---------------------|-------------------|-------------|-------------|
G|-----------------|---------------------|-6-----------------|-6-----4-----|-6-----------|
D|-9----8----6-----|-8----9----8-----9---|-------9--8--6-----|-4-----2-----|-4-----6-----|
A|-----------------|---------------------|-4-----------------|-4-----2-----|-4-----------|
E|-7----6----4-----|-6----7----6-----7---|-------7--6--4-----|-2-----0-----|-2-----4-----|


E|---------------------|-------------------|-----------------|-----------------|---------------------|
B|---------------------|-------------------|-----------------|-----------------|---------------------|
G|---------------------|-6-----------------|-9-----8---6-----|-----------------|---------------------|
D|-8----9----8-----9---|-------9--8--6-----|-------8---6-----|-9----8----6-----|-8----9----8-----6---|
A|---------------------|-4-----------------|-2-----6---4-----|-----------------|---------------------|
E|-6----7----6-----7---|-------7--6--4-----|-0---------------|-7----6----4-----|-6----7----6-----4---|


E|-------------------|-----------------|-------------|---------------------|-----------------------|
B|-------------------|-----------------|-------------|---------------------|-----------------------|
G|-------------------|-------8---6-----|-8-----------|---------------------|-6---------------------|
D|-5-----6--8--6-----|-2-----8---6-----|-8-----6-----|-8----9----8-----9---|-------9--8--6---------|
A|-------------------|-2-----6---4-----|-6-----------|---------------------|-4---------------------|
E|-3-----4--6--4-----|-0---------------|-------4-----|-6----7----6-----7---|-------7--6--4---------|


E|-------------|
B|-------------|
G|-------------|
D|-------------|
A|-------------|
E|-------------|





Track 6: Acoustic Guitar

E|--------|--------|--------|--------|--------|--------|--------|--------|--------|
B|--------|--------|--------|--------|--------|--------|--------|--------|--------|
G|--------|--------|--------|--------|--------|--------|--------|--------|--------|
D|--------|--------|--------|--------|--------|--------|--------|--------|--------|
A|--------|--------|--------|--------|--------|--------|--------|--------|--------|
E|--------|--------|--------|--------|--------|--------|--------|--------|--------|


E|--------|--------|--------|--------|--------|--------|--------|--------|--------|
B|--------|--------|--------|--------|--------|--------|--------|--------|--------|
G|--------|--------|--------|--------|--------|--------|--------|--------|--------|
D|--------|--------|--------|--------|--------|--------|--------|--------|--------|
A|--------|--------|--------|--------|--------|--------|--------|--------|--------|
E|--------|--------|--------|--------|--------|--------|--------|--------|--------|


E|--------|--------|--------|--------|--------|--------|--------|--------|--------|
B|--------|--------|--------|--------|--------|--------|--------|--------|--------|
G|--------|--------|--------|--------|--------|--------|--------|--------|--------|
D|--------|--------|--------|--------|--------|--------|--------|--------|--------|
A|--------|--------|--------|--------|--------|--------|--------|--------|--------|
E|--------|--------|--------|--------|--------|--------|--------|--------|--------|


E|--------|--------|--------|--------|--------|--------|--------|--------|--------|
B|--------|--------|--------|--------|--------|--------|--------|--------|--------|
G|--------|--------|--------|--------|--------|--------|--------|--------|--------|
D|--------|--------|--------|--------|--------|--------|--------|--------|--------|
A|--------|--------|--------|--------|--------|--------|--------|--------|--------|
E|--------|--------|--------|--------|--------|--------|--------|--------|--------|


E|--------|--------|--------|--------|--------|--------|--------|--------|--------|
B|--------|--------|--------|--------|--------|--------|--------|--------|--------|
G|--------|--------|--------|--------|--------|--------|--------|--------|--------|
D|--------|--------|--------|--------|--------|--------|--------|--------|--------|
A|--------|--------|--------|--------|--------|--------|--------|--------|--------|
E|--------|--------|--------|--------|--------|--------|--------|--------|--------|


E|--------|--------|--------|--------|--------|--------|--------|--------|--------|
B|--------|--------|--------|--------|--------|--------|--------|--------|--------|
G|--------|--------|--------|--------|--------|--------|--------|--------|--------|
D|--------|--------|--------|--------|--------|--------|--------|--------|--------|
A|--------|--------|--------|--------|--------|--------|--------|--------|--------|
E|--------|--------|--------|--------|--------|--------|--------|--------|--------|


E|--------|--------|--------|--------|--------|--------|--------|--------|--------|
B|--------|--------|--------|--------|--------|--------|--------|--------|--------|
G|--------|--------|--------|--------|--------|--------|--------|--------|--------|
D|--------|--------|--------|--------|--------|--------|--------|--------|--------|
A|--------|--------|--------|--------|--------|--------|--------|--------|--------|
E|--------|--------|--------|--------|--------|--------|--------|--------|--------|


E|-------------|-------------|--------|--------|--------|--------|--------|--------|
B|-------------|-------------|--------|--------|--------|--------|--------|--------|
G|-------------|-------------|--------|--------|--------|--------|--------|--------|
D|-------------|-------------|--------|--------|--------|--------|--------|--------|
A|-------------|-------------|--------|--------|--------|--------|--------|--------|
E|-------------|-------------|--------|--------|--------|--------|--------|--------|


E|--------|--------|--------|--------|--------|--------|--------|--------|--------|
B|--------|--------|--------|--------|--------|--------|--------|--------|--------|
G|--------|--------|--------|--------|--------|--------|--------|--------|--------|
D|--------|--------|--------|--------|--------|--------|--------|--------|--------|
A|--------|--------|--------|--------|--------|--------|--------|--------|--------|
E|--------|--------|--------|--------|--------|--------|--------|--------|--------|


E|--------|--------|--------|--------|--------|--------|--------|--------|--------|
B|--------|--------|--------|--------|--------|--------|--------|--------|--------|
G|--------|--------|--------|--------|--------|--------|--------|--------|--------|
D|--------|--------|--------|--------|--------|--------|--------|--------|--------|
A|--------|--------|--------|--------|--------|--------|--------|--------|--------|
E|--------|--------|--------|--------|--------|--------|--------|--------|--------|


E|--------|--------|--------|--------|--------|--------|--------|--------|--------|
B|--------|--------|--------|--------|--------|--------|--------|--------|--------|
G|--------|--------|--------|--------|--------|--------|--------|--------|--------|
D|--------|--------|--------|--------|--------|--------|--------|--------|--------|
A|--------|--------|--------|--------|--------|--------|--------|--------|--------|
E|--------|--------|--------|--------|--------|--------|--------|--------|--------|


E|--------|--------|--------|--------|--------|--------|--------|--------|--------|
B|--------|--------|--------|--------|--------|--------|--------|--------|--------|
G|--------|--------|--------|--------|--------|--------|--------|--------|--------|
D|--------|--------|--------|--------|--------|--------|--------|--------|--------|
A|--------|--------|--------|--------|--------|--------|--------|--------|--------|
E|--------|--------|--------|--------|--------|--------|--------|--------|--------|


E|--------|--------|--------|--------|--------|--------|--------|--------|--------|
B|--------|--------|--------|--------|--------|--------|--------|--------|--------|
G|--------|--------|--------|--------|--------|--------|--------|--------|--------|
D|--------|--------|--------|--------|--------|--------|--------|--------|--------|
A|--------|--------|--------|--------|--------|--------|--------|--------|--------|
E|--------|--------|--------|--------|--------|--------|--------|--------|--------|


E|--------|--------|--------|--------|--------|--------|--------|--------|--------|
B|--------|--------|--------|--------|--------|--------|--------|--------|--------|
G|--------|--------|--------|--------|--------|--------|--------|--------|--------|
D|--------|--------|--------|--------|--------|--------|--------|--------|--------|
A|--------|--------|--------|--------|--------|--------|--------|--------|--------|
E|--------|--------|--------|--------|--------|--------|--------|--------|--------|


E|--------|--------|--------|--------|--------|--------|--------|--------|--------|
B|--------|--------|--------|--------|--------|--------|--------|--------|--------|
G|--------|--------|--------|--------|--------|--------|--------|--------|--------|
D|--------|--------|--------|--------|--------|--------|--------|--------|--------|
A|--------|--------|--------|--------|--------|--------|--------|--------|--------|
E|--------|--------|--------|--------|--------|--------|--------|--------|--------|


E|--------|--------|--------|--------|--------|--------|--------|--------|--------|
B|--------|--------|--------|--------|--------|--------|--------|--------|--------|
G|--------|--------|--------|--------|--------|--------|--------|--------|--------|
D|--------|--------|--------|--------|--------|--------|--------|--------|--------|
A|--------|--------|--------|--------|--------|--------|--------|--------|--------|
E|--------|--------|--------|--------|--------|--------|--------|--------|--------|


E|--------|--------|--------|--------|--------|--------|--------|--------|--------|
B|--------|--------|--------|--------|--------|--------|--------|--------|--------|
G|--------|--------|--------|--------|--------|--------|--------|--------|--------|
D|--------|--------|--------|--------|--------|--------|--------|--------|--------|
A|--------|--------|--------|--------|--------|--------|--------|--------|--------|
E|--------|--------|--------|--------|--------|--------|--------|--------|--------|


E|--------|--------|--------|--------|--------|--------|--------|--------|--------|
B|--------|--------|--------|--------|--------|--------|--------|--------|--------|
G|--------|--------|--------|--------|--------|--------|--------|--------|--------|
D|--------|--------|--------|--------|--------|--------|--------|--------|--------|
A|--------|--------|--------|--------|--------|--------|--------|--------|--------|
E|--------|--------|--------|--------|--------|--------|--------|--------|--------|


E|--------|--------|--------|--------|--------|--------|--------|--------|--------|
B|--------|--------|--------|--------|--------|--------|--------|--------|--------|
G|--------|--------|--------|--------|--------|--------|--------|--------|--------|
D|--------|--------|--------|--------|--------|--------|--------|--------|--------|
A|--------|--------|--------|--------|--------|--------|--------|--------|--------|
E|--------|--------|--------|--------|--------|--------|--------|--------|--------|


E|--------|--------|--------|--------|--------|--------|--------|--------|--------|
B|--------|--------|--------|--------|--------|--------|--------|--------|--------|
G|--------|--------|--------|--------|--------|--------|--------|--------|--------|
D|--------|--------|--------|--------|--------|--------|--------|--------|--------|
A|--------|--------|--------|--------|--------|--------|--------|--------|--------|
E|--------|--------|--------|--------|--------|--------|--------|--------|--------|


E|--------|--------|--------|--------|--------|--------|--------|--------|--------|
B|--------|--------|--------|--------|--------|--------|--------|--------|--------|
G|--------|--------|--------|--------|--------|--------|--------|--------|--------|
D|--------|--------|--------|--------|--------|--------|--------|--------|--------|
A|--------|--------|--------|--------|--------|--------|--------|--------|--------|
E|--------|--------|--------|--------|--------|--------|--------|--------|--------|


E|--------|--------|--------|--------|--------|--------|--------|--------|--------|
B|--------|--------|--------|--------|--------|--------|--------|--------|--------|
G|--------|--------|--------|--------|--------|--------|--------|--------|--------|
D|--------|--------|--------|--------|--------|--------|--------|--------|--------|
A|--------|--------|--------|--------|--------|--------|--------|--------|--------|
E|--------|--------|--------|--------|--------|--------|--------|--------|--------|


E|--------|--------|--------|--------|--------|--------|--------|--------|--------|
B|--------|--------|--------|--------|--------|--------|--------|--------|--------|
G|--------|--------|--------|--------|--------|--------|--------|--------|--------|
D|--------|--------|--------|--------|--------|--------|--------|--------|--------|
A|--------|--------|--------|--------|--------|--------|--------|--------|--------|
E|--------|--------|--------|--------|--------|--------|--------|--------|--------|


E|--------|
B|--------|
G|--------|
D|--------|
A|--------|
E|--------|





Track 7: Distortion (Lead)

E|--------|--------|--------|--------|--------|--------|--------|--------|--------|
B|--------|--------|--------|--------|--------|--------|--------|--------|--------|
G|--------|--------|--------|--------|--------|--------|--------|--------|--------|
D|--------|--------|--------|--------|--------|--------|--------|--------|--------|
A|--------|--------|--------|--------|--------|--------|--------|--------|--------|
E|--------|--------|--------|--------|--------|--------|--------|--------|--------|


E|--------|--------|--------|--------|--------|--------|--------|--------|--------|
B|--------|--------|--------|--------|--------|--------|--------|--------|--------|
G|--------|--------|--------|--------|--------|--------|--------|--------|--------|
D|--------|--------|--------|--------|--------|--------|--------|--------|--------|
A|--------|--------|--------|--------|--------|--------|--------|--------|--------|
E|--------|--------|--------|--------|--------|--------|--------|--------|--------|


E|--------|--------|--------|--------|--------|--------|--------|--------|--------|
B|--------|--------|--------|--------|--------|--------|--------|--------|--------|
G|--------|--------|--------|--------|--------|--------|--------|--------|--------|
D|--------|--------|--------|--------|--------|--------|--------|--------|--------|
A|--------|--------|--------|--------|--------|--------|--------|--------|--------|
E|--------|--------|--------|--------|--------|--------|--------|--------|--------|


E|--------|--------|--------|--------|--------|--------|--------|--------|--------|
B|--------|--------|--------|--------|--------|--------|--------|--------|--------|
G|--------|--------|--------|--------|--------|--------|--------|--------|--------|
D|--------|--------|--------|--------|--------|--------|--------|--------|--------|
A|--------|--------|--------|--------|--------|--------|--------|--------|--------|
E|--------|--------|--------|--------|--------|--------|--------|--------|--------|


E|--------|--------|--------|--------|--------|--------|--------|--------|--------|
B|--------|--------|--------|--------|--------|--------|--------|--------|--------|
G|--------|--------|--------|--------|--------|--------|--------|--------|--------|
D|--------|--------|--------|--------|--------|--------|--------|--------|--------|
A|--------|--------|--------|--------|--------|--------|--------|--------|--------|
E|--------|--------|--------|--------|--------|--------|--------|--------|--------|


E|--------|--------|--------|--------|--------|--------|--------|--------|--------|
B|--------|--------|--------|--------|--------|--------|--------|--------|--------|
G|--------|--------|--------|--------|--------|--------|--------|--------|--------|
D|--------|--------|--------|--------|--------|--------|--------|--------|--------|
A|--------|--------|--------|--------|--------|--------|--------|--------|--------|
E|--------|--------|--------|--------|--------|--------|--------|--------|--------|


E|--------|--------|--------|--------|--------|--------|--------|--------|--------|
B|--------|--------|--------|--------|--------|--------|--------|--------|--------|
G|--------|--------|--------|--------|--------|--------|--------|--------|--------|
D|--------|--------|--------|--------|--------|--------|--------|--------|--------|
A|--------|--------|--------|--------|--------|--------|--------|--------|--------|
E|--------|--------|--------|--------|--------|--------|--------|--------|--------|


E|--------|--------|--------|--------|--------|--------|--------|--------|--------|
B|--------|--------|--------|--------|--------|--------|--------|--------|--------|
G|--------|--------|--------|--------|--------|--------|--------|--------|--------|
D|--------|--------|--------|--------|--------|--------|--------|--------|--------|
A|--------|--------|--------|--------|--------|--------|--------|--------|--------|
E|--------|--------|--------|--------|--------|--------|--------|--------|--------|


E|--------|-------------|----------------------------|--------------------------|---------------------------|
B|--------|-------------|-----------12---11-12119----|------9----11---12--------|-----------------9---------|
G|--------|--------11---|------11--------------------|---------------------11---|-----------8--11-----8--8--|
D|--------|-------------|----------------------------|--------------------------|---------------------------|
A|--------|-------------|----------------------------|--------------------------|---------------------------|
E|--------|-------------|----------------------------|--------------------------|---------------------------|


E|----------------------------|-----------------------11-12-14-16---|------16---18---19---19---|
B|----------------------------|-----------12-11-12-14---------------|--------------------------|
G|-----------------8--9--11---|------11-----------------------------|--------------------------|
D|----11--9--9----------------|-------------------------------------|--------------------------|
A|----------------------------|-------------------------------------|--------------------------|
E|----------------------------|-------------------------------------|--------------------------|


E|------19----18---|------18----16---|-------------|-------------|-------------|-------------|
B|-----------------|-----------------|-------------|-------------|-------------|-------------|
G|-----------------|-----------------|-------------|-------------|-------------|-------------|
D|-----------------|-----------------|-------------|-------------|-------------|-------------|
A|-----------------|-----------------|-------------|-------------|-------------|-------------|
E|-----------------|-----------------|-------------|-------------|-------------|--------4----|


E|---------------------------|---------------------------|---------------------------|
B|---------------------------|---------------------------|---------------------------|
G|---------------------------|---------------------------|---------------------------|
D|---------------------------|---------------------------|---------------------------|
A|-7---6--------7---6--------|-7---6--------7---6---4----|-7---6----4---7---6---0----|
E|----------4-----------2----|----------2----------------|---------------------------|


E|---------------------------|---------------------------|---------------------------|
B|---------------------------|---------------------------|---------------------------|
G|---------------------------|-9---8--------9---8--------|-9---8--------9---8---6----|
D|----------------------6----|----------6-----------4----|----------4----------------|
A|-7---6----0---7---6--------|-7---6--------7---6--------|-7---6--------7---6---4----|
E|----------------------4----|----------4-----------2----|----------2----------------|


E|---------------------------|---------------------------|---------------------------|
B|---------------------------|---------------------------|---------------------------|
G|-9---8----6---9---8---2----|-9---8----2---9---8--------|-9---8--------9---8--------|
D|---------------------------|----------------------6----|----------6-----------4----|
A|-7---6----4---7---6---0----|-7---6----0---7---6--------|-7---6--------7---6--------|
E|---------------------------|----------------------4----|----------4-----------2----|


E|---------------------------|---------------------------|------------------------------|
B|---------------------------|---------------------------|---------7---9----------------|
G|-9---8--------9---8---6----|-9---8----6---9---8--------|-9---8-----------8-------6----|
D|----------4----------------|----------------------7----|---------4---6-------9---6----|
A|-7---6--------7---6---4----|-7---6----4---7---6--------|-7---6-----------6-------4----|
E|----------2----------------|----------------------5----|---------------------7--------|


E|-------------|-------------|-------------|-------------|-------------|-------------|
B|-------------|-------------|-------------|-------------|-------------|-------------|
G|--------4----|-------------|--------2----|--------6----|--------4----|-------------|
D|--------4----|--------6----|--------2----|--------6----|--------4----|--------6----|
A|--------2----|--------6----|--------0----|--------4----|--------2----|--------6----|
E|-------------|--------4----|-------------|-------------|-------------|--------4----|


E|-------------|-------------|-------------|-------------|-------------|-------------|
B|-------------|-------------|-------------|-------------|-------------|-------------|
G|--------2----|--------6----|--------4----|-------------|--------2----|--------6----|
D|--------2----|--------6----|--------4----|--------6----|--------2----|--------6----|
A|--------0----|--------4----|--------2----|--------6----|--------0----|--------4----|
E|-------------|-------------|-------------|--------4----|-------------|-------------|


E|-------------|-------------|-------------|-----------------------------------------------|
B|-------------|-------------|-------------|------------------------------------------5----|
G|--------4----|--------2----|-------------|---------------------------------4--6--8-------|
D|--------4----|--------2----|-------------|------------------------4--6--7----------------|
A|--------2----|--------0----|-------------|---------------4--6--7-------------------------|
E|-------------|-------------|-------------|------4--5--7----------------------------------|


E|---------------------|--------------------|------------------------|------------------------------------------------|
B|-----7-----7----4----|--------------------|------------------------|----------------------------------16-17-19-17---|
G|---------------------|-----4---------4----|-----6-----8---6---6----|----------------------------16-18---------------|
D|---------------------|-----------6--------|------------------------|----------------------16-18---------------------|
A|---------------------|--------------------|------------------------|-------------16-18-19---------------------------|
E|---------------------|--------------------|------------------------|----16-16-17------------------------------------|


E|-----------16---19--19--|-----19----16-19-19---|------19----19-19-17-21---|-----------21-23------|
B|-----19-----------------|----------------------|--------------------------|----------------------|
G|------------------------|----------------------|--------------------------|----------------------|
D|------------------------|----------------------|--------------------------|-----------------7----|
A|------------------------|----------------------|--------------------------|-----------------4----|
E|------------------------|----------------------|--------------------------|----------------------|


E|---------------------|------------------------------|--------------------------------|
B|---------------------|------------------------------|--------------------------------|
G|---------------------|------------------------------|--------------------------------|
D|-----7-----9-----9---|------------------------------|--------------------------------|
A|-----4-----6-----6---|------------------------------|--------------------------------|
E|---------------------|------0---0---0---12--12--12--|-0---0---0---2--4---5---7--9----|


E|-----------------------|---------------------|--------------------------|---------------------|
B|-----------------------|---------------------|--------------------------|---------------------|
G|-----------------------|---------------------|--------------------------|---------------------|
D|-----------------------|---------------------|--------------------------|---------------------|
A|-----------------------|---------------------|--------------------------|---------------------|
E|-----8-----7-----6--5--|-----4---7-----6-----|-5-----2--4---5---7--9----|-----8-----7-----6---|


E|------------------|------------------|---------------------|------------------------|
B|------------------|------------------|---------------------|------------------------|
G|------------------|------------------|---------------------|------------------------|
D|------------------|------------------|---------------------|------------------------|
A|------------------|-------------6----|-----4-----2-----0---|------------3---4---6---|
E|------5-----4-----|-2-----0----------|---------------------|------4-----------------|


E|-------------|-------------|--------|--------|--------|--------|--------|--------|
B|-------------|-------------|--------|--------|--------|--------|--------|--------|
G|-6-----------|-------2-----|-2------|--------|--------|--------|--------|--------|
D|-6-----------|-------2-----|-2------|--------|--------|--------|--------|--------|
A|-4-----2-----|-1-----0-----|-0------|--------|--------|--------|--------|--------|
E|-------------|-------------|--------|--------|--------|--------|--------|--------|


E|--------|--------|--------|--------|--------|--------|--------|--------|--------|
B|--------|--------|--------|--------|--------|--------|--------|--------|--------|
G|--------|--------|--------|--------|--------|--------|--------|--------|--------|
D|--------|--------|--------|--------|--------|--------|--------|--------|--------|
A|--------|--------|--------|--------|--------|--------|--------|--------|--------|
E|--------|--------|--------|--------|--------|--------|--------|--------|--------|


E|--------|--------|--------|--------|--------|--------|--------|--------|--------|
B|--------|--------|--------|--------|--------|--------|--------|--------|--------|
G|--------|--------|--------|--------|--------|--------|--------|--------|--------|
D|--------|--------|--------|--------|--------|--------|--------|--------|--------|
A|--------|--------|--------|--------|--------|--------|--------|--------|--------|
E|--------|--------|--------|--------|--------|--------|--------|--------|--------|


E|--------|--------|--------|--------|--------|--------|--------|--------|--------|
B|--------|--------|--------|--------|--------|--------|--------|--------|--------|
G|--------|--------|--------|--------|--------|--------|--------|--------|--------|
D|--------|--------|--------|--------|--------|--------|--------|--------|--------|
A|--------|--------|--------|--------|--------|--------|--------|--------|--------|
E|--------|--------|--------|--------|--------|--------|--------|--------|--------|


E|--------|--------|--------|-------------|---------------------|-------------------|
B|--------|--------|--------|-------------|---------------------|-------------------|
G|--------|--------|--------|-------------|---------------------|-6-----------------|
D|--------|--------|--------|-------6-----|-8----9----8-----9---|-------9--8--6-----|
A|--------|--------|--------|-------------|---------------------|-------------------|
E|--------|--------|--------|-------------|---------------------|-------------------|


E|-----------------|-----------------|---------------------|-------------------|-------------|
B|-----------------|-----------------|---------------------|-------------------|-------------|
G|-------8---6-----|-----------------|---------------------|-6-----------------|-------------|
D|-----------------|-9----8----6-----|-8----9----8-----9---|-------9--8--6-----|-4-----2-----|
A|-7---------------|-----------------|---------------------|-------------------|-------------|
E|-----------------|-----------------|---------------------|-------------------|-------------|


E|-----------------|---------------------|-------------------|-----------------|-----------------|
B|-----------------|---------------------|-------------------|-----------------|-----------------|
G|-----------------|---------------------|-6-----------------|-------8---6-----|-----------------|
D|-----------6-----|-8----9----8-----9---|-------9--8--6-----|-----------------|-9----8----6-----|
A|------4----------|---------------------|-------------------|-7---------------|-----------------|
E|-----------------|---------------------|-------------------|-----------------|-----------------|


E|---------------------|-------------------|-----------------|-------------|---------------------|
B|---------------------|-------------------|-----------------|-------------|------4----------4---|
G|---------------------|-------------------|-------8---6-----|-8-----4-----|-6---------6---------|
D|-8----9----8-----6---|-5-----6--8--6-----|-----------------|-------------|---------------------|
A|---------------------|-------------------|-7---------------|-------------|---------------------|
E|---------------------|-------------------|-----------------|-------------|---------------------|


E|-------------------|-----------------|-----------------|---------------------|-------------------|
B|-5-----4-----------|-------7---5-----|-4---------------|------4----------4---|-5-----4-----------|
G|----------6--4-----|-----------------|------6----4-----|-6---------6---------|----------6--4-----|
D|-------------------|-6---------------|-----------------|---------------------|-------------------|
A|-------------------|-----------------|-----------------|---------------------|-------------------|
E|-------------------|-----------------|-----------------|---------------------|-------------------|


E|-------------|-------------|---------------------|-------------------|-----------------|
B|-------------|-------------|------4----------4---|-5-----4-----------|-------7---5-----|
G|-3-----1-----|-3-----4-----|-6---------6---------|----------6--4-----|-----------------|
D|-------------|-------------|---------------------|-------------------|-6---------------|
A|-------------|-------------|---------------------|-------------------|-----------------|
E|-------------|-------------|---------------------|-------------------|-----------------|


E|-----------------|---------------------|-------------------|-----------------|-------------|
B|-4---------------|------4----------4---|-5-----4-----------|-------7---5-----|-8-----------|
G|------6----4-----|-6---------6---------|----------6--4-----|-----------------|-------16----|
D|-----------------|---------------------|-------------------|-6---------------|-------------|
A|-----------------|---------------------|-------------------|-----------------|-------------|
E|-----------------|---------------------|-------------------|-----------------|-------------|


E|---------------------|-----------------------|-------------|
B|------16---------16--|-17----16--------------|-------------|
G|-18--------18--------|----------18-16--------|-------------|
D|---------------------|-----------------------|-------------|
A|---------------------|-----------------------|-------------|
E|---------------------|-----------------------|-------------|





Track 8: Acoustic Guitar

E|--------|--------|--------|--------|--------|--------|--------|--------|--------|
B|--------|--------|--------|--------|--------|--------|--------|--------|--------|
G|--------|--------|--------|--------|--------|--------|--------|--------|--------|
D|--------|--------|--------|--------|--------|--------|--------|--------|--------|
A|--------|--------|--------|--------|--------|--------|--------|--------|--------|
E|--------|--------|--------|--------|--------|--------|--------|--------|--------|


E|--------|--------|--------|--------|--------|--------|--------|--------|--------|
B|--------|--------|--------|--------|--------|--------|--------|--------|--------|
G|--------|--------|--------|--------|--------|--------|--------|--------|--------|
D|--------|--------|--------|--------|--------|--------|--------|--------|--------|
A|--------|--------|--------|--------|--------|--------|--------|--------|--------|
E|--------|--------|--------|--------|--------|--------|--------|--------|--------|


E|--------|--------|--------|--------|--------|--------|--------|--------|--------|
B|--------|--------|--------|--------|--------|--------|--------|--------|--------|
G|--------|--------|--------|--------|--------|--------|--------|--------|--------|
D|--------|--------|--------|--------|--------|--------|--------|--------|--------|
A|--------|--------|--------|--------|--------|--------|--------|--------|--------|
E|--------|--------|--------|--------|--------|--------|--------|--------|--------|


E|--------|--------|--------|--------|--------|--------|--------|--------|--------|
B|--------|--------|--------|--------|--------|--------|--------|--------|--------|
G|--------|--------|--------|--------|--------|--------|--------|--------|--------|
D|--------|--------|--------|--------|--------|--------|--------|--------|--------|
A|--------|--------|--------|--------|--------|--------|--------|--------|--------|
E|--------|--------|--------|--------|--------|--------|--------|--------|--------|


E|--------|--------|--------|--------|--------|--------|--------|--------|--------|
B|--------|--------|--------|--------|--------|--------|--------|--------|--------|
G|--------|--------|--------|--------|--------|--------|--------|--------|--------|
D|--------|--------|--------|--------|--------|--------|--------|--------|--------|
A|--------|--------|--------|--------|--------|--------|--------|--------|--------|
E|--------|--------|--------|--------|--------|--------|--------|--------|--------|


E|--------|--------|--------|--------|--------|--------|--------|--------|--------|
B|--------|--------|--------|--------|--------|--------|--------|--------|--------|
G|--------|--------|--------|--------|--------|--------|--------|--------|--------|
D|--------|--------|--------|--------|--------|--------|--------|--------|--------|
A|--------|--------|--------|--------|--------|--------|--------|--------|--------|
E|--------|--------|--------|--------|--------|--------|--------|--------|--------|


E|--------|--------|--------|--------|--------|--------|--------|--------|--------|
B|--------|--------|--------|--------|--------|--------|--------|--------|--------|
G|--------|--------|--------|--------|--------|--------|--------|--------|--------|
D|--------|--------|--------|--------|--------|--------|--------|--------|--------|
A|--------|--------|--------|--------|--------|--------|--------|--------|--------|
E|--------|--------|--------|--------|--------|--------|--------|--------|--------|


E|--------|--------|--------|--------|--------|--------|--------|--------|--------|
B|--------|--------|--------|--------|--------|--------|--------|--------|--------|
G|--------|--------|--------|--------|--------|--------|--------|--------|--------|
D|--------|--------|--------|--------|--------|--------|--------|--------|--------|
A|--------|--------|--------|--------|--------|--------|--------|--------|--------|
E|--------|--------|--------|--------|--------|--------|--------|--------|--------|


E|--------|--------|--------|--------|--------|--------|--------|--------|--------|
B|--------|--------|--------|--------|--------|--------|--------|--------|--------|
G|--------|--------|--------|--------|--------|--------|--------|--------|--------|
D|--------|--------|--------|--------|--------|--------|--------|--------|--------|
A|--------|--------|--------|--------|--------|--------|--------|--------|--------|
E|--------|--------|--------|--------|--------|--------|--------|--------|--------|


E|--------|--------|--------|--------|--------|--------|--------|--------|--------|
B|--------|--------|--------|--------|--------|--------|--------|--------|--------|
G|--------|--------|--------|--------|--------|--------|--------|--------|--------|
D|--------|--------|--------|--------|--------|--------|--------|--------|--------|
A|--------|--------|--------|--------|--------|--------|--------|--------|--------|
E|--------|--------|--------|--------|--------|--------|--------|--------|--------|


E|--------|--------|--------|--------|--------|--------|--------|--------|--------|
B|--------|--------|--------|--------|--------|--------|--------|--------|--------|
G|--------|--------|--------|--------|--------|--------|--------|--------|--------|
D|--------|--------|--------|--------|--------|--------|--------|--------|--------|
A|--------|--------|--------|--------|--------|--------|--------|--------|--------|
E|--------|--------|--------|--------|--------|--------|--------|--------|--------|


E|--------|--------|--------|--------|--------|--------|--------|--------|--------|
B|--------|--------|--------|--------|--------|--------|--------|--------|--------|
G|--------|--------|--------|--------|--------|--------|--------|--------|--------|
D|--------|--------|--------|--------|--------|--------|--------|--------|--------|
A|--------|--------|--------|--------|--------|--------|--------|--------|--------|
E|--------|--------|--------|--------|--------|--------|--------|--------|--------|


E|--------|--------|--------|--------|--------|--------|--------|--------|--------|
B|--------|--------|--------|--------|--------|--------|--------|--------|--------|
G|--------|--------|--------|--------|--------|--------|--------|--------|--------|
D|--------|--------|--------|--------|--------|--------|--------|--------|--------|
A|--------|--------|--------|--------|--------|--------|--------|--------|--------|
E|--------|--------|--------|--------|--------|--------|--------|--------|--------|


E|--------|--------|--------|--------|--------|--------|--------|--------|--------|
B|--------|--------|--------|--------|--------|--------|--------|--------|--------|
G|--------|--------|--------|--------|--------|--------|--------|--------|--------|
D|--------|--------|--------|--------|--------|--------|--------|--------|--------|
A|--------|--------|--------|--------|--------|--------|--------|--------|--------|
E|--------|--------|--------|--------|--------|--------|--------|--------|--------|


E|--------|--------|--------|--------|--------|--------|--------|--------|--------|
B|--------|--------|--------|--------|--------|--------|--------|--------|--------|
G|--------|--------|--------|--------|--------|--------|--------|--------|--------|
D|--------|--------|--------|--------|--------|--------|--------|--------|--------|
A|--------|--------|--------|--------|--------|--------|--------|--------|--------|
E|--------|--------|--------|--------|--------|--------|--------|--------|--------|


E|--------|--------|--------|--------|--------|--------|--------|--------|--------|
B|--------|--------|--------|--------|--------|--------|--------|--------|--------|
G|--------|--------|--------|--------|--------|--------|--------|--------|--------|
D|--------|--------|--------|--------|--------|--------|--------|--------|--------|
A|--------|--------|--------|--------|--------|--------|--------|--------|--------|
E|--------|--------|--------|--------|--------|--------|--------|--------|--------|


E|--------|--------|--------|--------|--------|--------|--------|--------|--------|
B|--------|--------|--------|--------|--------|--------|--------|--------|--------|
G|--------|--------|--------|--------|--------|--------|--------|--------|--------|
D|--------|--------|--------|--------|--------|--------|--------|--------|--------|
A|--------|--------|--------|--------|--------|--------|--------|--------|--------|
E|--------|--------|--------|--------|--------|--------|--------|--------|--------|


E|--------|--------|--------|--------|--------|--------|--------|--------|--------|
B|--------|--------|--------|--------|--------|--------|--------|--------|--------|
G|--------|--------|--------|--------|--------|--------|--------|--------|--------|
D|--------|--------|--------|--------|--------|--------|--------|--------|--------|
A|--------|--------|--------|--------|--------|--------|--------|--------|--------|
E|--------|--------|--------|--------|--------|--------|--------|--------|--------|


E|--------|--------|--------|--------|--------|--------|--------|--------|--------|
B|--------|--------|--------|--------|--------|--------|--------|--------|--------|
G|--------|--------|--------|--------|--------|--------|--------|--------|--------|
D|--------|--------|--------|--------|--------|--------|--------|--------|--------|
A|--------|--------|--------|--------|--------|--------|--------|--------|--------|
E|--------|--------|--------|--------|--------|--------|--------|--------|--------|


E|--------|--------|--------|--------|--------|--------|--------|--------|--------|
B|--------|--------|--------|--------|--------|--------|--------|--------|--------|
G|--------|--------|--------|--------|--------|--------|--------|--------|--------|
D|--------|--------|--------|--------|--------|--------|--------|--------|--------|
A|--------|--------|--------|--------|--------|--------|--------|--------|--------|
E|--------|--------|--------|--------|--------|--------|--------|--------|--------|


E|--------|--------|--------|--------|--------|--------|--------|--------|--------|
B|--------|--------|--------|--------|--------|--------|--------|--------|--------|
G|--------|--------|--------|--------|--------|--------|--------|--------|--------|
D|--------|--------|--------|--------|--------|--------|--------|--------|--------|
A|--------|--------|--------|--------|--------|--------|--------|--------|--------|
E|--------|--------|--------|--------|--------|--------|--------|--------|--------|


E|--------|--------|--------|--------|--------|--------|--------|--------|--------|
B|--------|--------|--------|--------|--------|--------|--------|--------|--------|
G|--------|--------|--------|--------|--------|--------|--------|--------|--------|
D|--------|--------|--------|--------|--------|--------|--------|--------|--------|
A|--------|--------|--------|--------|--------|--------|--------|--------|--------|
E|--------|--------|--------|--------|--------|--------|--------|--------|--------|


E|--------|--------|--------|--------|--------|--------|--------|--------|--------|
B|--------|--------|--------|--------|--------|--------|--------|--------|--------|
G|--------|--------|--------|--------|--------|--------|--------|--------|--------|
D|--------|--------|--------|--------|--------|--------|--------|--------|--------|
A|--------|--------|--------|--------|--------|--------|--------|--------|--------|
E|--------|--------|--------|--------|--------|--------|--------|--------|--------|





Track 9: Untitled

G|--------|--------|--------|--------|--------|--------|--------|--------|--------|
D|--------|--------|--------|--------|--------|--------|--------|--------|--------|
A|--------|--------|--------|--------|--------|--------|--------|--------|--------|
E|--------|--------|--------|--------|--------|--------|--------|--------|--------|


G|--------|--------|--------|--------|--------|--------|--------|--------|--------|
D|--------|--------|--------|--------|--------|--------|--------|--------|--------|
A|--------|--------|--------|--------|--------|--------|--------|--------|--------|
E|--------|--------|--------|--------|--------|--------|--------|--------|--------|


G|--------|--------|--------|--------|--------|--------|--------|--------|--------|
D|--------|--------|--------|--------|--------|--------|--------|--------|--------|
A|--------|--------|--------|--------|--------|--------|--------|--------|--------|
E|--------|--------|--------|--------|--------|--------|--------|--------|--------|


G|--------|--------|--------|--------|--------|--------|--------|--------|--------|
D|--------|--------|--------|--------|--------|--------|--------|--------|--------|
A|--------|--------|--------|--------|--------|--------|--------|--------|--------|
E|--------|--------|--------|--------|--------|--------|--------|--------|--------|


G|--------|--------|--------|--------|--------|--------|--------|--------|--------|
D|--------|--------|--------|--------|--------|--------|--------|--------|--------|
A|--------|--------|--------|--------|--------|--------|--------|--------|--------|
E|--------|--------|--------|--------|--------|--------|--------|--------|--------|


G|--------|--------|--------|--------|--------|--------|--------|--------|--------|
D|--------|--------|--------|--------|--------|--------|--------|--------|--------|
A|--------|--------|--------|--------|--------|--------|--------|--------|--------|
E|--------|--------|--------|--------|--------|--------|--------|--------|--------|


G|--------|--------|--------|--------|--------|--------|--------|--------|--------|
D|--------|--------|--------|--------|--------|--------|--------|--------|--------|
A|--------|--------|--------|--------|--------|--------|--------|--------|--------|
E|--------|--------|--------|--------|--------|--------|--------|--------|--------|


G|--------|--------|--------|--------|--------|--------|--------|--------|--------|
D|--------|--------|--------|--------|--------|--------|--------|--------|--------|
A|--------|--------|--------|--------|--------|--------|--------|--------|--------|
E|--------|--------|--------|--------|--------|--------|--------|--------|--------|


G|--------|--------|--------|--------|--------|--------|--------|--------|--------|
D|--------|--------|--------|--------|--------|--------|--------|--------|--------|
A|--------|--------|--------|--------|--------|--------|--------|--------|--------|
E|--------|--------|--------|--------|--------|--------|--------|--------|--------|


G|--------|--------|--------|--------|--------|--------|--------|--------|--------|
D|--------|--------|--------|--------|--------|--------|--------|--------|--------|
A|--------|--------|--------|--------|--------|--------|--------|--------|--------|
E|--------|--------|--------|--------|--------|--------|--------|--------|--------|


G|--------|--------|--------|--------|--------|--------|--------|--------|--------|
D|--------|--------|--------|--------|--------|--------|--------|--------|--------|
A|--------|--------|--------|--------|--------|--------|--------|--------|--------|
E|--------|--------|--------|--------|--------|--------|--------|--------|--------|


G|--------|--------|--------|--------|--------|--------|--------|--------|--------|
D|--------|--------|--------|--------|--------|--------|--------|--------|--------|
A|--------|--------|--------|--------|--------|--------|--------|--------|--------|
E|--------|--------|--------|--------|--------|--------|--------|--------|--------|


G|--------|--------|--------|--------|--------|--------|--------|--------|--------|
D|--------|--------|--------|--------|--------|--------|--------|--------|--------|
A|--------|--------|--------|--------|--------|--------|--------|--------|--------|
E|--------|--------|--------|--------|--------|--------|--------|--------|--------|


G|--------|--------|--------|--------|--------|--------|--------|--------|--------|
D|--------|--------|--------|--------|--------|--------|--------|--------|--------|
A|--------|--------|--------|--------|--------|--------|--------|--------|--------|
E|--------|--------|--------|--------|--------|--------|--------|--------|--------|


G|--------|--------|--------|--------|--------|--------|--------|--------|--------|
D|--------|--------|--------|--------|--------|--------|--------|--------|--------|
A|--------|--------|--------|--------|--------|--------|--------|--------|--------|
E|--------|--------|--------|--------|--------|--------|--------|--------|--------|


G|--------|--------|--------|--------|--------|--------|--------|--------|--------|
D|--------|--------|--------|--------|--------|--------|--------|--------|--------|
A|--------|--------|--------|--------|--------|--------|--------|--------|--------|
E|--------|--------|--------|--------|--------|--------|--------|--------|--------|


G|--------|--------|--------|--------|--------|--------|--------|--------|--------|
D|--------|--------|--------|--------|--------|--------|--------|--------|--------|
A|--------|--------|--------|--------|--------|--------|--------|--------|--------|
E|--------|--------|--------|--------|--------|--------|--------|--------|--------|


G|--------|--------|--------|--------|--------|--------|--------|--------|--------|
D|--------|--------|--------|--------|--------|--------|--------|--------|--------|
A|--------|--------|--------|--------|--------|--------|--------|--------|--------|
E|--------|--------|--------|--------|--------|--------|--------|--------|--------|


G|--------|--------|--------|--------|--------|--------|--------|--------|--------|
D|--------|--------|--------|--------|--------|--------|--------|--------|--------|
A|--------|--------|--------|--------|--------|--------|--------|--------|--------|
E|--------|--------|--------|--------|--------|--------|--------|--------|--------|


G|--------|--------|--------|--------|--------|--------|--------|--------|--------|
D|--------|--------|--------|--------|--------|--------|--------|--------|--------|
A|--------|--------|--------|--------|--------|--------|--------|--------|--------|
E|--------|--------|--------|--------|--------|--------|--------|--------|--------|


G|--------|--------|--------|--------|--------|--------|--------|--------|--------|
D|--------|--------|--------|--------|--------|--------|--------|--------|--------|
A|--------|--------|--------|--------|--------|--------|--------|--------|--------|
E|--------|--------|--------|--------|--------|--------|--------|--------|--------|


G|--------|--------|--------|--------|--------|--------|--------|--------|--------|
D|--------|--------|--------|--------|--------|--------|--------|--------|--------|
A|--------|--------|--------|--------|--------|--------|--------|--------|--------|
E|--------|--------|--------|--------|--------|--------|--------|--------|--------|


G|--------|--------|--------|--------|--------|--------|--------|--------|--------|
D|--------|--------|--------|--------|--------|--------|--------|--------|--------|
A|--------|--------|--------|--------|--------|--------|--------|--------|--------|
E|--------|--------|--------|--------|--------|--------|--------|--------|--------|