Menu:

 

Search:

 

dream theater - fatal tragedy:

 



Title: SCENE THREE: II. FATAL TRAGEDY
Artist: 
Album: Scenes from a memory
Author: Dream Theater


Track 1: Gtr1

E|--------|--------|--------|--------|--------|--------|--------|--------|--------|
B|--------|--------|--------|--------|--------|--------|--------|--------|--------|
G|--------|--------|--------|--------|--------|--------|--------|--------|--------|
D|--------|--------|--------|--------|--------|--------|--------|--------|--------|
A|--------|--------|--------|--------|--------|--------|--------|--------|--------|
E|--------|--------|--------|--------|--------|--------|--------|--------|--------|


E|--------|--------|--------|--------|--------|--------|--------|--------6----|-6---------------------|
B|--------|--------|--------|--------|--------|--------|--------|-------------|-----------------------|
G|--------|--------|--------|--------|--------|--------|--------|-4-----------|-----------------------|
D|--------|--------|--------|--------|--------|--------|--------|-------------|-----------------------|
A|--------|--------|--------|--------|--------|--------|--------|-------------|-----------------------|
E|--------|--------|--------|--------|--------|--------|--------|-------------|-------24--20--17--13--|


E|------------------------------|-------------|-------------|-------------|-------------|
B|-4----4---------------4-------|-5-----------|-------------|-------------|-------------|
G|-4--------4-------4-------4---|-4-----------|-------------|-------------|-------------|
D|-4------------4---------------|-5-----------|-------------|-------------|-------------|
A|------------------------------|-------------|-------------|-------------|-------------|
E|------------------------------|-------------|-------------|-------------|-------------|


E|--------------------|---------------------------|-------------|-------------|-------------|
B|-------4----4-------|---------4-------5---------|-------------|-------------|-------------|
G|-------4--------4---|-----4-------4---4---------|-------------|-------------|-------------|
D|-------4------------|-4---------------5---------|-------------|-------------|-------------|
A|--------------------|---------------------------|-------------|-------------|-------------|
E|--------------------|---------------------------|-------------|-------------|-------------|


E|-------------|------------------------------|-------------------------------|----------------------|
B|--------4----|-4---------------4-------5----|---------------4--4--4---------|-7-----7---4--4--2----|
G|--------4----|-----4-------4-------4---4----|------------------------4------|----------------------|
D|--------4----|---------4---------------5----|---------------------------4---|----------------------|
A|-------------|------------------------------|-------------------------------|----------------------|
E|-------------|------------------------------|-------------------------------|----------------------|


E|---------------------|-------------|--------|--------|--------|--------|--------|
B|-4----5----7---------|-------------|--------|--------|--------|--------|--------|
G|----------------4----|--------3----|--------|--------|--------|--------|--------|
D|---------------------|-------------|--------|--------|--------|--------|--------|
A|---------------------|-------------|--------|--------|--------|--------|--------|
E|---------------------|-------------|--------|--------|--------|--------|--------|


E|--------|--------|--------|-----------------------|-----------------------|--------|
B|--------|--------|--------|-----------------------|-----------------------|--------|
G|--------|--------|--------|-----------------------|-----------------------|--------|
D|--------|--------|--------|-----------------------|-----------------------|--------|
A|--------|--------|--------|-----------------------|---------6---9---------|--------|
E|--------|--------|--------|-----------5---7---8---|-7---7-----------------|--------|


E|--------|--------|--------|--------|--------|--------|--------|--------|--------|
B|--------|--------|--------|--------|--------|--------|--------|--------|--------|
G|--------|--------|--------|--------|--------|--------|--------|--------|--------|
D|--------|--------|--------|--------|--------|--------|--------|--------|--------|
A|--------|--------|--------|--------|--------|--------|--------|--------|--------|
E|--------|--------|--------|--------|--------|--------|--------|--------|--------|


E|--------|--------|--------|--------|--------|--------|--------|--------|--------|
B|--------|--------|--------|--------|--------|--------|--------|--------|--------|
G|--------|--------|--------|--------|--------|--------|--------|--------|--------|
D|--------|--------|--------|--------|--------|--------|--------|--------|--------|
A|--------|--------|--------|--------|--------|--------|--------|--------|--------|
E|--------|--------|--------|--------|--------|--------|--------|--------|--------|


E|--------|--------|--------|--------|--------|--------|--------|--------|--------|
B|--------|--------|--------|--------|--------|--------|--------|--------|--------|
G|--------|--------|--------|--------|--------|--------|--------|--------|--------|
D|--------|--------|--------|--------|--------|--------|--------|--------|--------|
A|--------|--------|--------|--------|--------|--------|--------|--------|--------|
E|--------|--------|--------|--------|--------|--------|--------|--------|--------|


E|--------|--------|--------|--------|--------|--------|--------|--------|--------|
B|--------|--------|--------|--------|--------|--------|--------|--------|--------|
G|--------|--------|--------|--------|--------|--------|--------|--------|--------|
D|--------|--------|--------|--------|--------|--------|--------|--------|--------|
A|--------|--------|--------|--------|--------|--------|--------|--------|--------|
E|--------|--------|--------|--------|--------|--------|--------|--------|--------|


E|--------|--------|--------|--------|--------|--------|--------|--------|--------|
B|--------|--------|--------|--------|--------|--------|--------|--------|--------|
G|--------|--------|--------|--------|--------|--------|--------|--------|--------|
D|--------|--------|--------|--------|--------|--------|--------|--------|--------|
A|--------|--------|--------|--------|--------|--------|--------|--------|--------|
E|--------|--------|--------|--------|--------|--------|--------|--------|--------|


E|--------|--------|--------|--------|--------|--------|--------|--------|--------|
B|--------|--------|--------|--------|--------|--------|--------|--------|--------|
G|--------|--------|--------|--------|--------|--------|--------|--------|--------|
D|--------|--------|--------|--------|--------|--------|--------|--------|--------|
A|--------|--------|--------|--------|--------|--------|--------|--------|--------|
E|--------|--------|--------|--------|--------|--------|--------|--------|--------|


E|--------|--------|--------|--------|--------|--------|--------|--------|--------|
B|--------|--------|--------|--------|--------|--------|--------|--------|--------|
G|--------|--------|--------|--------|--------|--------|--------|--------|--------|
D|--------|--------|--------|--------|--------|--------|--------|--------|--------|
A|--------|--------|--------|--------|--------|--------|--------|--------|--------|
E|--------|--------|--------|--------|--------|--------|--------|--------|--------|


E|--------|--------|--------|--------|--------|--------|--------|--------|--------|
B|--------|--------|--------|--------|--------|--------|--------|--------|--------|
G|--------|--------|--------|--------|--------|--------|--------|--------|--------|
D|--------|--------|--------|--------|--------|--------|--------|--------|--------|
A|--------|--------|--------|--------|--------|--------|--------|--------|--------|
E|--------|--------|--------|--------|--------|--------|--------|--------|--------|


E|--------|--------|--------|--------|--------|--------|--------|--------|--------|
B|--------|--------|--------|--------|--------|--------|--------|--------|--------|
G|--------|--------|--------|--------|--------|--------|--------|--------|--------|
D|--------|--------|--------|--------|--------|--------|--------|--------|--------|
A|--------|--------|--------|--------|--------|--------|--------|--------|--------|
E|--------|--------|--------|--------|--------|--------|--------|--------|--------|


E|--------|--------|--------|--------|--------|--------|--------|--------|--------|
B|--------|--------|--------|--------|--------|--------|--------|--------|--------|
G|--------|--------|--------|--------|--------|--------|--------|--------|--------|
D|--------|--------|--------|--------|--------|--------|--------|--------|--------|
A|--------|--------|--------|--------|--------|--------|--------|--------|--------|
E|--------|--------|--------|--------|--------|--------|--------|--------|--------|


E|--------|--------|--------|--------|--------|--------|--------|--------|--------|
B|--------|--------|--------|--------|--------|--------|--------|--------|--------|
G|--------|--------|--------|--------|--------|--------|--------|--------|--------|
D|--------|--------|--------|--------|--------|--------|--------|--------|--------|
A|--------|--------|--------|--------|--------|--------|--------|--------|--------|
E|--------|--------|--------|--------|--------|--------|--------|--------|--------|


E|--------|--------|--------|--------|--------|--------|--------|--------|--------|
B|--------|--------|--------|--------|--------|--------|--------|--------|--------|
G|--------|--------|--------|--------|--------|--------|--------|--------|--------|
D|--------|--------|--------|--------|--------|--------|--------|--------|--------|
A|--------|--------|--------|--------|--------|--------|--------|--------|--------|
E|--------|--------|--------|--------|--------|--------|--------|--------|--------|


E|--------|--------|--------|--------|--------|--------|--------|--------|--------|
B|--------|--------|--------|--------|--------|--------|--------|--------|--------|
G|--------|--------|--------|--------|--------|--------|--------|--------|--------|
D|--------|--------|--------|--------|--------|--------|--------|--------|--------|
A|--------|--------|--------|--------|--------|--------|--------|--------|--------|
E|--------|--------|--------|--------|--------|--------|--------|--------|--------|


E|--------|--------|--------|--------|--------|--------|--------|--------|--------|
B|--------|--------|--------|--------|--------|--------|--------|--------|--------|
G|--------|--------|--------|--------|--------|--------|--------|--------|--------|
D|--------|--------|--------|--------|--------|--------|--------|--------|--------|
A|--------|--------|--------|--------|--------|--------|--------|--------|--------|
E|--------|--------|--------|--------|--------|--------|--------|--------|--------|


E|--------|--------|--------|--------|--------|--------|--------|--------|--------|
B|--------|--------|--------|--------|--------|--------|--------|--------|--------|
G|--------|--------|--------|--------|--------|--------|--------|--------|--------|
D|--------|--------|--------|--------|--------|--------|--------|--------|--------|
A|--------|--------|--------|--------|--------|--------|--------|--------|--------|
E|--------|--------|--------|--------|--------|--------|--------|--------|--------|


E|--------|--------|--------|--------|--------|--------|--------|--------|--------|
B|--------|--------|--------|--------|--------|--------|--------|--------|--------|
G|--------|--------|--------|--------|--------|--------|--------|--------|--------|
D|--------|--------|--------|--------|--------|--------|--------|--------|--------|
A|--------|--------|--------|--------|--------|--------|--------|--------|--------|
E|--------|--------|--------|--------|--------|--------|--------|--------|--------|


E|--------|--------|--------|--------|--------|--------|--------|--------|--------|
B|--------|--------|--------|--------|--------|--------|--------|--------|--------|
G|--------|--------|--------|--------|--------|--------|--------|--------|--------|
D|--------|--------|--------|--------|--------|--------|--------|--------|--------|
A|--------|--------|--------|--------|--------|--------|--------|--------|--------|
E|--------|--------|--------|--------|--------|--------|--------|--------|--------|


E|--------|--------|--------|--------|
B|--------|--------|--------|--------|
G|--------|--------|--------|--------|
D|--------|--------|--------|--------|
A|--------|--------|--------|--------|
E|--------|--------|--------|--------|





Track 2: Gtr2

E|--------|--------|--------|--------|--------|--------|--------|--------|--------|
B|--------|--------|--------|--------|--------|--------|--------|--------|--------|
G|--------|--------|--------|--------|--------|--------|--------|--------|--------|
D|--------|--------|--------|--------|--------|--------|--------|--------|--------|
A|--------|--------|--------|--------|--------|--------|--------|--------|--------|
E|--------|--------|--------|--------|--------|--------|--------|--------|--------|


E|--------|--------|--------|--------|--------|--------|--------|-------------|-----------------------|
B|--------|--------|--------|--------|--------|--------|--------|-------------|-----------------------|
G|--------|--------|--------|--------|--------|--------|--------|--------3----|-3---------------------|
D|--------|--------|--------|--------|--------|--------|--------|-2-----------|-----------------------|
A|--------|--------|--------|--------|--------|--------|--------|-------------|-----------------------|
E|--------|--------|--------|--------|--------|--------|--------|-------------|-------24--20--17--13--|


E|-------------------|-------------------------|-------------------------|-----------------------------------------|
B|-------------------|-------------------------|-------------------------|-----------------------------------------|
G|-4-----4-----------|-------------------------|-------------------------|-----------------------------------------|
D|-4-----4-----------|-------------5---2-------|-------------------------|----------2--5---------------5---2-------|
A|-2-----0-----------|-------2--4--5---2-------|---------------2---1-----|-1--1--4--------4------2--4--5---2-------|
E|-------------3--5--|-3-----0--2--3---0-------|-----0--2--3-------------|-------------------3---0--2--3---0-------|


E|-------------------------|-----------------------------|----------------------------|
B|-------------------------|-----------------------------|----------------------------|
G|-------------------------|-----------------------4-----|-4--------------------------|
D|-------------------------|----------5--8---------4-----|-4----------------------5---|
A|---------------2---4-----|-4--4--7--------7------2-----|-0----------------2--4--5---|
E|-----0--2--3-------------|-------------------6---------|-------3--5--3----0--2--3---|


E|--------------------------------|--------------------------------------|--------------------------------|
B|--------------------------------|--------------------------------------|--------------------------------|
G|--------------------------------|--------------------------------------|--------------------------------|
D|-2------------------------------|---------------2--5---------------5---|-2------------------------------|
A|-2---------------------2---1----|------1--1--4--------4------------5---|-2---------------------2---4----|
E|-0-----------0--2--3------------|------------------------3---0--2--3---|-0-----------0--2--3------------|


E|------------------------------------|-----------------------|---------------------------------|
B|------------------------------------|-----------------------|---------------------------------|
G|------------------------------------|-----------------------|-----------------4--4--4---------|
D|---------------5--8-8---------------|-----------------------|-----------2--------------4------|
A|------4--4--7---------7--------2----|------0----------------|-----4--5--2-----------------6---|
E|-------------------------6--0-------|------------3--5--3----|-----2--3--0---------------------|


E|----------------------|---------------------|-------------|-----------------------|
B|----------------------|----------------5----|--------5----|-------5---------------|
G|-8-----8---4--4--2----|-4----6----8----4----|--------3----|-------3---------------|
D|----------------------|----------------2----|--------2----|-------2---------------|
A|----------------------|----------------2----|--------2----|-------2---------------|
E|----------------------|----------------0----|--------0----|-------0---12--0----0--|


E|-------------------------------------|--------------------------------|----------------------------|
B|-5-------5---------5---5--5--5-------|-5-------5-------5--------------|----------------------------|
G|-4---4-------4-----4---4--4--3---3---|-----3---3---3------------------|----------------------------|
D|-2-----------------2---2--2--2-------|---------2-----------------4----|-----------7-----------11---|
A|-------------------------------------|---------------------------4----|-----4--6--7-----7--9--11---|
E|----------------0--------------------|---------------------0--1--2----|-----2--4--5-----5--7--9----|


E|--------------------------|----------------------------------|---------------------------------|
B|--------------------------|----------------------------------|---------------------------------|
G|--------------------------|----------------------------------|---------------------------------|
D|-11------------------9----|-9-------9-------------------4----|-------7----------11---11--------|
A|-11------7--------7--9----|-9-------9----4--2--4--------4----|-4--6--7----7--9--11---11----7---|
E|-9----0--4-----4--5--7----|-7----7--7-------------4--0--2----|-2--4--5----5--7--9----9--0--4---|


E|-----------------------------|-----------------|-------------|--------14--|-----15----------|
B|-----------------------------|-----------------|-------------|------------|-----------------|
G|-----------------------------|-----4-----------|-------------|------------|-----------------|
D|-----------7-----2---1-------|-----4-----------|-------------|------------|-----------------|
A|----7------7-------------2---|-----2-----------|-------------|------------|-----------------|
E|----4---0--5-----------------|-4---2-----------|-------------|------------|-----------------|


E|-----------------|-----------14---12--|---------------------------------------|-----------------------------------------|
B|-----------------|--------------------|---------------------------------------|-----------------------------------------|
G|-----------------|--------------------|---------------------------------------|-----------------------------------------|
D|-----------------|--------------------|-----7-------------5---2---------------|-----------------------------------------|
A|-----------------|--------------------|---------7----------------2------------|----2--------2--2--2---2-----------2--2--|
E|-----------------|--------------------|------------8--5-------------3---2--3--|-5-----3--2--0--0--0---0-----------0--0--|


E|----------------------------------|---------------------------------------|----------------------------------|
B|----------------------------------|---------------------------------------|----------------------------------|
G|----------------------------------|---------------------------------------|----------------------------------|
D|----------------------------------|---------------------------------------|----------------------------------|
A|-2---2--------2--2--2---2--2--2---|-2--2--2---2--2--2---2-----------2--2--|-2---2--------2--2--2---2--2--2---|
E|-0---0--------0--0--0---0--0--0---|-0--0--0---0--0--0---0-----------0--0--|-0---0--------0--0--0---0--0--0---|


E|---------------------------------------|----------------------------------|---------------------------------------|
B|---------------------------------------|----------------------------------|---------------------------------------|
G|---------------------------------------|----------------------------------|---------------------------------------|
D|---------------------------------------|----------------------------------|---------------------------------------|
A|-2--2--2---2--2--2---2-----------2--2--|-2---2--------2--2--2---2--2--2---|-2--2--2---2--2--2---2-----------2--2--|
E|-0--0--0---0--0--0---0-----------0--0--|-0---0--------0--0--0---0--0--0---|-0--0--0---0--0--0---0-----------0--0--|


E|----------------------------------|---------------------------------------|----------------------------------|
B|----------------------------------|---------------------------------------|----------------------------------|
G|----------------------------------|---------------------------------------|----------------------------------|
D|----------------------------------|---------------------------------------|----------------------------------|
A|-2---2--------2--2--2---2--2--2---|-2--2--2---2--2--2---2-----------2--2--|-2---2--------2--2--2---2--2--2---|
E|-0---0--------0--0--0---0--0--0---|-0--0--0---0--0--0---0-----------0--0--|-0---0--------0--0--0---0--0--0---|


E|---------------------------------------|----------------------------------|------------------------------------|
B|---------------------------------------|----------------------------------|------------------------------------|
G|---------------------------------------|----------------------------------|---------------------9----9---------|
D|---------------------------------------|----------------------------------|---------------------9----9---------|
A|-2--2--2---2--2--2---2-----------2--2--|-2---2--------2--2--2---2--2--2---|-2--2--2---2--2--2---7----7---2--2--|
E|-0--0--0---0--0--0---0-----------0--0--|-0---0--------0--0--0---0--0--0---|-0--0--0---0--0--0------------0--0--|


E|----------------------------------|------------------------------------|----------------------------------|
B|----------------------------------|------------------------------------|----------------------------------|
G|----------------------------------|---------------------9----9---------|----------------------------------|
D|----------------------------------|---------------------9----9---------|----------------------------------|
A|-2---2--------2--2--2---2--2--2---|-2--2--2---2--2--2---7----7---2--2--|-2---2--------2--2--2---2--2--2---|
E|-0---0--------0--0--0---0--0--0---|-0--0--0---0--0--0------------0--0--|-0---0--------0--0--0---0--0--0---|


E|------------------------------------|----------------------------------|------------------------------------|
B|------------------------------------|----------------------------------|------------------------------------|
G|---------------------9----9---------|----------------------------------|---------------------9----9---------|
D|---------------------9----9---------|----------------------------------|---------------------9----9---------|
A|-2--2--2---2--2--2---7----7---2--2--|-2---2--------2--2--2---2--2--2---|-2--2--2---2--2--2---7----7---2--2--|
E|-0--0--0---0--0--0------------0--0--|-0---0--------0--0--0---0--0--0---|-0--0--0---0--0--0------------0--0--|


E|----------------------------------|-------------------------------------|-----------------------------------|
B|----------------------------------|-------------------------------------|-----------------------------------|
G|----------------------------------|-------------------------------------|-----------------------------------|
D|----------------------------------|---------------------------1---------|-2---4---------2---1---------------|
A|-2---2--------2--2--2---2--2--2---|-2--2--2---2---3---0---2-------2--2--|---------2--2----------2---3---2---|
E|-0---0--------0--0--0---0--0--0---|-0--0--0-----------------------------|-----------------------------------|


E|-----------------------------------|-----------------------------------|-----------------------------------|
B|-----------------------------------|-----------------------------------|-----------------------------------|
G|-----------------------------------|-0---2-----------------------------|-----------------------------------|
D|-------------------------1---------|---------------2---1---------------|-------------------------1---------|
A|-0---2---0---3---0---2-------2--2--|---------2--2----------2---3---2---|-0---2-------3---0---2-------2--2--|
E|-----------------------------------|-----------------------------------|---------3-------------------------|


E|-----------------------------------|-----------------------------------|---------------------------------------------|
B|-----------------------------------|-----------------------------------|---------------------------------------------|
G|-2---4-----------------------------|-----------------------------------|---------------------------------------------|
D|---------------2---1---------------|-----------------------------------|-1--4--2----------------------------2--------|
A|---------2--2----------2---3---2---|-0---2-----------------0---1---2---|---------------7--6--5--7--4--3--2-----------|
E|-----------------------------------|---------0--0--2---3---------------|-----------0---------------------------6--5--|


E|-------------------------------------------|----------------------------------------|
B|-------------------------------------------|---------------5---4--------------------|
G|-----------------------4---------2---------|-----------------------4---5---4--5--4--|
D|-------------------------------------------|-5---4----------------------------------|
A|----7--------2---2--2------2--2------2--2--|---------2--2---------------------------|
E|-3-----5--3--------------------------------|----------------------------------------|


E|---------------------------------|---------------------------------|----------------|
B|---------------------------------|---------------------------------|----------------|
G|---------------------------------|---------------------------------|----------------|
D|-7---5---4---6---7---------------|---------------------------------|---------2------|
A|---------------------4---3-------|-2---0---------------4---3---2---|---------2------|
E|-----------------------------2---|---------2---0---2---------------|-2---3---0------|


E|--------------------|-----------------------------------|--------------------------------------|
B|------5-------------|-----------------5-----------------|-5------------------5-----------------|
G|------3-------------|-----------------4-----------------|-4------------------3-----------------|
D|------2-------------|--------------2--2-----------------|-2---------------2--2-----------------|
A|--------------------|-----------------------------------|--------------------------------------|
E|------0-----24--20--|-17--13--0------------0-0-0--0--0--|-----0-0-0--0------------0-0-0--0--0--|


E|------------------|----------------|----------------|----------------|----------------|
B|-5----------------|----------------|----------------|----------------|----------------|
G|-3----------------|----------------|----------------|----------------|----------------|
D|-2---------4------|---------7------|---------11-----|-11-------------|---------9------|
A|-----------4------|-4---6---7------|-7---9---11-----|-11------7------|-----7---9------|
E|-----0--1--2------|-2---4---5------|-5---7---9------|-9---0---4------|-4---5---7------|


E|---------------------------|---------------------------|------------------------|
B|---------------------------|---------------------------|------------------------|
G|---------------------------|---------------------------|------------------------|
D|-9-------9-----------------|---------4-----4-----------|-7-----7-----------11---|
A|-9---2---9-----4---2---4---|---------4-----4---4---6---|-7-----7---7---9---11---|
E|-7-------7-----------------|-4---0---2-----2---2---4---|-5-----5---5---7---9----|


E|------------------------|-------------|------------------|--------------------|--------------------|
B|------------------------|-------------|------------------|--------------------|--------------------|
G|------------------------|-------------|------------------|--------------------|--------------------|
D|-----11-----------------|------7------|-11----------9----|-------9-------9----|--------------------|
A|-----11-------7-----7---|------7------|-11----------9----|-------9-------9----|--------------------|
E|-----9----0---4-----4---|------5------|-9-----4-----7----|-------7---7---7----|-------7----0---2---|


E|-------------|--------------------|---------------------------------------------|
B|-------------|--------------------|---------------------------------------------|
G|-------------|--------------------|---------------------------------------------|
D|-------------|--------------------|---------------------------------------------|
A|-------------|--------------------|---------------------------------------------|
E|-3------3----|--------0--2--3--0--|-0--0---0--0--2--3--0--0--0---0--0--2--3--0--|


E|---------------------------------------------|---------------------------------------------|
B|---------------------------------------------|---------------------------------------------|
G|---------------------------------------------|---------------------------------------------|
D|---------------------------------------------|---------------------------------------------|
A|---------------------------------------------|------------------------------------------5--|
E|-0--0---0--0--2--3--0--0--0---0--0--2--3--0--|-0--0---0--0--2--3--0--0--0---0--0--2--3-----|


E|-----------------------------------------------|---------------------------------------------|
B|-----------------------------------------------|---------------------------------------------|
G|-----------------------------------------------|---------------------------------------------|
D|-----------------------------------------------|---------------------------------------------|
A|-5--------4--4--------3--3-----2---------------|---------------------------------------------|
E|----0--3--------0--3--------3------0--2--3--0--|-0--0---0--0--2--3--0--0--0---0--0--2--3--0--|


E|---------------------------------------------|---------------------------------------------|
B|---------------------------------------------|---------------------------------------------|
G|---------------------------------------------|---------------------------------------------|
D|---------------------------------------------|---------------------------------------------|
A|---------------------------------------------|------------------------------------------5--|
E|-0--0---0--0--2--3--0--0--0---0--0--2--3--0--|-0--0---0--0--2--3--0--0--0---0--0--2--3-----|


E|-----------------------------------------------|---------------------------------------------|
B|-----------------------------------------------|---------------------------------------------|
G|-----------------------------------------------|---------------------------------------------|
D|-----------------------------------------------|---------------------------------------------|
A|-5--------4--4--------3--3-----2---------------|---------------------------------------------|
E|----0--3--------0--3--------3------0--2--3--0--|-0--0---0--0--2--3--0--0--0---0--0--2--3--0--|


E|---------------------------------------------|---------------------------------------------|
B|---------------------------------------------|---------------------------------------------|
G|---------------------------------------------|---------------------------------------------|
D|---------------------------------------------|---------------------------------------------|
A|---------------------------------------------|------------------------------------------5--|
E|-0--0---0--0--2--3--0--0--0---0--0--2--3--0--|-0--0---0--0--2--3--0--0--0---0--0--2--3-----|


E|-----------------------------------------------|---------------------------------------------|
B|-----------------------------------------------|---------------------------------------------|
G|-----------------------------------------------|---------------------------------------------|
D|-----------------------------------2--2--2--2--|----2--2--2--2---2--2--2--2-----2--2--2--2---|
A|-5--------4--4--------3--3-----2---------------|---------------------------------------------|
E|----0--3--------0--3--------3------------------|---------------------------------------------|


E|---------------------------------------------|---------------------------------------------|
B|---------------------------------------------|---------------------------------------------|
G|---------------------------------------------|---------------------------------------------|
D|-2--2--2---2--2--2--2-----2--2--2--2---2--2--|-2--2-----2--2--2--2---2--2--2---2--2--2--2--|
A|---------------------------------------------|---------------------------------------------|
E|---------------------------------------------|---------------------------------------------|


E|---------------------------------------------|---------------------------------------------|
B|---------------------------------------------|---------------------------------------------|
G|---------------------------------------------|---------------------------------------------|
D|----2--2--2--2---2--2--2--2-----2--2--2--2---|-2--2--2---2--2--2--2-----2--2--2--2---2--2--|
A|---------------------------------------------|---------------------------------------------|
E|---------------------------------------------|---------------------------------------------|


E|---------------------------------------------|---------------------------------------------|
B|---------------------------------------------|---------------------------------------------|
G|---------------------------------------------|---------------------------------------------|
D|-2--2-----2--2--2--2---2--2--2---------------|---------------------------------------------|
A|---------------------------------------------|---------------------------------------------|
E|---------------------------------0--0--0--0--|----0--0--0--0---0--0--0--0-----0--0--0--0---|


E|---------------------------------------------|---------------------------------------------|
B|---------------------------------------------|---------------------------------------------|
G|---------------------------------------------|---------------------------------------------|
D|---------------------------------------------|---------------------------------------------|
A|---------------------------------------------|---------------------------------------------|
E|-0--0--0---0--0--0--0-----0--0--0--0---0--0--|-0--0-----0--0--0--0---0--0--0---0--0--0--0--|


E|---------------------------------------------|---------------------------------------------|
B|---------------------------------------------|---------------------------------------------|
G|---------------------------------------------|---------------------------------------------|
D|---------------------------------------------|---------------------------------------------|
A|---------------------------------------------|---------------------------------------------|
E|----0--0--0--0---0--0--0--0-----0--0--0--0---|-0--0--0---0--0--0--0-----0--0--0--0---0--0--|


E|-------------------------------------------|--------------------------------------|
B|-------------------------------------------|--------------------------------------|
G|-------------------------------------------|--------------------------------------|
D|-------------------------------------------|--------------------------------------|
A|-------------------------------------------|--------------------------------------|
E|-0--0-----0--0--0--0---0--0--0---2--2------|-----2--2--2--2--2----------2--2------|


E|--------------------------------------|--------------------------------------|----------------------------------------------|
B|--------------------------------------|--------------------------------------|----------------------------------------------|
G|--------------------------------------|--------------------------------------|----------------------------------------------|
D|--------------------------------------|--------------------------------------|-------------------------------4--5--7--5--4--|
A|--------------------------------------|--------------------------------------|----------------------------7-----------------|
E|-----2--2--2--2--2----------2--2------|-----2--2--2--2--2----------2--2------|-----2--2--2--2--2----------------------------|


E|-------------------------------------------------------------------------|-------------------------------------------------------------------------|
B|-------------------------------------------------------------------------|----------------------------------------5--7--8--7--5-----7--8--10-8--7--|
G|----4--5--7--5--4-----------------------4--5--7--5--4--------------------|----4--5--7--5--4-----5--7--9--7--5--------------------9-----------------|
D|----------------------4--5--7--5--4-----------------------4--5--7--5--4--|-------------------9-----------------9-----------------------------------|
A|-7-----------------7-----------------7-----------------7-----------------|-7-----------------------------------------------------------------------|
E|-------------------------------------------------------------------------|-------------------------------------------------------------------------|


E|----7--8--10-8--7-----------------------------12-------------------------|----12-14-15-14-12----14-15-17-15-14----15-17-19-17-15-----14----|
B|----------------------7--8--10-8--7-----13-15----15-13----7--8--10-8--7--|-15----------------17----------------19----------------19-----18-|
G|-9-----------------9-----------------9-----------------9-----------------|-----------------------------------------------------------------|
D|-------------------------------------------------------------------------|-----------------------------------------------------------------|
A|-------------------------------------------------------------------------|-----------------------------------------------------------------|
E|-------------------------------------------------------------------------|-----------------------------------------------------------------|


E|----14-----15-181514-------14---------14----|----14-----15-181614-------14-21--21-----------|
B|-18----18------------18-17----17--19-----18-|-18----18------------18-17------------19-19-19-|
G|--------------------------------------------|-----------------------------------------------|
D|--------------------------------------------|-----------------------------------------------|
A|--------------------------------------------|-----------------------------------------------|
E|--------------------------------------------|-----------------------------------------------|


E|---------------------------------------------------------------------|---------------------------------------------------------|
B|-1920190-17-17-17-1719170-15-15-15-1517150-14-14-14-1415140-12-12-12-|-1214120-11-11-11-1112110-8--8--8--8-118-0-7--8--7-------|
G|---------------------------------------------------------------------|----------------------------------------------------9----|
D|---------------------------------------------------------------------|---------------------------------------------------------|
A|---------------------------------------------------------------------|---------------------------------------------------------|
E|---------------------------------------------------------------------|---------------------------------------------------------|


E|----------------------------------------|-------------------------------------------------|
B|-----7--8--8----8--7-----7--8--7-----7--|-------------------------------------------------|
G|----------------------9-----------9-----|-9--7-----7--------------------------------4--7--|
D|----------------------------------------|-------9-----7--5-----7-----5--4--------5--------|
A|----------------------------------------|-------------------7-----7--------5--7-----------|
E|----------------------------------------|-------------------------------------------------|


E|-------------------7--10-8-108-7--------------------------|-------7--9--7--6--7--9--7--6--------------------------9--109-7--|
B|----------------8-----------------10-8--7--8--7--6--7--8--|-7--6--------------------------7--8--7--6--7--8--7--6------------|
G|-5--4-----7--9--------------------------------------------|-----------------------------------------------------------------|
D|-------9--------------------------------------------------|-----------------------------------------------------------------|
A|----------------------------------------------------------|-----------------------------------------------------------------|
E|----------------------------------------------------------|-----------------------------------------------------------------|


E|-9--10-9--7--------------------------10-12-10-9--10-12-10-9--14-|-15-14-13-14-15-14-13-------------------------------------|
B|-------------7--8--7--6--7--8--7--6-----------------------------|----------------------------------------------------------|
G|----------------------------------------------------------------|----------------------11-12-11-10-------------------------|
D|----------------------------------------------------------------|-------------------------------------------------------9--|
A|----------------------------------------------------------------|----------------------------------9--10-9--8--7--7--7-----|
E|----------------------------------------------------------------|----------------------------------------------------------|


E|----------------------------------------------14-|-14-14----------19-19-19-------20-20-21-22-21-19----|
B|-------------------------------12-12-12-12-12----|-------17-17-17----------19-19-------------------23-|
G|----------------11-11-11-11-11-------------------|----------------------------------------------------|
D|-9--9--9--9--9-----------------------------------|----------------------------------------------------|
A|-------------------------------------------------|----------------------------------------------------|
E|-------------------------------------------------|----------------------------------------------------|


E|-------------------------------------------------------------------------|-------------------------14-18-21-18--------------------------------|
B|-20-19-23-20-19----------------------------------------------------------|----------------------14------------19------------------------------|
G|----------------21-19-18-21-19-18-16-18-19-21-19-18----------------------|-------------------15-----------------18----------------------------|
D|----------------------------------------------------21-20-17-------------|----------------16----------------------20--------------------------|
A|-------------------------------------------------------------21-19-17----|-------------16---------------------------21---------------12-14-15-|
E|----------------------------------------------------------------------21-|-19--18--14---------------------------------21181412-14-15----------|


E|----------------------------17-19-20-24-------14-------|-17-14----14----14-------19-17----17-19-20-19-17-20-|
B|-------------------17-19-20---------------17-----17-14-|-------17----17----17-14-------19-------------------|
G|----------14-16-17-------------------------------------|----------------------------------------------------|
D|-14-16-17----------------------------------------------|----------------------------------------------------|
A|-------------------------------------------------------|----------------------------------------------------|
E|-------------------------------------------------------|----------------------------------------------------|


E|-19-------17-------------------------7--8--7--5--8--|-7--------5-------------------------------|
B|----19-17----19-17-16-19-17-16----------------------|----7--5-----7--5--4--7--5--4-------------|
G|-------------------------------17-------------------|-------------------------------5-----4----|
D|----------------------------------19----------------|----------------------------------7--4----|
A|----------------------------------------------------|-------------------------------------2----|
E|----------------------------------------------------|------------------------------------------|


E|------------------------|-------------------------------|---------------------------------------------|
B|-----0---0--------------|-----0---0---------------------|---------------------------------------------|
G|-------------------4----|-------------------------------|---------------------------------------------|
D|-------------------4----|-------------------------------|---------------------------------------------|
A|---------------2---2----|---------------2------------5--|-5--------4--4--------3--3-----2-------------|
E|------------------------|-------------------0--2--3-----|----0--3--------0--3--------3------2--2------|


E|----------------------------------------|---------------------------------------------|
B|----------------------------------------|---------------------------------------------|
G|----------------------------------------|---------------------------------------------|
D|----------------------------------------|---------------------------------------------|
A|----------------------------------------|------------------------------------------5--|
E|-----2--2--2--2--2----------0--2--3--0--|-0--0---0--0--2--3--0--0--0---0--0--2--3-----|


E|---------------------------------------------|--------------------------------------|
B|---------------------------------------------|--------------------------------------|
G|---------------------------------------------|--------------------------------------|
D|---------------------------------------------|--------------------------------------|
A|-5--------4--4--------3--3-----2-------------|--------------------------------------|
E|----0--3--------0--3--------3------2--2------|-----2--2--2--2--2----------2--2------|


E|----------------------------------------|---------------------------------------------|
B|----------------------------------------|---------------------------------------------|
G|----------------------------------------|---------------------------------------------|
D|----------------------------------------|---------------------------------------------|
A|----------------------------------------|---------------------------------------------|
E|-----2--2--2--2--2----------0--2--3--0--|-0--0---0--0--2--3--0--0--0---0--0--2--3--0--|


E|---------------------------------------------|---------------------------------------------|
B|---------------------------------------------|---------------------------------------------|
G|---------------------------------------------|---------------------------------------------|
D|---------------------------------------------|---------------------------------------------|
A|------------------------------------------5--|-5--------4--4--------3--3-----2-------------|
E|-0--0---0--0--2--3--0--0--0---0--0--2--3-----|----0--3--------0--3--------3------2--2------|


E|--------------------------------------|--------------------------------------|----------------------------------------|
B|--------------------------------------|--------------------------------------|----------------------------------------|
G|--------------------------------------|--------------------------------------|----------------------------------------|
D|--------------------------------------|--------------------------------------|----------------------------------------|
A|--------------------------------------|--------------------------------------|----------------------------------------|
E|-----2--2--2--2--2----------2--2------|-----2--2--2--2--2----------2--2------|-----2--2--2--2--2----------0--2--3--0--|


E|---------------------------------------------|---------------------------------------------|
B|---------------------------------------------|---------------------------------------------|
G|---------------------------------------------|---------------------------------------------|
D|---------------------------------------------|---------------------------------------------|
A|---------------------------------------------|---------------------------------------------|
E|-0--0---0--0--2--3--0--0--0---0--0--2--3--0--|-0--0---0--0--2--3--0--0--0---0--0--2--3--0--|


E|---------------------------------------------|---------------------------------------------|
B|---------------------------------------------|---------------------------------------------|
G|---------------------------------------------|---------------------------------------------|
D|---------------------------------------------|---------------------------------------------|
A|------------------------------------------5--|-5--------4--4--------3--3-----2-------------|
E|-0--0---0--0--2--3--0--0--0---0--0--2--3-----|----0--3--------0--3--------3------2--2------|


E|--------------------------------------|--------------------------------------|--------------------------------------|
B|--------------------------------------|--------------------------------------|--------------------------------------|
G|--------------------------------------|--------------------------------------|--------------------------------------|
D|--------------------------------------|--------------------------------------|--------------------------------------|
A|--------------------------------------|--------------------------------------|--------------------------------------|
E|-----2--2--2--2--2----------2--2------|-----2--2--2--2--2----------2--2------|-----2--2--2--2--2----------2--2------|


E|------------------------------------|-------------------------------------------|
B|------------------------------------|-------------------------------------------|
G|------------------------------------|-------4---4-----------2--4-----2----------|
D|------------------------------------|-----------------------------5-------------|
A|----------------------------2----2--|-2--2---------2--2--2--------------2----2--|
E|-----2--2--2--2--2------------------|-------------------------------------------|


E|---------------------------------------------|---------------------------------------------|
B|---------------------------------------------|---------------------------------------------|
G|-------2----------------2--------------------|-------2--5--4--5--2--4-----2----------------|
D|---------------------5-----4--5--2--1--------|-1--4--------------------5-----4--5--2-------|
A|-2--2-------2--2--2--------------------3--2--|---------------------------------------------|
E|---------------------------------------------|---------------------------------------------|


E|------------------------------------------|-------------------------------------------------|
B|------13-12-0--16-0--0--17-0--0--19-0--0--|-20-0--22-0--24-0--0--22-0--0--20-0--0--19-0--0--|
G|------------------------------------------|-------------------------------------------------|
D|------------------------------------------|-------------------------------------------------|
A|------------------------------------------|-------------------------------------------------|
E|------------------------------------------|-------------------------------------------------|


E|-------------------------------------------------|-------------------------------------------------|
B|-17-0--16-0--13-12-0--16-0--0--17-0--0--19-0--0--|-20-0--22-0--24-0--0--22-0--0--20-0--0--19-0--0--|
G|-------------------------------------------------|-------------------------------------------------|
D|-------------------------------------------------|-------------------------------------------------|
A|-------------------------------------------------|-------------------------------------------------|
E|-------------------------------------------------|-------------------------------------------------|


E|-------------------------------------------------|-------------------------------------------------|
B|-17-0--16-0--5--0--0--7--0--0--8--0--0--10-0--0--|-12-0--16-0--17-0--0--16-0--0--13-0--0--12-0--0--|
G|-------------------------------------------------|-------------------------------------------------|
D|-------------------------------------------------|-------------------------------------------------|
A|-------------------------------------------------|-------------------------------------------------|
E|-------------------------------------------------|-------------------------------------------------|


E|-------------------------------------------------|-------------------------------------------------|
B|-8--0--7--0--5--0--0--7--0--0--8--0--0--10-0--0--|-12-0--16-0--17-0--0--16-0--0--13-0--0--12-0--0--|
G|-------------------------------------------------|-------------------------------------------------|
D|-------------------------------------------------|-------------------------------------------------|
A|-------------------------------------------------|-------------------------------------------------|
E|-------------------------------------------------|-------------------------------------------------|


E|-------------------------------------------------|-------------------------------------------------|
B|-8--0--7--0--13-12-0--16-0--0--17-0--0--19-0--0--|-20-0--22-0--24-0--0--22-0--0--20-0--0--19-0--0--|
G|-------------------------------------------------|-------------------------------------------------|
D|-------------------------------------------------|-------------------------------------------------|
A|-------------------------------------------------|-------------------------------------------------|
E|-------------------------------------------------|-------------------------------------------------|


E|-------------------------------------------------|-------------------------------------------------|
B|-17-0--16-0--13-12-0--16-0--0--17-0--0--19-0--0--|-20-0--22-0--24-0--0--22-0--0--20-0--0--19-0--0--|
G|-------------------------------------------------|-------------------------------------------------|
D|-------------------------------------------------|-------------------------------------------------|
A|-------------------------------------------------|-------------------------------------------------|
E|-------------------------------------------------|-------------------------------------------------|


E|-------------------------------------------------|-------------------------------------------------|
B|-17-0--16-0--5--0--0--7--0--0--8--0--0--10-0--0--|-12-0--16-0--17-0--0--16-0--0--13-0--0--12-0--0--|
G|-------------------------------------------------|-------------------------------------------------|
D|-------------------------------------------------|-------------------------------------------------|
A|-------------------------------------------------|-------------------------------------------------|
E|-------------------------------------------------|-------------------------------------------------|


E|-------------------------------------------------|-------------------------------------------------|
B|-8--0--7--0--5--0--0--7--0--0--8--0--0--10-0--0--|-12-0--16-0--17-0--0--16-0--0--13-0--0--12-0--0--|
G|-------------------------------------------------|-------------------------------------------------|
D|-------------------------------------------------|-------------------------------------------------|
A|-------------------------------------------------|-------------------------------------------------|
E|-------------------------------------------------|-------------------------------------------------|


E|-------------8--7--0--10-0--0--12-0--0--14-0--0--|-15-0--17-0--19-0--0--17-0--0--15-0--0--14-0--0--|
B|-8--0--7--0--------------------------------------|-------------------------------------------------|
G|-------------------------------------------------|-------------------------------------------------|
D|-------------------------------------------------|-------------------------------------------------|
A|-------------------------------------------------|-------------------------------------------------|
E|-------------------------------------------------|-------------------------------------------------|


E|-12-0--10-0--8--7--0--10-0--0--12-0--0--14-0--0--|-15-0--17-0--22-0--0--20-0--0--19-0--0--17-0--0--|
B|-------------------------------------------------|-------------------------------------------------|
G|-------------------------------------------------|-------------------------------------------------|
D|-------------------------------------------------|-------------------------------------------------|
A|-------------------------------------------------|-------------------------------------------------|
E|-------------------------------------------------|-------------------------------------------------|


E|-15-0--14-0--24-0--0--24-0--0--24-0--0--24-0--0--|-24-0--24-0--24-0--0--24-0--0--24-0--0--24-0--0--|
B|-------------------------------------------------|-------------------------------------------------|
G|-------------------------------------------------|-------------------------------------------------|
D|-------------------------------------------------|-------------------------------------------------|
A|-------------------------------------------------|-------------------------------------------------|
E|-------------------------------------------------|-------------------------------------------------|


E|-24-0--24-0--24-0--0--24-0--0--24-0--0--24-0--0--|-24-0--24-0---------|--------|
B|-------------------------------------------------|--------------------|--------|
G|-------------------------------------------------|--------------------|--------|
D|-------------------------------------------------|--------------------|--------|
A|-------------------------------------------------|--------------------|--------|
E|-------------------------------------------------|--------------------|--------|


E|--------|--------|
B|--------|--------|
G|--------|--------|
D|--------|--------|
A|--------|--------|
E|--------|--------|





Track 3: Gtr3

E|--------|--------|--------|--------|--------|--------|--------|--------|--------|
B|--------|--------|--------|--------|--------|--------|--------|--------|--------|
G|--------|--------|--------|--------|--------|--------|--------|--------|--------|
D|--------|--------|--------|--------|--------|--------|--------|--------|--------|
A|--------|--------|--------|--------|--------|--------|--------|--------|--------|
E|--------|--------|--------|--------|--------|--------|--------|--------|--------|


E|--------|--------|--------|--------|--------|--------|--------|-------------|-----------------------|
B|--------|--------|--------|--------|--------|--------|--------|-------------|-----------------------|
G|--------|--------|--------|--------|--------|--------|--------|-------------|-----------------------|
D|--------|--------|--------|--------|--------|--------|--------|-------------|-----------------------|
A|--------|--------|--------|--------|--------|--------|--------|--------1----|-1---------------------|
E|--------|--------|--------|--------|--------|--------|--------|-0-----------|-------24--20--17--13--|


E|-------------------|-------------|--------|--------|--------|--------|--------|--------|
B|-------------------|-------------|--------|--------|--------|--------|--------|--------|
G|-------------------|-------------|--------|--------|--------|--------|--------|--------|
D|-------------------|-------------|--------|--------|--------|--------|--------|--------|
A|-2-----0-----------|-------------|--------|--------|--------|--------|--------|--------|
E|-------------3--5--|-3-----------|--------|--------|--------|--------|--------|--------|


E|--------|--------|--------|--------|--------|--------|--------|--------|--------|
B|--------|--------|--------|--------|--------|--------|--------|--------|--------|
G|--------|--------|--------|--------|--------|--------|--------|--------|--------|
D|--------|--------|--------|--------|--------|--------|--------|--------|--------|
A|--------|--------|--------|--------|--------|--------|--------|--------|--------|
E|--------|--------|--------|--------|--------|--------|--------|--------|--------|


E|--------|--------|--------|--------|--------|--------|--------|-----------------|
B|--------|--------|--------|--------|--------|--------|--------|-----------------|
G|--------|--------|--------|--------|--------|--------|--------|-----------------|
D|--------|--------|--------|--------|--------|--------|--------|-----------------|
A|--------|--------|--------|--------|--------|--------|--------|-----------------|
E|--------|--------|--------|--------|--------|--------|--------|-----------------|


E|--------|------------|-----------------|-------------|--------------------|--------|
B|--------|--------10--|-----12----------|-------------|-----------10---8---|--------|
G|--------|------------|-----------------|-------------|--------------------|--------|
D|--------|------------|-----------------|-------------|--------------------|--------|
A|--------|------------|-----------------|-------------|--------------------|--------|
E|--------|------------|-----------------|-------------|--------------------|--------|


E|--------|--------|--------|--------|--------|--------|--------|--------|--------|
B|--------|--------|--------|--------|--------|--------|--------|--------|--------|
G|--------|--------|--------|--------|--------|--------|--------|--------|--------|
D|--------|--------|--------|--------|--------|--------|--------|--------|--------|
A|--------|--------|--------|--------|--------|--------|--------|--------|--------|
E|--------|--------|--------|--------|--------|--------|--------|--------|--------|


E|--------|--------|--------|--------|--------|--------|--------|--------|--------|
B|--------|--------|--------|--------|--------|--------|--------|--------|--------|
G|--------|--------|--------|--------|--------|--------|--------|--------|--------|
D|--------|--------|--------|--------|--------|--------|--------|--------|--------|
A|--------|--------|--------|--------|--------|--------|--------|--------|--------|
E|--------|--------|--------|--------|--------|--------|--------|--------|--------|


E|--------|--------|--------|--------|--------|--------|--------|--------|--------|
B|--------|--------|--------|--------|--------|--------|--------|--------|--------|
G|--------|--------|--------|--------|--------|--------|--------|--------|--------|
D|--------|--------|--------|--------|--------|--------|--------|--------|--------|
A|--------|--------|--------|--------|--------|--------|--------|--------|--------|
E|--------|--------|--------|--------|--------|--------|--------|--------|--------|


E|--------|--------|--------|--------|--------|--------|--------|--------|--------|
B|--------|--------|--------|--------|--------|--------|--------|--------|--------|
G|--------|--------|--------|--------|--------|--------|--------|--------|--------|
D|--------|--------|--------|--------|--------|--------|--------|--------|--------|
A|--------|--------|--------|--------|--------|--------|--------|--------|--------|
E|--------|--------|--------|--------|--------|--------|--------|--------|--------|


E|--------|--------|--------|--------|--------|--------|--------|--------|--------|
B|--------|--------|--------|--------|--------|--------|--------|--------|--------|
G|--------|--------|--------|--------|--------|--------|--------|--------|--------|
D|--------|--------|--------|--------|--------|--------|--------|--------|--------|
A|--------|--------|--------|--------|--------|--------|--------|--------|--------|
E|--------|--------|--------|--------|--------|--------|--------|--------|--------|


E|--------|--------|--------|--------|--------|--------|--------|--------|--------|
B|--------|--------|--------|--------|--------|--------|--------|--------|--------|
G|--------|--------|--------|--------|--------|--------|--------|--------|--------|
D|--------|--------|--------|--------|--------|--------|--------|--------|--------|
A|--------|--------|--------|--------|--------|--------|--------|--------|--------|
E|--------|--------|--------|--------|--------|--------|--------|--------|--------|


E|--------|--------|--------|--------|--------|--------|--------|--------|--------|
B|--------|--------|--------|--------|--------|--------|--------|--------|--------|
G|--------|--------|--------|--------|--------|--------|--------|--------|--------|
D|--------|--------|--------|--------|--------|--------|--------|--------|--------|
A|--------|--------|--------|--------|--------|--------|--------|--------|--------|
E|--------|--------|--------|--------|--------|--------|--------|--------|--------|


E|--------|--------|--------|--------|--------|--------|--------|--------|--------|
B|--------|--------|--------|--------|--------|--------|--------|--------|--------|
G|--------|--------|--------|--------|--------|--------|--------|--------|--------|
D|--------|--------|--------|--------|--------|--------|--------|--------|--------|
A|--------|--------|--------|--------|--------|--------|--------|--------|--------|
E|--------|--------|--------|--------|--------|--------|--------|--------|--------|


E|--------|--------|--------|--------|--------|--------|--------------------|---------------------------------------------|
B|--------|--------|--------|--------|--------|--------|--------------------|---------------------------------------------|
G|--------|--------|--------|--------|--------|--------|--------------------|---------------------------------------------|
D|--------|--------|--------|--------|--------|--------|--------------------|---------------------------------------------|
A|--------|--------|--------|--------|--------|--------|--------------------|---------------------------------------------|
E|--------|--------|--------|--------|--------|--------|--------0--2--3--0--|-0--0---0--0--2--3--0--0--0---0--0--2--3--0--|


E|---------------------------------------------|---------------------------------------------|
B|---------------------------------------------|---------------------------------------------|
G|---------------------------------------------|---------------------------------------------|
D|---------------------------------------------|---------------------------------------------|
A|---------------------------------------------|------------------------------------------5--|
E|-0--0---0--0--2--3--0--0--0---0--0--2--3--0--|-0--0---0--0--2--3--0--0--0---0--0--2--3-----|


E|---------------------------------------------|--------------------------------------|
B|---------------------------------------------|--------------------------------------|
G|---------------------------------------------|--------------------------------------|
D|---------------------------------------------|--------------------------------------|
A|-5--------4--4--------3--3-----2-------------|--------------------------------------|
E|----0--3--------0--3--------3------2--2------|-----2--2--2--2--2----------2--2------|


E|--------------------------------------|--------------------------------------|----------------------------------------|
B|--------------------------------------|--------------------------------------|----------------------------------------|
G|--------------------------------------|--------------------------------------|----------------------------------------|
D|--------------------------------------|--------------------------------------|----------------------------------------|
A|--------------------------------------|--------------------------------------|----------------------------------------|
E|-----2--2--2--2--2----------2--2------|-----2--2--2--2--2----------2--2------|-----2--2--2--2--2----------0--2--3--0--|


E|---------------------------------------------|---------------------------------------------|
B|---------------------------------------------|---------------------------------------------|
G|---------------------------------------------|---------------------------------------------|
D|---------------------------------------------|---------------------------------------------|
A|---------------------------------------------|------------------------------------------5--|
E|-0--0---0--0--2--3--0--0--0---0--0--2--3--0--|-0--0---0--0--2--3--0--0--0---0--0--2--3-----|


E|---------------------------------------------|--------------------------------------|
B|---------------------------------------------|--------------------------------------|
G|---------------------------------------------|--------------------------------------|
D|---------------------------------------------|--------------------------------------|
A|-5--------4--4--------3--3-----2-------------|--------------------------------------|
E|----0--3--------0--3--------3------2--2------|-----2--2--2--2--2----------2--2------|


E|--------------------------------------|----------------------------------------|
B|--------------------------------------|----------------------------------------|
G|--------------------------------------|----------------------------------------|
D|--------------------------------------|----------------------------------------|
A|--------------------------------------|----------------------------------------|
E|-----2--2--2--2--2----------2--2------|-----2--2--2--2--2----------0--2--3--0--|


E|---------------------------------------------|---------------------------------------------|
B|---------------------------------------------|---------------------------------------------|
G|---------------------------------------------|---------------------------------------------|
D|---------------------------------------------|---------------------------------------------|
A|------------------------------------------5--|-5--------4--4--------3--3-----2-------------|
E|-0--0---0--0--2--3--0--0--0---0--0--2--3-----|----0--3--------0--3--------3------2--2------|


E|--------------------------------------|----------------------------------------|
B|--------------------------------------|----------------------------------------|
G|--------------------------------------|----------------------------------------|
D|--------------------------------------|----------------------------------------|
A|--------------------------------------|-------------------------------------5--|
E|-----2--2--2--2--2----------2--2------|-----2--2--2--2--2----------0--2--3-----|


E|---------------------------------------------|---------------------------------|
B|---------------------------------------------|---------------------------------|
G|---------------------------------------------|---------------------------------|
D|---------------------------------------------|---------------------------------|
A|-5--------4--4--------3--3-----2-------------|---------------------------------|
E|----0--3--------0--3--------3------2--2------|-----2--2--2--2--2---------------|


E|--------|--------|--------|--------|--------|--------|--------|--------|--------|
B|--------|--------|--------|--------|--------|--------|--------|--------|--------|
G|--------|--------|--------|--------|--------|--------|--------|--------|--------|
D|--------|--------|--------|--------|--------|--------|--------|--------|--------|
A|--------|--------|--------|--------|--------|--------|--------|--------|--------|
E|--------|--------|--------|--------|--------|--------|--------|--------|--------|


E|--------|--------|--------|--------|--------|--------|--------|--------|--------|
B|--------|--------|--------|--------|--------|--------|--------|--------|--------|
G|--------|--------|--------|--------|--------|--------|--------|--------|--------|
D|--------|--------|--------|--------|--------|--------|--------|--------|--------|
A|--------|--------|--------|--------|--------|--------|--------|--------|--------|
E|--------|--------|--------|--------|--------|--------|--------|--------|--------|


E|--------|--------|--------|--------|--------|--------|--------|--------|--------|
B|--------|--------|--------|--------|--------|--------|--------|--------|--------|
G|--------|--------|--------|--------|--------|--------|--------|--------|--------|
D|--------|--------|--------|--------|--------|--------|--------|--------|--------|
A|--------|--------|--------|--------|--------|--------|--------|--------|--------|
E|--------|--------|--------|--------|--------|--------|--------|--------|--------|


E|--------|--------|--------|--------|--------|--------|--------|--------|--------|
B|--------|--------|--------|--------|--------|--------|--------|--------|--------|
G|--------|--------|--------|--------|--------|--------|--------|--------|--------|
D|--------|--------|--------|--------|--------|--------|--------|--------|--------|
A|--------|--------|--------|--------|--------|--------|--------|--------|--------|
E|--------|--------|--------|--------|--------|--------|--------|--------|--------|


E|--------|--------|--------|--------|--------|--------|--------|--------|--------|
B|--------|--------|--------|--------|--------|--------|--------|--------|--------|
G|--------|--------|--------|--------|--------|--------|--------|--------|--------|
D|--------|--------|--------|--------|--------|--------|--------|--------|--------|
A|--------|--------|--------|--------|--------|--------|--------|--------|--------|
E|--------|--------|--------|--------|--------|--------|--------|--------|--------|


E|--------|--------|--------|--------|--------|---------------------------|-----------------|
B|--------|--------|--------|--------|--------|---------------------------|-----------------|
G|--------|--------|--------|--------|--------|---------------------------|-----------------|
D|--------|--------|--------|--------|--------|-------------------2-------|-----------------|
A|--------|--------|--------|--------|--------|-------------------2-------|-----------------|
E|--------|--------|--------|--------|--------|------0---2---3----0-------|-----------------|


E|-------------|--------|
B|-------------|--------|
G|-------------|--------|
D|-------------|--------|
A|-------------|--------|
E|-------------|--------|





Track 4: Synth

E|--------|--------|--------|--------|--------|--------|--------|--------|--------|
B|--------|--------|--------|--------|--------|--------|--------|--------|--------|
G|--------|--------|--------|--------|--------|--------|--------|--------|--------|
D|--------|--------|--------|--------|--------|--------|--------|--------|--------|
A|--------|--------|--------|--------|--------|--------|--------|--------|--------|
E|--------|--------|--------|--------|--------|--------|--------|--------|--------|


E|--------|--------|--------|--------|--------|--------|--------|--------|--------|
B|--------|--------|--------|--------|--------|--------|--------|--------|--------|
G|--------|--------|--------|--------|--------|--------|--------|--------|--------|
D|--------|--------|--------|--------|--------|--------|--------|--------|--------|
A|--------|--------|--------|--------|--------|--------|--------|--------|--------|
E|--------|--------|--------|--------|--------|--------|--------|--------|--------|


E|--------|--------|--------|--------|--------|--------|--------|--------|--------|
B|--------|--------|--------|--------|--------|--------|--------|--------|--------|
G|--------|--------|--------|--------|--------|--------|--------|--------|--------|
D|--------|--------|--------|--------|--------|--------|--------|--------|--------|
A|--------|--------|--------|--------|--------|--------|--------|--------|--------|
E|--------|--------|--------|--------|--------|--------|--------|--------|--------|


E|--------|--------|--------|--------|--------|--------|--------|--------|--------|
B|--------|--------|--------|--------|--------|--------|--------|--------|--------|
G|--------|--------|--------|--------|--------|--------|--------|--------|--------|
D|--------|--------|--------|--------|--------|--------|--------|--------|--------|
A|--------|--------|--------|--------|--------|--------|--------|--------|--------|
E|--------|--------|--------|--------|--------|--------|--------|--------|--------|


E|--------|--------|--------|--------|--------|--------|--------|-------8----7----|
B|--------|--------|--------|--------|--------|--------|--------|-------10---9----|
G|--------|--------|--------|--------|--------|--------|--------|-----------------|
D|--------|--------|--------|--------|--------|--------|--------|-------10---9----|
A|--------|--------|--------|--------|--------|--------|--------|-----------------|
E|--------|--------|--------|--------|--------|--------|--------|-----------------|


E|--------|--------|------8----7---------|--------|--------|--------|--------|--------|
B|--------|--------|------10---9---------|--------|--------|--------|--------|--------|
G|--------|--------|---------------------|--------|--------|--------|--------|--------|
D|--------|--------|------10---9---------|--------|--------|--------|--------|--------|
A|--------|--------|---------------------|--------|--------|--------|--------|--------|
E|--------|--------|---------------------|--------|--------|--------|--------|--------|


E|--------|--------|--------|--------|--------|--------|--------|--------|--------|
B|--------|--------|--------|--------|--------|--------|--------|--------|--------|
G|--------|--------|--------|--------|--------|--------|--------|--------|--------|
D|--------|--------|--------|--------|--------|--------|--------|--------|--------|
A|--------|--------|--------|--------|--------|--------|--------|--------|--------|
E|--------|--------|--------|--------|--------|--------|--------|--------|--------|


E|--------|--------|--------|--------|--------|--------|--------|--------|--------|
B|--------|--------|--------|--------|--------|--------|--------|--------|--------|
G|--------|--------|--------|--------|--------|--------|--------|--------|--------|
D|--------|--------|--------|--------|--------|--------|--------|--------|--------|
A|--------|--------|--------|--------|--------|--------|--------|--------|--------|
E|--------|--------|--------|--------|--------|--------|--------|--------|--------|


E|--------|--------|--------|--------|--------|--------|--------|--------|--------|
B|--------|--------|--------|--------|--------|--------|--------|--------|--------|
G|--------|--------|--------|--------|--------|--------|--------|--------|--------|
D|--------|--------|--------|--------|--------|--------|--------|--------|--------|
A|--------|--------|--------|--------|--------|--------|--------|--------|--------|
E|--------|--------|--------|--------|--------|--------|--------|--------|--------|


E|--------|--------|--------|--------|--------|--------|--------|--------|--------|
B|--------|--------|--------|--------|--------|--------|--------|--------|--------|
G|--------|--------|--------|--------|--------|--------|--------|--------|--------|
D|--------|--------|--------|--------|--------|--------|--------|--------|--------|
A|--------|--------|--------|--------|--------|--------|--------|--------|--------|
E|--------|--------|--------|--------|--------|--------|--------|--------|--------|


E|--------|--------|--------|--------|--------|--------|--------|--------|--------|
B|--------|--------|--------|--------|--------|--------|--------|--------|--------|
G|--------|--------|--------|--------|--------|--------|--------|--------|--------|
D|--------|--------|--------|--------|--------|--------|--------|--------|--------|
A|--------|--------|--------|--------|--------|--------|--------|--------|--------|
E|--------|--------|--------|--------|--------|--------|--------|--------|--------|


E|--------|--------|--------|--------|--------|--------|--------|--------|--------|
B|--------|--------|--------|--------|--------|--------|--------|--------|--------|
G|--------|--------|--------|--------|--------|--------|--------|--------|--------|
D|--------|--------|--------|--------|--------|--------|--------|--------|--------|
A|--------|--------|--------|--------|--------|--------|--------|--------|--------|
E|--------|--------|--------|--------|--------|--------|--------|--------|--------|


E|--------|--------|--------|--------|--------|--------------------|-------------------------------10----10-------9--|
B|--------|--------|--------|--------|--------|--------8-----8--7--|----7--8--7--8--7-----7--8-----12----12----8--11-|
G|--------|--------|--------|--------|--------|--------9--9--9--8--|-9--8--9--8--9--8--9--8--9--9--9--9--9--9--9--9--|
D|--------|--------|--------|--------|--------|--------------------|-------------------------------------------------|
A|--------|--------|--------|--------|--------|--------------------|-------------------------------------------------|
E|--------|--------|--------|--------|--------|--------------------|-------------------------------------------------|


E|-------8-----8--7-----7--------------------------|-------------------------------15----15-0--15-14-|
B|----11-10----10-------8--7-----8-----8-----8--7--|----7--8--7--8--7-----7--8-----17----17----17-16-|
G|-9--9--9--9-----9--9-----8--9--9--9--9--9--9--8--|-9--8--9--8--9--8--9--8--9--9-----9--------------|
D|-------------------------------------------------|-------------------------------17----17-17-17-16-|
A|-------------------------------------------------|-------------------------------------------------|
E|-------------------------------------------------|-------------------------------------------------|


E|-0--14-13-0--13-12-0-----------------------------|-------------------------------10----10-------9--|
B|----16-15----15-14----13-------8-----8-----8--7--|----7--8--7--8--7-----7--8-----12----12----8--11-|
G|----------------------12-11-9--9--9--9--9--9--8--|-9--8--9--8--9--8--9--8--9--9--9--9--9--9--9--9--|
D|----16-15----15-14-------13----------------------|-------------------------------------------------|
A|-------------------------------------------------|-------------------------------------------------|
E|-------------------------------------------------|-------------------------------------------------|


E|-------8-----8--7-----7--------------15-12-------|----12-----------14--------------------------|
B|----11-10----10-------8--7-----8-----------12----|-------12-----------14-11-------14-11--------|
G|-9--9--9--9-----9--9-----8--9--9--9--12-------12-|----------12-----11-------11----------11-6---|
D|----------------------------------------14-------|----14-------14-----11----------11-----------|
A|-------------------------------------------14-10-|-------14-10-----------13-9--------13-9--7---|
E|-------------------------------------12-12-12-12-|----12-12-12-12--12-12-12-12----12-12-12-9---|


E|-12-----------------------7------------9--6--|--------6--2---------8--5------7-----0-----|
B|----13-10--12----------------8---------------|-7------------2------------5---0--8--0--0--|
G|--------------12----------9-----9------6-----|----6------------3---5------------0--------|
D|-14-10-----------14-14-------5-----9------8--|-4---------------2------7------------------|
A|-------12--14-10-------------------7---------|----7------------1---------7------------7--|
E|-12-12-12--12-12-12-12----12-12-12-7---12-12-|-12-9---12-12-9------12-12-12--12-12-12-7--|


E|-------0---------6--------------2------------|--------------------------------------------------------------5--|
B|----8-----0---------7--------------2---------|-----------------------------------------------5--6--7--8--9-----|
G|----0--------0---------6--5-----------3------|-2------------------------------4--5--6--7--8--------------------|
D|-------------2------------------4--------4---|-2--2--2------------5--6--7--8-----------------------------------|
A|----------7------------------------4--1------|-------3---7--8--9-----------------------------------------------|
E|----12-12-7--3---12-12-9--8--------------2---|-5--0------------------------------------------------------------|


E|-6--7--8--9-----------------151617182021212224--------------|-----------------------------------------------|
B|-------------15-16-17-18-19---------------------------------|-----------------------------17----17----17-16-|
G|------------------------------------------------14----14-13-|-------14-14--14-14-14-------18----18----18-17-|
D|------------------------------------------------16-16-16-15-|-16-15-16-16--16-16----15-16----16----16-------|
A|------------------------------------------------------------|-----------------------------------------------|
E|------------------------------------------------------------|-----------------------------------------------|


E|-------------------------------------------------|-----------------------------17----17-------16-|
B|----16-15----15-14-------------------------------|-----------------------------19----19-------18-|
G|----17-16----16-15----15-13----14----14----14-13-|-------14-14--14-14-14-13-11-------------14----|
D|-16-------16-------16-16-15-16-16-16-16-16-16-15-|-16-15-16-16--16-16----15-------16----16-16----|
A|-------------------------------------------------|-----------------------------------------------|
E|-------------------------------------------------|-----------------------------------------------|


E|-------15-------14------------------------|--------|--------|--------|--------|--------|
B|-------17-------16------------------------|--------|--------|--------|--------|--------|
G|----14-------14-------14-13----14---------|--------|--------|--------|--------|--------|
D|-16-16----16-16----16-16-15-16-16-16------|--------|--------|--------|--------|--------|
A|------------------------------------------|--------|--------|--------|--------|--------|
E|------------------------------------------|--------|--------|--------|--------|--------|


E|--------|--------|--------|--------|--------|--------|--------|--------|--------|
B|--------|--------|--------|--------|--------|--------|--------|--------|--------|
G|--------|--------|--------|--------|--------|--------|--------|--------|--------|
D|--------|--------|--------|--------|--------|--------|--------|--------|--------|
A|--------|--------|--------|--------|--------|--------|--------|--------|--------|
E|--------|--------|--------|--------|--------|--------|--------|--------|--------|


E|--------|--------|--------|--------|--------|--------|--------|--------------------------|
B|--------|--------|--------|--------|--------|--------|--------|-----------------------10-|
G|--------|--------|--------|--------|--------|--------|--------|--------------9--11-12----|
D|--------|--------|--------|--------|--------|--------|--------|--------9--12-------------|
A|--------|--------|--------|--------|--------|--------|--------|--------------------------|
E|--------|--------|--------|--------|--------|--------|--------|--------------------------|


E|-------------11-------11-12-14-17-14-------14-15-17-18-19-------18-------|-17-14----16-14----15-------14-------13---------------------|
B|----10-12-13----12-13----------------16-17----------------19-------19----|----------------------17-------16-------15----17-15---------|
G|-11----------------------------------------------------------16-------16-|-------16-------16-------16-------16-------16-------16------|
D|-------------------------------------------------------------------------|-------------------------------------------------------9----|
A|-------------------------------------------------------------------------|-------------------------------------------------------7----|
E|-------------------------------------------------------------------------|------------------------------------------------------------|


E|-------------|----------------------------------------------------------|------------------------------------------17-19-22-22--|
B|-------------|----------------------------------------------------------|------------------------------------17-20--------------|
G|-------------|-----------------------------------------------4--2---2---|-2-------------------9--------9--12--------------------|
D|-------------|-----------------------------------4-----7--4-------------|---------------9--12----9--12--------------------------|
A|-------------|--------------0--2-----5--2--7--2-----2-------------------|------9--19-9------------------------------------------|
E|--------2----|-----0--5--0--------2-------------------------------------|-------------------------------------------------------|


E|-22---------------|-------------------------------------|----------------21--------------|
B|------------------|-------------------------------------|----------1417--------10-10-10--|
G|------------------|-------------------------------------|--------14----14----------------|
D|--------9--11-----|-11--11--11--11--11---7-------7------|-16-1416------------------------|
A|------------------|--------------------9---9-7-9---9----|--------------------------------|
E|------------------|-------------------------------------|--------------------------------|


E|-------------------7-------------------------------|-----------------------17---|
B|-----10-8--10-8------108---8-------8---------------|----------------------------|
G|-------------------------9---9-7-9---9-7---7-9-7---|----------------------------|
D|-----------------------------------------9-------9-|-7-9-7-9---5----------------|
A|---------------------------------------------------|---------7---7-5-7----------|
E|---------------------------------------------------|----------------------------|


E|-----19-19-19-19---------|------------------------|--------------------|---------------------------------------------------------|
B|-------------------------|---------------3---3----|-----2---2----------|---------------------------------------------------------|
G|--------------------6----|-----6----7-------------|---------------4----|-4-------------------------------------------------------|
D|-------------------------|------------------------|--------------------|----8--5--4-----5--4-------------------------------------|
A|-------------------------|------------------------|--------------------|-------------7--------7--5--7--5--4--5--4----------------|
E|-------------------------|------------------------|--------------------|-------------------------------------------7--6--3--0----|


E|------------------------12-15-19-22-27-22-27---|-----24-19-12-19--------------------------|
B|---------------------12------------------------|-----------------20-20--20----------------|
G|---------9--12-9--12---------------------------|-----------------------------19--18-17-16-|
D|------9----------------------------------------|------------------------------------------|
A|-----------------------------------------------|------------------------------------------|
E|-----------------------------------------------|------------------------------------------|


E|-------------------------------------------------------|-------------------------|
B|-------------------------------------------------------|-------------------------|
G|----161412---------------------------------------------|--------18-------1614----|
D|-17--------14-14-12------------------------------------|-----------19-16-----1614|
A|--------------------14-12-12-10----12-14-12-14---------|-------------------------|
E|--------------------------------12-------------14-0----|-------------------------|


E|------------------21-17----19-17----17-14-12-1917----------------------|------------------------------------14---14--14--|
B|------------------------17-------17--------------1917------------------|------------------14-------10--------------------|
G|-14-------1614---------------------------------------18-------16-14----|-14-------1614-------14-------11-----------------|
D|----16-14-----1614--------------------------------------19-16-------16-|----16-14-----1614------16-------14--------------|
A|-----------------------------------------------------------------------|-------------------------------------------------|
E|-----------------------------------------------------------------------|-------------------------------------------------|


E|-14--14----14-----------------|-----------------------------------192019-17-20-|
B|---------------17-16-14----17-|-14---------------------------------------------|
G|------------------------16----|---1614-----------------------------------------|
D|------------------------------|-------16---14----------------------------------|
A|------------------------------|---------16----16----14-12----------------------|
E|------------------------------|------------------17-------12--12---------------|


E|-19-------17-14-12-11-14-12-11-------7-8-7-----8--|-7-----------------------------------------------|
B|----19-17----------------------12-10--------10----|----10-7--10-7--5--4--7--5--4--------5--4--------|
G|--------------------------------------------------|-------------------------------4--2--------5--4--|
D|--------------------------------------------------|-------------------------------------------------|
A|--------------------------------------------------|-------------------------------------------------|
E|--------------------------------------------------|-------------------------------------------------|


E|-------5--8--7--8--5--7-----5----------------|-------------|--------|--------|--------|
B|-4--7--------------------8-----7--8--5-------|-------------|--------|--------|--------|
G|---------------------------------------------|-------------|--------|--------|--------|
D|---------------------------------------------|-------------|--------|--------|--------|
A|---------------------------------------------|-------------|--------|--------|--------|
E|---------------------------------------------|-------------|--------|--------|--------|


E|--------|--------|--------|--------|--------|--------|--------|--------|--------|
B|--------|--------|--------|--------|--------|--------|--------|--------|--------|
G|--------|--------|--------|--------|--------|--------|--------|--------|--------|
D|--------|--------|--------|--------|--------|--------|--------|--------|--------|
A|--------|--------|--------|--------|--------|--------|--------|--------|--------|
E|--------|--------|--------|--------|--------|--------|--------|--------|--------|


E|--------|--------|--------|--------|--------|--------|--------|--------|--------|
B|--------|--------|--------|--------|--------|--------|--------|--------|--------|
G|--------|--------|--------|--------|--------|--------|--------|--------|--------|
D|--------|--------|--------|--------|--------|--------|--------|--------|--------|
A|--------|--------|--------|--------|--------|--------|--------|--------|--------|
E|--------|--------|--------|--------|--------|--------|--------|--------|--------|


E|--------|--------|--------|--------|--------|
B|--------|--------|--------|--------|--------|
G|--------|--------|--------|--------|--------|
D|--------|--------|--------|--------|--------|
A|--------|--------|--------|--------|--------|
E|--------|--------|--------|--------|--------|





Track 5: Gtr1

E|--------|--------|--------|--------|--------|--------|--------|--------|--------|
B|--------|--------|--------|--------|--------|--------|--------|--------|--------|
G|--------|--------|--------|--------|--------|--------|--------|--------|--------|
D|--------|--------|--------|--------|--------|--------|--------|--------|--------|
A|--------|--------|--------|--------|--------|--------|--------|--------|--------|
E|--------|--------|--------|--------|--------|--------|--------|--------|--------|


E|--------|--------|--------|--------|--------|--------|--------|--------|--------|
B|--------|--------|--------|--------|--------|--------|--------|--------|--------|
G|--------|--------|--------|--------|--------|--------|--------|--------|--------|
D|--------|--------|--------|--------|--------|--------|--------|--------|--------|
A|--------|--------|--------|--------|--------|--------|--------|--------|--------|
E|--------|--------|--------|--------|--------|--------|--------|--------|--------|


E|--------|--------|--------|--------|--------|--------|--------|--------|--------|
B|--------|--------|--------|--------|--------|--------|--------|--------|--------|
G|--------|--------|--------|--------|--------|--------|--------|--------|--------|
D|--------|--------|--------|--------|--------|--------|--------|--------|--------|
A|--------|--------|--------|--------|--------|--------|--------|--------|--------|
E|--------|--------|--------|--------|--------|--------|--------|--------|--------|


E|--------|--------|--------|--------|--------|--------|--------|--------|--------|
B|--------|--------|--------|--------|--------|--------|--------|--------|--------|
G|--------|--------|--------|--------|--------|--------|--------|--------|--------|
D|--------|--------|--------|--------|--------|--------|--------|--------|--------|
A|--------|--------|--------|--------|--------|--------|--------|--------|--------|
E|--------|--------|--------|--------|--------|--------|--------|--------|--------|


E|--------|--------|--------|--------|--------|--------|--------|-------------|--------|
B|--------|--------|--------|--------|--------|--------|--------|-------------|--------|
G|--------|--------|--------|--------|--------|--------|--------|-------------|--------|
D|--------|--------|--------|--------|--------|--------|--------|-------------|--------|
A|--------|--------|--------|--------|--------|--------|--------|-------------|--------|
E|--------|--------|--------|--------|--------|--------|--------|-------------|--------|


E|--------|--------|--------|--------|--------|--------|--------|--------|--------|
B|--------|--------|--------|--------|--------|--------|--------|--------|--------|
G|--------|--------|--------|--------|--------|--------|--------|--------|--------|
D|--------|--------|--------|--------|--------|--------|--------|--------|--------|
A|--------|--------|--------|--------|--------|--------|--------|--------|--------|
E|--------|--------|--------|--------|--------|--------|--------|--------|--------|


E|--------|--------|--------|--------|--------|--------|--------|--------|--------|
B|--------|--------|--------|--------|--------|--------|--------|--------|--------|
G|--------|--------|--------|--------|--------|--------|--------|--------|--------|
D|--------|--------|--------|--------|--------|--------|--------|--------|--------|
A|--------|--------|--------|--------|--------|--------|--------|--------|--------|
E|--------|--------|--------|--------|--------|--------|--------|--------|--------|


E|--------|--------|--------|--------|--------|--------|--------|--------|--------|
B|--------|--------|--------|--------|--------|--------|--------|--------|--------|
G|--------|--------|--------|--------|--------|--------|--------|--------|--------|
D|--------|--------|--------|--------|--------|--------|--------|--------|--------|
A|--------|--------|--------|--------|--------|--------|--------|--------|--------|
E|--------|--------|--------|--------|--------|--------|--------|--------|--------|


E|--------|--------|--------|--------|--------|--------|--------|--------|--------|
B|--------|--------|--------|--------|--------|--------|--------|--------|--------|
G|--------|--------|--------|--------|--------|--------|--------|--------|--------|
D|--------|--------|--------|--------|--------|--------|--------|--------|--------|
A|--------|--------|--------|--------|--------|--------|--------|--------|--------|
E|--------|--------|--------|--------|--------|--------|--------|--------|--------|


E|--------|--------|--------|--------|--------|--------|--------|--------|--------|
B|--------|--------|--------|--------|--------|--------|--------|--------|--------|
G|--------|--------|--------|--------|--------|--------|--------|--------|--------|
D|--------|--------|--------|--------|--------|--------|--------|--------|--------|
A|--------|--------|--------|--------|--------|--------|--------|--------|--------|
E|--------|--------|--------|--------|--------|--------|--------|--------|--------|


E|--------|--------|--------|--------|--------|--------|--------|--------|--------|
B|--------|--------|--------|--------|--------|--------|--------|--------|--------|
G|--------|--------|--------|--------|--------|--------|--------|--------|--------|
D|--------|--------|--------|--------|--------|--------|--------|--------|--------|
A|--------|--------|--------|--------|--------|--------|--------|--------|--------|
E|--------|--------|--------|--------|--------|--------|--------|--------|--------|


E|--------|--------|--------|--------|--------|--------|--------|--------|--------|
B|--------|--------|--------|--------|--------|--------|--------|--------|--------|
G|--------|--------|--------|--------|--------|--------|--------|--------|--------|
D|--------|--------|--------|--------|--------|--------|--------|--------|--------|
A|--------|--------|--------|--------|--------|--------|--------|--------|--------|
E|--------|--------|--------|--------|--------|--------|--------|--------|--------|


E|--------|--------|--------|--------|--------|--------|--------|--------|--------|
B|--------|--------|--------|--------|--------|--------|--------|--------|--------|
G|--------|--------|--------|--------|--------|--------|--------|--------|--------|
D|--------|--------|--------|--------|--------|--------|--------|--------|--------|
A|--------|--------|--------|--------|--------|--------|--------|--------|--------|
E|--------|--------|--------|--------|--------|--------|--------|--------|--------|


E|--------|--------|--------|--------|--------|--------|--------|--------|--------|
B|--------|--------|--------|--------|--------|--------|--------|--------|--------|
G|--------|--------|--------|--------|--------|--------|--------|--------|--------|
D|--------|--------|--------|--------|--------|--------|--------|--------|--------|
A|--------|--------|--------|--------|--------|--------|--------|--------|--------|
E|--------|--------|--------|--------|--------|--------|--------|--------|--------|


E|--------|--------|--------|--------|--------|--------|--------|--------|--------|
B|--------|--------|--------|--------|--------|--------|--------|--------|--------|
G|--------|--------|--------|--------|--------|--------|--------|--------|--------|
D|--------|--------|--------|--------|--------|--------|--------|--------|--------|
A|--------|--------|--------|--------|--------|--------|--------|--------|--------|
E|--------|--------|--------|--------|--------|--------|--------|--------|--------|


E|--------|--------|--------|--------|--------|--------|--------|--------|--------|
B|--------|--------|--------|--------|--------|--------|--------|--------|--------|
G|--------|--------|--------|--------|--------|--------|--------|--------|--------|
D|--------|--------|--------|--------|--------|--------|--------|--------|--------|
A|--------|--------|--------|--------|--------|--------|--------|--------|--------|
E|--------|--------|--------|--------|--------|--------|--------|--------|--------|


E|--------|--------|--------|--------|--------|--------|--------|--------|--------|
B|--------|--------|--------|--------|--------|--------|--------|--------|--------|
G|--------|--------|--------|--------|--------|--------|--------|--------|--------|
D|--------|--------|--------|--------|--------|--------|--------|--------|--------|
A|--------|--------|--------|--------|--------|--------|--------|--------|--------|
E|--------|--------|--------|--------|--------|--------|--------|--------|--------|


E|--------|--------|--------|--------|--------|--------|--------|--------|--------|
B|--------|--------|--------|--------|--------|--------|--------|--------|--------|
G|--------|--------|--------|--------|--------|--------|--------|--------|--------|
D|--------|--------|--------|--------|--------|--------|--------|--------|--------|
A|--------|--------|--------|--------|--------|--------|--------|--------|--------|
E|--------|--------|--------|--------|--------|--------|--------|--------|--------|


E|--------|--------|--------|--------|--------|--------|--------|--------|--------|
B|--------|--------|--------|--------|--------|--------|--------|--------|--------|
G|--------|--------|--------|--------|--------|--------|--------|--------|--------|
D|--------|--------|--------|--------|--------|--------|--------|--------|--------|
A|--------|--------|--------|--------|--------|--------|--------|--------|--------|
E|--------|--------|--------|--------|--------|--------|--------|--------|--------|


E|--------|--------|--------|--------|--------|--------|--------|--------|--------|
B|--------|--------|--------|--------|--------|--------|--------|--------|--------|
G|--------|--------|--------|--------|--------|--------|--------|--------|--------|
D|--------|--------|--------|--------|--------|--------|--------|--------|--------|
A|--------|--------|--------|--------|--------|--------|--------|--------|--------|
E|--------|--------|--------|--------|--------|--------|--------|--------|--------|


E|--------|--------|--------|--------|--------|--------|--------|--------|--------|
B|--------|--------|--------|--------|--------|--------|--------|--------|--------|
G|--------|--------|--------|--------|--------|--------|--------|--------|--------|
D|--------|--------|--------|--------|--------|--------|--------|--------|--------|
A|--------|--------|--------|--------|--------|--------|--------|--------|--------|
E|--------|--------|--------|--------|--------|--------|--------|--------|--------|


E|--------|--------|--------|--------|--------|--------|--------|--------|--------|
B|--------|--------|--------|--------|--------|--------|--------|--------|--------|
G|--------|--------|--------|--------|--------|--------|--------|--------|--------|
D|--------|--------|--------|--------|--------|--------|--------|--------|--------|
A|--------|--------|--------|--------|--------|--------|--------|--------|--------|
E|--------|--------|--------|--------|--------|--------|--------|--------|--------|


E|--------|--------|--------|--------|
B|--------|--------|--------|--------|
G|--------|--------|--------|--------|
D|--------|--------|--------|--------|
A|--------|--------|--------|--------|
E|--------|--------|--------|--------|





Track 6: Gtr1

E|--------|--------|--------|--------|--------|--------|--------|--------|--------|
B|--------|--------|--------|--------|--------|--------|--------|--------|--------|
G|--------|--------|--------|--------|--------|--------|--------|--------|--------|
D|--------|--------|--------|--------|--------|--------|--------|--------|--------|
A|--------|--------|--------|--------|--------|--------|--------|--------|--------|
E|--------|--------|--------|--------|--------|--------|--------|--------|--------|


E|--------|--------|--------|--------|--------|--------|--------|--------|--------|
B|--------|--------|--------|--------|--------|--------|--------|--------|--------|
G|--------|--------|--------|--------|--------|--------|--------|--------|--------|
D|--------|--------|--------|--------|--------|--------|--------|--------|--------|
A|--------|--------|--------|--------|--------|--------|--------|--------|--------|
E|--------|--------|--------|--------|--------|--------|--------|--------|--------|


E|--------|--------|--------|--------|--------|--------|--------|--------|--------|
B|--------|--------|--------|--------|--------|--------|--------|--------|--------|
G|--------|--------|--------|--------|--------|--------|--------|--------|--------|
D|--------|--------|--------|--------|--------|--------|--------|--------|--------|
A|--------|--------|--------|--------|--------|--------|--------|--------|--------|
E|--------|--------|--------|--------|--------|--------|--------|--------|--------|


E|--------|--------|--------|--------|--------|--------|--------|--------|--------|
B|--------|--------|--------|--------|--------|--------|--------|--------|--------|
G|--------|--------|--------|--------|--------|--------|--------|--------|--------|
D|--------|--------|--------|--------|--------|--------|--------|--------|--------|
A|--------|--------|--------|--------|--------|--------|--------|--------|--------|
E|--------|--------|--------|--------|--------|--------|--------|--------|--------|


E|--------|--------|--------|--------|--------|--------|--------|--------|---------------------------------|
B|--------|--------|--------|--------|--------|--------|--------|--------|---------------------------------|
G|--------|--------|--------|--------|--------|--------|--------|--------|---------------------------------|
D|--------|--------|--------|--------|--------|--------|--------|--------|---------------------5---9-------|
A|--------|--------|--------|--------|--------|--------|--------|--------|-6---7---9---7---7---------------|
E|--------|--------|--------|--------|--------|--------|--------|--------|---------------------------------|


E|---------------------------|----------------|--------|--------|--------|--------|
B|---------------------------|----------------|--------|--------|--------|--------|
G|---------------------------|----------------|--------|--------|--------|--------|
D|---------------------------|----------------|--------|--------|--------|--------|
A|---------------------------|-6---9----------|--------|--------|--------|--------|
E|-------5---7---8---7---7---|----------------|--------|--------|--------|--------|


E|--------|--------|--------|--------|--------|--------|--------|--------|--------|
B|--------|--------|--------|--------|--------|--------|--------|--------|--------|
G|--------|--------|--------|--------|--------|--------|--------|--------|--------|
D|--------|--------|--------|--------|--------|--------|--------|--------|--------|
A|--------|--------|--------|--------|--------|--------|--------|--------|--------|
E|--------|--------|--------|--------|--------|--------|--------|--------|--------|


E|--------|--------|--------|--------|--------|--------|--------|--------|--------|
B|--------|--------|--------|--------|--------|--------|--------|--------|--------|
G|--------|--------|--------|--------|--------|--------|--------|--------|--------|
D|--------|--------|--------|--------|--------|--------|--------|--------|--------|
A|--------|--------|--------|--------|--------|--------|--------|--------|--------|
E|--------|--------|--------|--------|--------|--------|--------|--------|--------|


E|--------|--------|--------|--------|--------|--------|--------|--------|--------|
B|--------|--------|--------|--------|--------|--------|--------|--------|--------|
G|--------|--------|--------|--------|--------|--------|--------|--------|--------|
D|--------|--------|--------|--------|--------|--------|--------|--------|--------|
A|--------|--------|--------|--------|--------|--------|--------|--------|--------|
E|--------|--------|--------|--------|--------|--------|--------|--------|--------|


E|--------|--------|--------|--------|--------|--------|--------|--------|--------|
B|--------|--------|--------|--------|--------|--------|--------|--------|--------|
G|--------|--------|--------|--------|--------|--------|--------|--------|--------|
D|--------|--------|--------|--------|--------|--------|--------|--------|--------|
A|--------|--------|--------|--------|--------|--------|--------|--------|--------|
E|--------|--------|--------|--------|--------|--------|--------|--------|--------|


E|--------|--------|--------|--------|--------|--------|--------|--------|--------|
B|--------|--------|--------|--------|--------|--------|--------|--------|--------|
G|--------|--------|--------|--------|--------|--------|--------|--------|--------|
D|--------|--------|--------|--------|--------|--------|--------|--------|--------|
A|--------|--------|--------|--------|--------|--------|--------|--------|--------|
E|--------|--------|--------|--------|--------|--------|--------|--------|--------|


E|--------|--------|--------|--------|--------|--------|--------|--------|--------|
B|--------|--------|--------|--------|--------|--------|--------|--------|--------|
G|--------|--------|--------|--------|--------|--------|--------|--------|--------|
D|--------|--------|--------|--------|--------|--------|--------|--------|--------|
A|--------|--------|--------|--------|--------|--------|--------|--------|--------|
E|--------|--------|--------|--------|--------|--------|--------|--------|--------|


E|--------|--------|--------|--------|--------|--------|--------|--------|--------|
B|--------|--------|--------|--------|--------|--------|--------|--------|--------|
G|--------|--------|--------|--------|--------|--------|--------|--------|--------|
D|--------|--------|--------|--------|--------|--------|--------|--------|--------|
A|--------|--------|--------|--------|--------|--------|--------|--------|--------|
E|--------|--------|--------|--------|--------|--------|--------|--------|--------|


E|--------|--------|--------|--------|--------|--------|--------|--------|--------|
B|--------|--------|--------|--------|--------|--------|--------|--------|--------|
G|--------|--------|--------|--------|--------|--------|--------|--------|--------|
D|--------|--------|--------|--------|--------|--------|--------|--------|--------|
A|--------|--------|--------|--------|--------|--------|--------|--------|--------|
E|--------|--------|--------|--------|--------|--------|--------|--------|--------|


E|--------|--------|--------|--------|--------|--------|--------|--------|--------|
B|--------|--------|--------|--------|--------|--------|--------|--------|--------|
G|--------|--------|--------|--------|--------|--------|--------|--------|--------|
D|--------|--------|--------|--------|--------|--------|--------|--------|--------|
A|--------|--------|--------|--------|--------|--------|--------|--------|--------|
E|--------|--------|--------|--------|--------|--------|--------|--------|--------|


E|--------|--------|--------|--------|--------|--------|--------|--------|--------|
B|--------|--------|--------|--------|--------|--------|--------|--------|--------|
G|--------|--------|--------|--------|--------|--------|--------|--------|--------|
D|--------|--------|--------|--------|--------|--------|--------|--------|--------|
A|--------|--------|--------|--------|--------|--------|--------|--------|--------|
E|--------|--------|--------|--------|--------|--------|--------|--------|--------|


E|--------|--------|--------|--------|--------|--------|--------|--------|--------|
B|--------|--------|--------|--------|--------|--------|--------|--------|--------|
G|--------|--------|--------|--------|--------|--------|--------|--------|--------|
D|--------|--------|--------|--------|--------|--------|--------|--------|--------|
A|--------|--------|--------|--------|--------|--------|--------|--------|--------|
E|--------|--------|--------|--------|--------|--------|--------|--------|--------|


E|--------|--------|--------|--------|--------|--------|--------|--------|--------|
B|--------|--------|--------|--------|--------|--------|--------|--------|--------|
G|--------|--------|--------|--------|--------|--------|--------|--------|--------|
D|--------|--------|--------|--------|--------|--------|--------|--------|--------|
A|--------|--------|--------|--------|--------|--------|--------|--------|--------|
E|--------|--------|--------|--------|--------|--------|--------|--------|--------|


E|--------|--------|--------|--------|--------|--------|--------|--------|--------|
B|--------|--------|--------|--------|--------|--------|--------|--------|--------|
G|--------|--------|--------|--------|--------|--------|--------|--------|--------|
D|--------|--------|--------|--------|--------|--------|--------|--------|--------|
A|--------|--------|--------|--------|--------|--------|--------|--------|--------|
E|--------|--------|--------|--------|--------|--------|--------|--------|--------|


E|--------|--------|--------|--------|--------|--------|--------|--------|--------|
B|--------|--------|--------|--------|--------|--------|--------|--------|--------|
G|--------|--------|--------|--------|--------|--------|--------|--------|--------|
D|--------|--------|--------|--------|--------|--------|--------|--------|--------|
A|--------|--------|--------|--------|--------|--------|--------|--------|--------|
E|--------|--------|--------|--------|--------|--------|--------|--------|--------|


E|--------|--------|--------|--------|--------|--------|--------|--------|--------|
B|--------|--------|--------|--------|--------|--------|--------|--------|--------|
G|--------|--------|--------|--------|--------|--------|--------|--------|--------|
D|--------|--------|--------|--------|--------|--------|--------|--------|--------|
A|--------|--------|--------|--------|--------|--------|--------|--------|--------|
E|--------|--------|--------|--------|--------|--------|--------|--------|--------|


E|--------|--------|--------|--------|--------|--------|--------|--------|--------|
B|--------|--------|--------|--------|--------|--------|--------|--------|--------|
G|--------|--------|--------|--------|--------|--------|--------|--------|--------|
D|--------|--------|--------|--------|--------|--------|--------|--------|--------|
A|--------|--------|--------|--------|--------|--------|--------|--------|--------|
E|--------|--------|--------|--------|--------|--------|--------|--------|--------|


E|--------|--------|--------|--------|--------|--------|--------|
B|--------|--------|--------|--------|--------|--------|--------|
G|--------|--------|--------|--------|--------|--------|--------|
D|--------|--------|--------|--------|--------|--------|--------|
A|--------|--------|--------|--------|--------|--------|--------|
E|--------|--------|--------|--------|--------|--------|--------|





Track 7: Gtr1

E|--------|--------|--------|--------|--------|--------|--------|--------|--------|
B|--------|--------|--------|--------|--------|--------|--------|--------|--------|
G|--------|--------|--------|--------|--------|--------|--------|--------|--------|
D|--------|--------|--------|--------|--------|--------|--------|--------|--------|
A|--------|--------|--------|--------|--------|--------|--------|--------|--------|
E|--------|--------|--------|--------|--------|--------|--------|--------|--------|


E|--------|--------|--------|--------|--------|--------|--------|--------|--------|
B|--------|--------|--------|--------|--------|--------|--------|--------|--------|
G|--------|--------|--------|--------|--------|--------|--------|--------|--------|
D|--------|--------|--------|--------|--------|--------|--------|--------|--------|
A|--------|--------|--------|--------|--------|--------|--------|--------|--------|
E|--------|--------|--------|--------|--------|--------|--------|--------|--------|


E|--------|--------|--------|--------|--------|--------|--------|--------|--------|
B|--------|--------|--------|--------|--------|--------|--------|--------|--------|
G|--------|--------|--------|--------|--------|--------|--------|--------|--------|
D|--------|--------|--------|--------|--------|--------|--------|--------|--------|
A|--------|--------|--------|--------|--------|--------|--------|--------|--------|
E|--------|--------|--------|--------|--------|--------|--------|--------|--------|


E|--------|--------|--------|--------|--------|--------|--------|--------|--------|
B|--------|--------|--------|--------|--------|--------|--------|--------|--------|
G|--------|--------|--------|--------|--------|--------|--------|--------|--------|
D|--------|--------|--------|--------|--------|--------|--------|--------|--------|
A|--------|--------|--------|--------|--------|--------|--------|--------|--------|
E|--------|--------|--------|--------|--------|--------|--------|--------|--------|


E|--------|--------|--------|--------|--------|--------|--------|--------|--------|
B|--------|--------|--------|--------|--------|--------|--------|--------|--------|
G|--------|--------|--------|--------|--------|--------|--------|--------|--------|
D|--------|--------|--------|--------|--------|--------|--------|--------|--------|
A|--------|--------|--------|--------|--------|--------|--------|--------|--------|
E|--------|--------|--------|--------|--------|--------|--------|--------|--------|


E|--------|-------------|--------|--------|--------|--------|--------|--------|--------|
B|--------|-------------|--------|--------|--------|--------|--------|--------|--------|
G|--------|-------------|--------|--------|--------|--------|--------|--------|--------|
D|--------|-------------|--------|--------|--------|--------|--------|--------|--------|
A|--------|-------------|--------|--------|--------|--------|--------|--------|--------|
E|--------|-------------|--------|--------|--------|--------|--------|--------|--------|


E|--------|--------|--------|--------|--------|--------|--------|--------|--------|
B|--------|--------|--------|--------|--------|--------|--------|--------|--------|
G|--------|--------|--------|--------|--------|--------|--------|--------|--------|
D|--------|--------|--------|--------|--------|--------|--------|--------|--------|
A|--------|--------|--------|--------|--------|--------|--------|--------|--------|
E|--------|--------|--------|--------|--------|--------|--------|--------|--------|


E|--------|--------|--------|--------|--------|--------|--------|--------|--------|
B|--------|--------|--------|--------|--------|--------|--------|--------|--------|
G|--------|--------|--------|--------|--------|--------|--------|--------|--------|
D|--------|--------|--------|--------|--------|--------|--------|--------|--------|
A|--------|--------|--------|--------|--------|--------|--------|--------|--------|
E|--------|--------|--------|--------|--------|--------|--------|--------|--------|


E|--------|--------|--------|--------|--------|--------|--------|--------|--------|
B|--------|--------|--------|--------|--------|--------|--------|--------|--------|
G|--------|--------|--------|--------|--------|--------|--------|--------|--------|
D|--------|--------|--------|--------|--------|--------|--------|--------|--------|
A|--------|--------|--------|--------|--------|--------|--------|--------|--------|
E|--------|--------|--------|--------|--------|--------|--------|--------|--------|


E|--------|--------|--------|--------|--------|--------|--------|--------|--------|
B|--------|--------|--------|--------|--------|--------|--------|--------|--------|
G|--------|--------|--------|--------|--------|--------|--------|--------|--------|
D|--------|--------|--------|--------|--------|--------|--------|--------|--------|
A|--------|--------|--------|--------|--------|--------|--------|--------|--------|
E|--------|--------|--------|--------|--------|--------|--------|--------|--------|


E|--------|--------|--------|--------|--------|--------|--------|--------|--------|
B|--------|--------|--------|--------|--------|--------|--------|--------|--------|
G|--------|--------|--------|--------|--------|--------|--------|--------|--------|
D|--------|--------|--------|--------|--------|--------|--------|--------|--------|
A|--------|--------|--------|--------|--------|--------|--------|--------|--------|
E|--------|--------|--------|--------|--------|--------|--------|--------|--------|


E|--------|--------|--------|--------|--------|--------|--------|--------|--------|
B|--------|--------|--------|--------|--------|--------|--------|--------|--------|
G|--------|--------|--------|--------|--------|--------|--------|--------|--------|
D|--------|--------|--------|--------|--------|--------|--------|--------|--------|
A|--------|--------|--------|--------|--------|--------|--------|--------|--------|
E|--------|--------|--------|--------|--------|--------|--------|--------|--------|


E|--------|--------|--------|--------|--------|--------|--------|--------|--------|
B|--------|--------|--------|--------|--------|--------|--------|--------|--------|
G|--------|--------|--------|--------|--------|--------|--------|--------|--------|
D|--------|--------|--------|--------|--------|--------|--------|--------|--------|
A|--------|--------|--------|--------|--------|--------|--------|--------|--------|
E|--------|--------|--------|--------|--------|--------|--------|--------|--------|


E|--------|--------|--------|--------|--------|--------|--------|--------|--------|
B|--------|--------|--------|--------|--------|--------|--------|--------|--------|
G|--------|--------|--------|--------|--------|--------|--------|--------|--------|
D|--------|--------|--------|--------|--------|--------|--------|--------|--------|
A|--------|--------|--------|--------|--------|--------|--------|--------|--------|
E|--------|--------|--------|--------|--------|--------|--------|--------|--------|


E|--------|--------|--------|--------|--------|--------|--------|--------|--------|
B|--------|--------|--------|--------|--------|--------|--------|--------|--------|
G|--------|--------|--------|--------|--------|--------|--------|--------|--------|
D|--------|--------|--------|--------|--------|--------|--------|--------|--------|
A|--------|--------|--------|--------|--------|--------|--------|--------|--------|
E|--------|--------|--------|--------|--------|--------|--------|--------|--------|


E|--------|--------|--------|--------|--------|--------|--------|--------|--------|
B|--------|--------|--------|--------|--------|--------|--------|--------|--------|
G|--------|--------|--------|--------|--------|--------|--------|--------|--------|
D|--------|--------|--------|--------|--------|--------|--------|--------|--------|
A|--------|--------|--------|--------|--------|--------|--------|--------|--------|
E|--------|--------|--------|--------|--------|--------|--------|--------|--------|


E|--------|--------|--------|--------|--------|--------|--------|--------|--------|
B|--------|--------|--------|--------|--------|--------|--------|--------|--------|
G|--------|--------|--------|--------|--------|--------|--------|--------|--------|
D|--------|--------|--------|--------|--------|--------|--------|--------|--------|
A|--------|--------|--------|--------|--------|--------|--------|--------|--------|
E|--------|--------|--------|--------|--------|--------|--------|--------|--------|


E|--------|--------|--------|--------|--------|--------|--------|--------|--------|
B|--------|--------|--------|--------|--------|--------|--------|--------|--------|
G|--------|--------|--------|--------|--------|--------|--------|--------|--------|
D|--------|--------|--------|--------|--------|--------|--------|--------|--------|
A|--------|--------|--------|--------|--------|--------|--------|--------|--------|
E|--------|--------|--------|--------|--------|--------|--------|--------|--------|


E|--------|--------|--------|--------|--------|--------|--------|--------|--------|
B|--------|--------|--------|--------|--------|--------|--------|--------|--------|
G|--------|--------|--------|--------|--------|--------|--------|--------|--------|
D|--------|--------|--------|--------|--------|--------|--------|--------|--------|
A|--------|--------|--------|--------|--------|--------|--------|--------|--------|
E|--------|--------|--------|--------|--------|--------|--------|--------|--------|


E|--------|--------|--------|--------|--------|--------|--------|--------|--------|
B|--------|--------|--------|--------|--------|--------|--------|--------|--------|
G|--------|--------|--------|--------|--------|--------|--------|--------|--------|
D|--------|--------|--------|--------|--------|--------|--------|--------|--------|
A|--------|--------|--------|--------|--------|--------|--------|--------|--------|
E|--------|--------|--------|--------|--------|--------|--------|--------|--------|


E|--------|--------|--------|--------|--------|--------|--------|--------|--------|
B|--------|--------|--------|--------|--------|--------|--------|--------|--------|
G|--------|--------|--------|--------|--------|--------|--------|--------|--------|
D|--------|--------|--------|--------|--------|--------|--------|--------|--------|
A|--------|--------|--------|--------|--------|--------|--------|--------|--------|
E|--------|--------|--------|--------|--------|--------|--------|--------|--------|


E|--------|--------|--------|--------|--------|--------|--------|--------|--------|
B|--------|--------|--------|--------|--------|--------|--------|--------|--------|
G|--------|--------|--------|--------|--------|--------|--------|--------|--------|
D|--------|--------|--------|--------|--------|--------|--------|--------|--------|
A|--------|--------|--------|--------|--------|--------|--------|--------|--------|
E|--------|--------|--------|--------|--------|--------|--------|--------|--------|


E|--------|--------|--------|--------|
B|--------|--------|--------|--------|
G|--------|--------|--------|--------|
D|--------|--------|--------|--------|
A|--------|--------|--------|--------|
E|--------|--------|--------|--------|





Track 8: Gtr1

E|--------|--------|--------|--------|--------|--------|--------|--------|--------|
B|--------|--------|--------|--------|--------|--------|--------|--------|--------|
G|--------|--------|--------|--------|--------|--------|--------|--------|--------|
D|--------|--------|--------|--------|--------|--------|--------|--------|--------|
A|--------|--------|--------|--------|--------|--------|--------|--------|--------|
E|--------|--------|--------|--------|--------|--------|--------|--------|--------|


E|--------|--------|--------|--------|--------|--------|--------|--------|--------|
B|--------|--------|--------|--------|--------|--------|--------|--------|--------|
G|--------|--------|--------|--------|--------|--------|--------|--------|--------|
D|--------|--------|--------|--------|--------|--------|--------|--------|--------|
A|--------|--------|--------|--------|--------|--------|--------|--------|--------|
E|--------|--------|--------|--------|--------|--------|--------|--------|--------|


E|--------|--------|--------|--------|--------|--------|--------|--------|--------|
B|--------|--------|--------|--------|--------|--------|--------|--------|--------|
G|--------|--------|--------|--------|--------|--------|--------|--------|--------|
D|--------|--------|--------|--------|--------|--------|--------|--------|--------|
A|--------|--------|--------|--------|--------|--------|--------|--------|--------|
E|--------|--------|--------|--------|--------|--------|--------|--------|--------|


E|--------|--------|--------|--------|--------|--------|--------|--------|--------|
B|--------|--------|--------|--------|--------|--------|--------|--------|--------|
G|--------|--------|--------|--------|--------|--------|--------|--------|--------|
D|--------|--------|--------|--------|--------|--------|--------|--------|--------|
A|--------|--------|--------|--------|--------|--------|--------|--------|--------|
E|--------|--------|--------|--------|--------|--------|--------|--------|--------|


E|--------|--------|--------|--------|--------|--------|--------|--------|--------|
B|--------|--------|--------|--------|--------|--------|--------|--------|--------|
G|--------|--------|--------|--------|--------|--------|--------|--------|--------|
D|--------|--------|--------|--------|--------|--------|--------|--------|--------|
A|--------|--------|--------|--------|--------|--------|--------|--------|--------|
E|--------|--------|--------|--------|--------|--------|--------|--------|--------|


E|--------|----------------|---------------------------|--------|--------|--------|
B|--------|----------------|---------------------------|--------|--------|--------|
G|--------|----------------|---------------------------|--------|--------|--------|
D|--------|----------------|-------------5---9---------|--------|--------|--------|
A|--------|--------6---7---|-9---7---7-----------------|--------|--------|--------|
E|--------|----------------|---------------------------|--------|--------|--------|


E|--------|--------|--------|--------|--------|--------|--------|--------|--------|
B|--------|--------|--------|--------|--------|--------|--------|--------|--------|
G|--------|--------|--------|--------|--------|--------|--------|--------|--------|
D|--------|--------|--------|--------|--------|--------|--------|--------|--------|
A|--------|--------|--------|--------|--------|--------|--------|--------|--------|
E|--------|--------|--------|--------|--------|--------|--------|--------|--------|


E|--------|--------|--------|--------|--------|--------|--------|--------|--------|
B|--------|--------|--------|--------|--------|--------|--------|--------|--------|
G|--------|--------|--------|--------|--------|--------|--------|--------|--------|
D|--------|--------|--------|--------|--------|--------|--------|--------|--------|
A|--------|--------|--------|--------|--------|--------|--------|--------|--------|
E|--------|--------|--------|--------|--------|--------|--------|--------|--------|


E|--------|--------|--------|--------|--------|--------|--------|--------|--------|
B|--------|--------|--------|--------|--------|--------|--------|--------|--------|
G|--------|--------|--------|--------|--------|--------|--------|--------|--------|
D|--------|--------|--------|--------|--------|--------|--------|--------|--------|
A|--------|--------|--------|--------|--------|--------|--------|--------|--------|
E|--------|--------|--------|--------|--------|--------|--------|--------|--------|


E|--------|--------|--------|--------|--------|--------|--------|--------|--------|
B|--------|--------|--------|--------|--------|--------|--------|--------|--------|
G|--------|--------|--------|--------|--------|--------|--------|--------|--------|
D|--------|--------|--------|--------|--------|--------|--------|--------|--------|
A|--------|--------|--------|--------|--------|--------|--------|--------|--------|
E|--------|--------|--------|--------|--------|--------|--------|--------|--------|


E|--------|--------|--------|--------|--------|--------|--------|--------|--------|
B|--------|--------|--------|--------|--------|--------|--------|--------|--------|
G|--------|--------|--------|--------|--------|--------|--------|--------|--------|
D|--------|--------|--------|--------|--------|--------|--------|--------|--------|
A|--------|--------|--------|--------|--------|--------|--------|--------|--------|
E|--------|--------|--------|--------|--------|--------|--------|--------|--------|


E|--------|--------|--------|--------|--------|--------|--------|--------|--------|
B|--------|--------|--------|--------|--------|--------|--------|--------|--------|
G|--------|--------|--------|--------|--------|--------|--------|--------|--------|
D|--------|--------|--------|--------|--------|--------|--------|--------|--------|
A|--------|--------|--------|--------|--------|--------|--------|--------|--------|
E|--------|--------|--------|--------|--------|--------|--------|--------|--------|


E|--------|--------|--------|--------|--------|--------|--------|--------|--------|
B|--------|--------|--------|--------|--------|--------|--------|--------|--------|
G|--------|--------|--------|--------|--------|--------|--------|--------|--------|
D|--------|--------|--------|--------|--------|--------|--------|--------|--------|
A|--------|--------|--------|--------|--------|--------|--------|--------|--------|
E|--------|--------|--------|--------|--------|--------|--------|--------|--------|


E|--------|--------|--------|--------|--------|--------|--------|--------|--------|
B|--------|--------|--------|--------|--------|--------|--------|--------|--------|
G|--------|--------|--------|--------|--------|--------|--------|--------|--------|
D|--------|--------|--------|--------|--------|--------|--------|--------|--------|
A|--------|--------|--------|--------|--------|--------|--------|--------|--------|
E|--------|--------|--------|--------|--------|--------|--------|--------|--------|


E|--------|--------|--------|--------|--------|--------|--------|--------|--------|
B|--------|--------|--------|--------|--------|--------|--------|--------|--------|
G|--------|--------|--------|--------|--------|--------|--------|--------|--------|
D|--------|--------|--------|--------|--------|--------|--------|--------|--------|
A|--------|--------|--------|--------|--------|--------|--------|--------|--------|
E|--------|--------|--------|--------|--------|--------|--------|--------|--------|


E|--------|--------|--------|--------|--------|--------|--------|--------|--------|
B|--------|--------|--------|--------|--------|--------|--------|--------|--------|
G|--------|--------|--------|--------|--------|--------|--------|--------|--------|
D|--------|--------|--------|--------|--------|--------|--------|--------|--------|
A|--------|--------|--------|--------|--------|--------|--------|--------|--------|
E|--------|--------|--------|--------|--------|--------|--------|--------|--------|


E|--------|--------|--------|--------|--------|--------|--------|--------|--------|
B|--------|--------|--------|--------|--------|--------|--------|--------|--------|
G|--------|--------|--------|--------|--------|--------|--------|--------|--------|
D|--------|--------|--------|--------|--------|--------|--------|--------|--------|
A|--------|--------|--------|--------|--------|--------|--------|--------|--------|
E|--------|--------|--------|--------|--------|--------|--------|--------|--------|


E|--------|--------|--------|--------|--------|--------|--------|--------|--------|
B|--------|--------|--------|--------|--------|--------|--------|--------|--------|
G|--------|--------|--------|--------|--------|--------|--------|--------|--------|
D|--------|--------|--------|--------|--------|--------|--------|--------|--------|
A|--------|--------|--------|--------|--------|--------|--------|--------|--------|
E|--------|--------|--------|--------|--------|--------|--------|--------|--------|


E|--------|--------|--------|--------|--------|--------|--------|--------|--------|
B|--------|--------|--------|--------|--------|--------|--------|--------|--------|
G|--------|--------|--------|--------|--------|--------|--------|--------|--------|
D|--------|--------|--------|--------|--------|--------|--------|--------|--------|
A|--------|--------|--------|--------|--------|--------|--------|--------|--------|
E|--------|--------|--------|--------|--------|--------|--------|--------|--------|


E|--------|--------|--------|--------|--------|--------|--------|--------|--------|
B|--------|--------|--------|--------|--------|--------|--------|--------|--------|
G|--------|--------|--------|--------|--------|--------|--------|--------|--------|
D|--------|--------|--------|--------|--------|--------|--------|--------|--------|
A|--------|--------|--------|--------|--------|--------|--------|--------|--------|
E|--------|--------|--------|--------|--------|--------|--------|--------|--------|


E|--------|--------|--------|--------|--------|--------|--------|--------|--------|
B|--------|--------|--------|--------|--------|--------|--------|--------|--------|
G|--------|--------|--------|--------|--------|--------|--------|--------|--------|
D|--------|--------|--------|--------|--------|--------|--------|--------|--------|
A|--------|--------|--------|--------|--------|--------|--------|--------|--------|
E|--------|--------|--------|--------|--------|--------|--------|--------|--------|


E|--------|--------|--------|--------|--------|--------|--------|--------|--------|
B|--------|--------|--------|--------|--------|--------|--------|--------|--------|
G|--------|--------|--------|--------|--------|--------|--------|--------|--------|
D|--------|--------|--------|--------|--------|--------|--------|--------|--------|
A|--------|--------|--------|--------|--------|--------|--------|--------|--------|
E|--------|--------|--------|--------|--------|--------|--------|--------|--------|


E|--------|--------|--------|--------|--------|--------|--------|
B|--------|--------|--------|--------|--------|--------|--------|
G|--------|--------|--------|--------|--------|--------|--------|
D|--------|--------|--------|--------|--------|--------|--------|
A|--------|--------|--------|--------|--------|--------|--------|
E|--------|--------|--------|--------|--------|--------|--------|





Track 9: Gtr1

E|--------|--------|--------|--------|--------|--------|--------|--------|--------|
B|--------|--------|--------|--------|--------|--------|--------|--------|--------|
G|--------|--------|--------|--------|--------|--------|--------|--------|--------|
D|--------|--------|--------|--------|--------|--------|--------|--------|--------|
A|--------|--------|--------|--------|--------|--------|--------|--------|--------|
E|--------|--------|--------|--------|--------|--------|--------|--------|--------|


E|--------|--------|--------|--------|--------|--------|--------|--------|--------|
B|--------|--------|--------|--------|--------|--------|--------|--------|--------|
G|--------|--------|--------|--------|--------|--------|--------|--------|--------|
D|--------|--------|--------|--------|--------|--------|--------|--------|--------|
A|--------|--------|--------|--------|--------|--------|--------|--------|--------|
E|--------|--------|--------|--------|--------|--------|--------|--------|--------|


E|--------|--------|--------|--------|--------|--------|--------|--------|--------|
B|--------|--------|--------|--------|--------|--------|--------|--------|--------|
G|--------|--------|--------|--------|--------|--------|--------|--------|--------|
D|--------|--------|--------|--------|--------|--------|--------|--------|--------|
A|--------|--------|--------|--------|--------|--------|--------|--------|--------|
E|--------|--------|--------|--------|--------|--------|--------|--------|--------|


E|--------|--------|--------|--------|--------|--------|--------|--------|--------|
B|--------|--------|--------|--------|--------|--------|--------|--------|--------|
G|--------|--------|--------|--------|--------|--------|--------|--------|--------|
D|--------|--------|--------|--------|--------|--------|--------|--------|--------|
A|--------|--------|--------|--------|--------|--------|--------|--------|--------|
E|--------|--------|--------|--------|--------|--------|--------|--------|--------|


E|--------|--------|--------|--------|--------|--------|--------|--------|--------|
B|--------|--------|--------|--------|--------|--------|--------|--------|--------|
G|--------|--------|--------|--------|--------|--------|--------|--------|--------|
D|--------|--------|--------|--------|--------|--------|--------|--------|--------|
A|--------|--------|--------|--------|--------|--------|--------|--------|--------|
E|--------|--------|--------|--------|--------|--------|--------|--------|--------|


E|--------|--------|--------|--------|--------|--------|--------|--------|--------|
B|--------|--------|--------|--------|--------|--------|--------|--------|--------|
G|--------|--------|--------|--------|--------|--------|--------|--------|--------|
D|--------|--------|--------|--------|--------|--------|--------|--------|--------|
A|--------|--------|--------|--------|--------|--------|--------|--------|--------|
E|--------|--------|--------|--------|--------|--------|--------|--------|--------|


E|--------|--------|--------|--------|--------|--------|--------|--------|--------|
B|--------|--------|--------|--------|--------|--------|--------|--------|--------|
G|--------|--------|--------|--------|--------|--------|--------|--------|--------|
D|--------|--------|--------|--------|--------|--------|--------|--------|--------|
A|--------|--------|--------|--------|--------|--------|--------|--------|--------|
E|--------|--------|--------|--------|--------|--------|--------|--------|--------|


E|--------|--------|--------|--------|--------|--------|--------|--------|--------|
B|--------|--------|--------|--------|--------|--------|--------|--------|--------|
G|--------|--------|--------|--------|--------|--------|--------|--------|--------|
D|--------|--------|--------|--------|--------|--------|--------|--------|--------|
A|--------|--------|--------|--------|--------|--------|--------|--------|--------|
E|--------|--------|--------|--------|--------|--------|--------|--------|--------|


E|--------|--------|--------|--------|--------|--------|--------|--------|--------|
B|--------|--------|--------|--------|--------|--------|--------|--------|--------|
G|--------|--------|--------|--------|--------|--------|--------|--------|--------|
D|--------|--------|--------|--------|--------|--------|--------|--------|--------|
A|--------|--------|--------|--------|--------|--------|--------|--------|--------|
E|--------|--------|--------|--------|--------|--------|--------|--------|--------|


E|--------|--------|--------|--------|--------|--------|--------|--------|--------|
B|--------|--------|--------|--------|--------|--------|--------|--------|--------|
G|--------|--------|--------|--------|--------|--------|--------|--------|--------|
D|--------|--------|--------|--------|--------|--------|--------|--------|--------|
A|--------|--------|--------|--------|--------|--------|--------|--------|--------|
E|--------|--------|--------|--------|--------|--------|--------|--------|--------|


E|--------|--------|--------|--------|--------|--------|--------|--------|--------|
B|--------|--------|--------|--------|--------|--------|--------|--------|--------|
G|--------|--------|--------|--------|--------|--------|--------|--------|--------|
D|--------|--------|--------|--------|--------|--------|--------|--------|--------|
A|--------|--------|--------|--------|--------|--------|--------|--------|--------|
E|--------|--------|--------|--------|--------|--------|--------|--------|--------|


E|--------|--------|--------|--------|--------|--------|--------|--------|--------|
B|--------|--------|--------|--------|--------|--------|--------|--------|--------|
G|--------|--------|--------|--------|--------|--------|--------|--------|--------|
D|--------|--------|--------|--------|--------|--------|--------|--------|--------|
A|--------|--------|--------|--------|--------|--------|--------|--------|--------|
E|--------|--------|--------|--------|--------|--------|--------|--------|--------|


E|--------|--------|--------|--------|--------|--------|--------|--------|--------|
B|--------|--------|--------|--------|--------|--------|--------|--------|--------|
G|--------|--------|--------|--------|--------|--------|--------|--------|--------|
D|--------|--------|--------|--------|--------|--------|--------|--------|--------|
A|--------|--------|--------|--------|--------|--------|--------|--------|--------|
E|--------|--------|--------|--------|--------|--------|--------|--------|--------|


E|--------|--------|--------|--------|--------|--------|--------|--------|--------|
B|--------|--------|--------|--------|--------|--------|--------|--------|--------|
G|--------|--------|--------|--------|--------|--------|--------|--------|--------|
D|--------|--------|--------|--------|--------|--------|--------|--------|--------|
A|--------|--------|--------|--------|--------|--------|--------|--------|--------|
E|--------|--------|--------|--------|--------|--------|--------|--------|--------|


E|--------|--------|--------|--------|--------|--------|--------|--------|--------|
B|--------|--------|--------|--------|--------|--------|--------|--------|--------|
G|--------|--------|--------|--------|--------|--------|--------|--------|--------|
D|--------|--------|--------|--------|--------|--------|--------|--------|--------|
A|--------|--------|--------|--------|--------|--------|--------|--------|--------|
E|--------|--------|--------|--------|--------|--------|--------|--------|--------|


E|--------|--------|--------|--------|--------|--------|--------|--------|--------|
B|--------|--------|--------|--------|--------|--------|--------|--------|--------|
G|--------|--------|--------|--------|--------|--------|--------|--------|--------|
D|--------|--------|--------|--------|--------|--------|--------|--------|--------|
A|--------|--------|--------|--------|--------|--------|--------|--------|--------|
E|--------|--------|--------|--------|--------|--------|--------|--------|--------|


E|--------|--------|--------|-------------|------------------------|------------------------|
B|--------|--------|--------|-------------|-----0---0--------------|-----0---0--------------|
G|--------|--------|--------|--------4----|-------------------4----|------------------------|
D|--------|--------|--------|--------4----|-------------------4----|------------------------|
A|--------|--------|--------|--------2----|---------------2---2----|---------------2--------|
E|--------|--------|--------|-------------|------------------------|------------------------|


E|--------|--------|--------|--------|--------|--------|--------|--------|--------|
B|--------|--------|--------|--------|--------|--------|--------|--------|--------|
G|--------|--------|--------|--------|--------|--------|--------|--------|--------|
D|--------|--------|--------|--------|--------|--------|--------|--------|--------|
A|--------|--------|--------|--------|--------|--------|--------|--------|--------|
E|--------|--------|--------|--------|--------|--------|--------|--------|--------|


E|--------|--------|--------|--------|--------|--------|--------|--------|--------|
B|--------|--------|--------|--------|--------|--------|--------|--------|--------|
G|--------|--------|--------|--------|--------|--------|--------|--------|--------|
D|--------|--------|--------|--------|--------|--------|--------|--------|--------|
A|--------|--------|--------|--------|--------|--------|--------|--------|--------|
E|--------|--------|--------|--------|--------|--------|--------|--------|--------|


E|--------|--------|--------|--------|--------|--------|--------|--------|--------|
B|--------|--------|--------|--------|--------|--------|--------|--------|--------|
G|--------|--------|--------|--------|--------|--------|--------|--------|--------|
D|--------|--------|--------|--------|--------|--------|--------|--------|--------|
A|--------|--------|--------|--------|--------|--------|--------|--------|--------|
E|--------|--------|--------|--------|--------|--------|--------|--------|--------|


E|--------|--------|--------|--------|--------|--------|--------|--------|--------|
B|--------|--------|--------|--------|--------|--------|--------|--------|--------|
G|--------|--------|--------|--------|--------|--------|--------|--------|--------|
D|--------|--------|--------|--------|--------|--------|--------|--------|--------|
A|--------|--------|--------|--------|--------|--------|--------|--------|--------|
E|--------|--------|--------|--------|--------|--------|--------|--------|--------|


E|--------|--------|--------|--------|--------|--------|--------|--------|--------|
B|--------|--------|--------|--------|--------|--------|--------|--------|--------|
G|--------|--------|--------|--------|--------|--------|--------|--------|--------|
D|--------|--------|--------|--------|--------|--------|--------|--------|--------|
A|--------|--------|--------|--------|--------|--------|--------|--------|--------|
E|--------|--------|--------|--------|--------|--------|--------|--------|--------|


E|--------|--------|--------|--------|--------|--------|--------|
B|--------|--------|--------|--------|--------|--------|--------|
G|--------|--------|--------|--------|--------|--------|--------|
D|--------|--------|--------|--------|--------|--------|--------|
A|--------|--------|--------|--------|--------|--------|--------|
E|--------|--------|--------|--------|--------|--------|--------|





Track 10:  Piano

E|------12--14------15----------|-------12---------------|------12--14------15----------|
B|--------------------------12--|----------------12------|------------------------------|
G|-9----------------------------|-------12-------12------|--------------------------15--|
D|-9--------------------14------|-14-----------------14--|-8--------------------14------|
A|-7------------14--------------|-----------14-----------|-7------------13--------------|
E|-0----------------------------|------------------------|-0----------------------------|


E|------------------------------|------12--14------15----------|-----12--19--17--15--12--15------|
B|------------------------------|--------------------------12--|-----12--20--19--17--12--17--12--|
G|----------11------12--12------|-9----------------------------|---------------------------------|
D|-14---14--------------14--9---|-9--------------------14------|-14--------------14--------------|
A|--------------13--------------|-7------------14--------------|-----------------14--------------|
E|--------------------------7---|-0----------------------------|-12------------------------------|


E|------12--14------15----------|---------------12-15-18-24-27--------------|-7--------------------7-------|
B|------------------------------|---------------------------------------2---|-7--------7---7-------7---7---|
G|-3------------------------15--|---------12-15-----------------12--12------|------------------------------|
D|-2--------------------14------|-14---14-----------------------14--14--4---|-9----9-----------9-------9---|
A|--------------13--------------|-------------------------------------------|------9---------------9-------|
E|-0----------------------------|-12------------------------------------2---|-7----------------------------|


E|-7--------------------7-------|-7--------------7-------|-3-------------------------|
B|-7--------7-------7-----------|-5-----5---5----5-------|-5-----5-------5-----------|
G|------4-------4---------------|-------4----------------|-0---------4---------------|
D|-9----------------------------|-5---------5------------|-----------2-------5---7---|
A|-0------------------------0---|--------------------7---|---------------------------|
E|------------------------------|-3------------------0---|-3-----------------3---5---|


E|---------7-----------------|-19----------|-----2-----------------------2---|-14----------|
B|-7---7-------7-------------|-19----19----|-2-------2---------------2-------|-14----14----|
G|-----------------------8---|-20----20----|---------------------------------|-------14----|
D|-9---------------9---------|-------21----|-4-----------4---4---4-----------|-------------|
A|---------------------------|-21----------|---------------------------------|-------------|
E|-7-------------------------|-------------|-2-------------------------------|-------------|


E|--------|--------|--------|--------|--------|--------|--------|--------|--------|
B|--------|--------|--------|--------|--------|--------|--------|--------|--------|
G|--------|--------|--------|--------|--------|--------|--------|--------|--------|
D|--------|--------|--------|--------|--------|--------|--------|--------|--------|
A|--------|--------|--------|--------|--------|--------|--------|--------|--------|
E|--------|--------|--------|--------|--------|--------|--------|--------|--------|


E|--------|--------|--------|--------|--------|--------|--------|--------|--------|
B|--------|--------|--------|--------|--------|--------|--------|--------|--------|
G|--------|--------|--------|--------|--------|--------|--------|--------|--------|
D|--------|--------|--------|--------|--------|--------|--------|--------|--------|
A|--------|--------|--------|--------|--------|--------|--------|--------|--------|
E|--------|--------|--------|--------|--------|--------|--------|--------|--------|


E|--------|--------|--------|--------|--------|--------|--------|--------|--------|
B|--------|--------|--------|--------|--------|--------|--------|--------|--------|
G|--------|--------|--------|--------|--------|--------|--------|--------|--------|
D|--------|--------|--------|--------|--------|--------|--------|--------|--------|
A|--------|--------|--------|--------|--------|--------|--------|--------|--------|
E|--------|--------|--------|--------|--------|--------|--------|--------|--------|


E|--------|--------|--------|--------|--------|--------|--------|--------|--------|
B|--------|--------|--------|--------|--------|--------|--------|--------|--------|
G|--------|--------|--------|--------|--------|--------|--------|--------|--------|
D|--------|--------|--------|--------|--------|--------|--------|--------|--------|
A|--------|--------|--------|--------|--------|--------|--------|--------|--------|
E|--------|--------|--------|--------|--------|--------|--------|--------|--------|


E|--------|--------|--------|--------|--------|--------|--------|--------|--------|
B|--------|--------|--------|--------|--------|--------|--------|--------|--------|
G|--------|--------|--------|--------|--------|--------|--------|--------|--------|
D|--------|--------|--------|--------|--------|--------|--------|--------|--------|
A|--------|--------|--------|--------|--------|--------|--------|--------|--------|
E|--------|--------|--------|--------|--------|--------|--------|--------|--------|


E|--------|--------|--------|--------|--------|--------|--------|--------|--------|
B|--------|--------|--------|--------|--------|--------|--------|--------|--------|
G|--------|--------|--------|--------|--------|--------|--------|--------|--------|
D|--------|--------|--------|--------|--------|--------|--------|--------|--------|
A|--------|--------|--------|--------|--------|--------|--------|--------|--------|
E|--------|--------|--------|--------|--------|--------|--------|--------|--------|


E|--------|--------|--------|--------|--------|--------|--------|--------|--------|
B|--------|--------|--------|--------|--------|--------|--------|--------|--------|
G|--------|--------|--------|--------|--------|--------|--------|--------|--------|
D|--------|--------|--------|--------|--------|--------|--------|--------|--------|
A|--------|--------|--------|--------|--------|--------|--------|--------|--------|
E|--------|--------|--------|--------|--------|--------|--------|--------|--------|


E|--------|--------|--------|--------|--------|--------|--------|--------|--------|
B|--------|--------|--------|--------|--------|--------|--------|--------|--------|
G|--------|--------|--------|--------|--------|--------|--------|--------|--------|
D|--------|--------|--------|--------|--------|--------|--------|--------|--------|
A|--------|--------|--------|--------|--------|--------|--------|--------|--------|
E|--------|--------|--------|--------|--------|--------|--------|--------|--------|


E|--------|--------|--------|--------|--------|--------|--------|--------|--------|
B|--------|--------|--------|--------|--------|--------|--------|--------|--------|
G|--------|--------|--------|--------|--------|--------|--------|--------|--------|
D|--------|--------|--------|--------|--------|--------|--------|--------|--------|
A|--------|--------|--------|--------|--------|--------|--------|--------|--------|
E|--------|--------|--------|--------|--------|--------|--------|--------|--------|


E|--------|--------|--------|--------|--------|--------|--------|--------|--------|
B|--------|--------|--------|--------|--------|--------|--------|--------|--------|
G|--------|--------|--------|--------|--------|--------|--------|--------|--------|
D|--------|--------|--------|--------|--------|--------|--------|--------|--------|
A|--------|--------|--------|--------|--------|--------|--------|--------|--------|
E|--------|--------|--------|--------|--------|--------|--------|--------|--------|


E|--------|--------|--------|--------|--------|--------|--------|--------|--------|
B|--------|--------|--------|--------|--------|--------|--------|--------|--------|
G|--------|--------|--------|--------|--------|--------|--------|--------|--------|
D|--------|--------|--------|--------|--------|--------|--------|--------|--------|
A|--------|--------|--------|--------|--------|--------|--------|--------|--------|
E|--------|--------|--------|--------|--------|--------|--------|--------|--------|


E|--------|--------|--------|--------|--------|--------|--------|--------|--------|
B|--------|--------|--------|--------|--------|--------|--------|--------|--------|
G|--------|--------|--------|--------|--------|--------|--------|--------|--------|
D|--------|--------|--------|--------|--------|--------|--------|--------|--------|
A|--------|--------|--------|--------|--------|--------|--------|--------|--------|
E|--------|--------|--------|--------|--------|--------|--------|--------|--------|


E|--------|--------|--------|--------|--------|--------|--------|--------|--------|
B|--------|--------|--------|--------|--------|--------|--------|--------|--------|
G|--------|--------|--------|--------|--------|--------|--------|--------|--------|
D|--------|--------|--------|--------|--------|--------|--------|--------|--------|
A|--------|--------|--------|--------|--------|--------|--------|--------|--------|
E|--------|--------|--------|--------|--------|--------|--------|--------|--------|


E|--------|--------|--------|--------|--------|--------|--------|--------|--------|
B|--------|--------|--------|--------|--------|--------|--------|--------|--------|
G|--------|--------|--------|--------|--------|--------|--------|--------|--------|
D|--------|--------|--------|--------|--------|--------|--------|--------|--------|
A|--------|--------|--------|--------|--------|--------|--------|--------|--------|
E|--------|--------|--------|--------|--------|--------|--------|--------|--------|


E|--------|--------|--------|--------|--------|--------|--------|--------|--------|
B|--------|--------|--------|--------|--------|--------|--------|--------|--------|
G|--------|--------|--------|--------|--------|--------|--------|--------|--------|
D|--------|--------|--------|--------|--------|--------|--------|--------|--------|
A|--------|--------|--------|--------|--------|--------|--------|--------|--------|
E|--------|--------|--------|--------|--------|--------|--------|--------|--------|


E|--------|--------|--------|--------|--------|--------|--------|--------|--------|
B|--------|--------|--------|--------|--------|--------|--------|--------|--------|
G|--------|--------|--------|--------|--------|--------|--------|--------|--------|
D|--------|--------|--------|--------|--------|--------|--------|--------|--------|
A|--------|--------|--------|--------|--------|--------|--------|--------|--------|
E|--------|--------|--------|--------|--------|--------|--------|--------|--------|


E|--------|--------|--------|--------|--------|--------|--------|--------|--------|
B|--------|--------|--------|--------|--------|--------|--------|--------|--------|
G|--------|--------|--------|--------|--------|--------|--------|--------|--------|
D|--------|--------|--------|--------|--------|--------|--------|--------|--------|
A|--------|--------|--------|--------|--------|--------|--------|--------|--------|
E|--------|--------|--------|--------|--------|--------|--------|--------|--------|


E|--------|--------|--------|--------|--------|--------|--------|--------|--------|
B|--------|--------|--------|--------|--------|--------|--------|--------|--------|
G|--------|--------|--------|--------|--------|--------|--------|--------|--------|
D|--------|--------|--------|--------|--------|--------|--------|--------|--------|
A|--------|--------|--------|--------|--------|--------|--------|--------|--------|
E|--------|--------|--------|--------|--------|--------|--------|--------|--------|


E|--------|--------|--------|--------|--------|--------|--------|--------|--------|
B|--------|--------|--------|--------|--------|--------|--------|--------|--------|
G|--------|--------|--------|--------|--------|--------|--------|--------|--------|
D|--------|--------|--------|--------|--------|--------|--------|--------|--------|
A|--------|--------|--------|--------|--------|--------|--------|--------|--------|
E|--------|--------|--------|--------|--------|--------|--------|--------|--------|


E|--------|--------|--------|--------|--------|--------|--------|--------|--------|
B|--------|--------|--------|--------|--------|--------|--------|--------|--------|
G|--------|--------|--------|--------|--------|--------|--------|--------|--------|
D|--------|--------|--------|--------|--------|--------|--------|--------|--------|
A|--------|--------|--------|--------|--------|--------|--------|--------|--------|
E|--------|--------|--------|--------|--------|--------|--------|--------|--------|


E|--------|--------|------------3--3--3--3--|-3--3--3--3--3--3--3--3--3--3--3--3--3--3--3--3--|
B|--------|--------|------------5--5--5--5--|-5--5--5--5--5--5--5--5--5--5--5--5--5--5--5--5--|
G|--------|--------|------------4--4--4--4--|-4--4--4--4--4--4--4--4--4--4--4--4--3--3--3--3--|
D|--------|--------|------------------------|-------------------------------------------------|
A|--------|--------|------------------------|-------------------------------------------------|
E|--------|--------|------------------------|-------------------------------------------------|


E|-3--3--3--3--3--3--3--3--0--0--0---0-------|-----------------|
B|-5--5--5--5--5--5--5--5--------------------|-----------------|
G|-3--3--3--3--3--3--3--3--------------------|-----------------|
D|-------------------------2--4--5---2-------|-----------------|
A|-----------------------------------2-------|-----------------|
E|-------------------------0--2--3---0-------|-----------------|





Track 11:  Bass

C|--------|--------|--------|--------|--------|--------|--------|--------|--------|
G|--------|--------|--------|--------|--------|--------|--------|--------|--------|
D|--------|--------|--------|--------|--------|--------|--------|--------|--------|
A|--------|--------|--------|--------|--------|--------|--------|--------|--------|
E|--------|--------|--------|--------|--------|--------|--------|--------|--------|
B|--------|--------|--------|--------|--------|--------|--------|--------|--------|


C|--------|--------|--------|--------|--------|--------|--------|--------|-------------|
G|--------|--------|--------|--------|--------|--------|--------|--------|-------------|
D|--------|--------|--------|--------|--------|--------|--------|--------|-------------|
A|--------|--------|--------|--------|--------|--------|--------|--------|-------------|
E|--------|--------|--------|--------|--------|--------|--------|-0------|-0-----12----|
B|--------|--------|--------|--------|--------|--------|--------|--------|-------------|


C|-----------------------|-------------------------|-------------------------|-----------------------------------------|
G|-----------------------|-------------------------|-------------------------|-----------------------------------------|
D|-----------------------|-------------------------|-------------------------|----------2--5---------------------------|
A|-2-----2---0-----------|-------------------------|---------------2---1-----|-1--1--4--------4------------------------|
E|-----------------3--3--|-3-----0--2--3---0-------|-----0--2--3-------------|-------------------3---0--2--3---0-------|
B|-----------------------|-------------------------|-------------------------|-----------------------------------------|


C|-------------------------|---------------------------------|----------------------------|
G|-------------------------|---------------------------------|----------------------------|
D|-------------------------|----------5--8-------------------|----------------------------|
A|---------------2---4-----|-4--4--7--------7------2-----2---|-0--------------------------|
E|-----0--2--3-------------|-------------------6-------------|-------3--3--3----0--2--3---|
B|-------------------------|---------------------------------|----------------------------|


C|--------------------------------|--------------------------------------|--------------------------------|
G|--------------------------------|--------------------------------------|--------------------------------|
D|--------------------------------|---------------2--5-------------------|--------------------------------|
A|-----------------------2---1----|------1--1--4--------4----------------|-----------------------2---4----|
E|-0-----------0--2--3------------|------------------------3---0--2--3---|-0-----------0--2--3------------|
B|--------------------------------|--------------------------------------|--------------------------------|


C|---------------------------------|--------------------------|----------------------|
G|---------------------------------|--------------------------|----------------------|
D|---------------5--8--------------|--------------------------|----------------------|
A|------4--4--7--------7------2----|-----2---0----------------|-----------------2----|
E|------------------------6--------|---------------3--3--3----|-----2--3--0----------|
B|---------------------------------|--------------------------|----------------------|


C|------------------------------------------|----------------------------------|-------------|
G|------------------------------------------|----------------------------------|-------------|
D|-----------9---13--11-13-11---------------|-4-----------4--4--4--2--4--------|-------------|
A|-----2--9-------------------14------------|----------------------------------|-------------|
E|--------------------------------2---2--2--|-----2---2-------------------0----|--------0----|
B|------------------------------------------|----------------------------------|-------------|


C|----------------------------|-------------------------------------------------|----------------------------------------|
G|----------------------------|-------------------------------------------------|----------------------------------------|
D|----------------------------|-------------------------------------------------|----------------------------------------|
A|----------------------------|-------------------------7--7--7--7--------------|-------------7--7--7--7--7--------------|
E|------0---12----0--0--0--0--|-0--0--0--0--0--0--0--0--------------0--0--0--0--|-0--0--0--0------------------0--1--2----|
B|----------------------------|-------------------------------------------------|----------------------------------------|


C|----------------------------|--------------------------|-------------------------------------|
G|----------------------------|--------------------------|-------------------------------------|
D|----------------------------|--------------------------|-------------------------------------|
A|-----------------------4----|-4------------------------|--------------4--2--4----------------|
E|-----2--4--5-----5--7-------|------0--4-----4--5--7----|-7----7--7-------------4--0--2---2---|
B|----------------------------|--------------------------|-------------------------------------|


C|---------------------------------------|-------------------------------------|-----------------------|
G|---------------------------------------|-------------------------------------|-----------------------|
D|---------------------------------------|-------------------------14--13------|-----------------------|
A|---------------------4---4---4---------|------------------12-12----------14--|-11--------------------|
E|-2--4--5---5---5--7-------------0--4---|----4---4--5---5---------------------|-----14----5---7---8---|
B|---------------------------------------|-------------------------------------|-----------------------|


C|-----------------------|---------------------------------|---------------------------|
G|-----------------------|---------------------------------|---------------------------|
D|-----------------------|---------------------5---9-------|---------------------------|
A|---------6---9---------|-6---7---9---7---7---------------|---------------------------|
E|-7---7-----------------|---------------------------------|-------5---7---8---7---7---|
B|-----------------------|---------------------------------|---------------------------|


C|-----------------------|---------------------------|-------------------------------------------|
G|-----------------------|---------------------------|-------------------------------------------|
D|-----------------------|-------------5---9---------|-----7--7------------5--5--2---------------|
A|-6---9---------6---7---|-9---7---7-----------------|-----------7------------------2------------|
E|-----------------------|---------------------------|--------------8--5---------------3---2--3--|
B|-----------------------|---------------------------|-------------------------------------------|


C|-----------------------------------------|----------------------------------|---------------------------------------|
G|-----------------------------------------|----------------------------------|---------------------------------------|
D|-----------------------------------------|----------------------------------|---------------------------------------|
A|----2------------------------------------|----------------------------------|---------------------------------------|
E|-5-----3--2--0--0--0---0-----------0--0--|-0---0--------0--0--0---0--0--0---|-0--0--0---0--0--0---0-----------0--0--|
B|-----------------------------------------|----------------------------------|---------------------------------------|


C|----------------------------------|---------------------------------------|----------------------------------|
G|----------------------------------|---------------------------------------|----------------------------------|
D|----------------------------------|---------------------------------------|----------------------------------|
A|----------------------------------|---------------------------------------|----------------------------------|
E|-0---0--------0--0--0---0--0--0---|-0--0--0---0--0--0---0-----------0--0--|-0---0--------0--0--0---0--0--0---|
B|----------------------------------|---------------------------------------|----------------------------------|


C|---------------------------------------|----------------------------------|---------------------------------------|
G|---------------------------------------|----------------------------------|---------------------------------------|
D|---------------------------------------|----------------------------------|---------------------------------------|
A|---------------------------------------|----------------------------------|---------------------------------------|
E|-0--0--0---0--0--0---0-----------0--0--|-0---0--------0--0--0---0--0--0---|-0--0--0---0--0--0---0-----------0--0--|
B|---------------------------------------|----------------------------------|---------------------------------------|


C|----------------------------------|---------------------------------------|----------------------------------|
G|----------------------------------|---------------------------------------|----------------------------------|
D|----------------------------------|---------------------------------------|----------------------------------|
A|----------------------------------|---------------------------------------|----------------------------------|
E|-0---0--------0--0--0---0--0--0---|-0--0--0---0--0--0---0-----------0--0--|-0---0--------0--0--0---0--0--0---|
B|----------------------------------|---------------------------------------|----------------------------------|


C|------------------------------------|----------------------------------|------------------------------------|
G|------------------------------------|----------------------------------|------------------------------------|
D|------------------------------------|----------------------------------|------------------------------------|
A|------------------------------------|----------------------------------|------------------------------------|
E|-0--0--0---0--0--0---12---12--0--0--|-0---0--------0--0--0---0--0--0---|-0--0--0---0--0--0---12---12--0--0--|
B|------------------------------------|----------------------------------|------------------------------------|


C|----------------------------------|------------------------------------|----------------------------------|
G|----------------------------------|------------------------------------|----------------------------------|
D|----------------------------------|------------------------------------|----------------------------------|
A|----------------------------------|------------------------------------|----------------------------------|
E|-0---0--------0--0--0---0--0--0---|-0--0--0---0--0--0---12---12--0--0--|-0---0--------0--0--0---0--0--0---|
B|----------------------------------|------------------------------------|----------------------------------|


C|------------------------------------|----------------------------------|-------------------------------------|
G|------------------------------------|----------------------------------|-------------------------------------|
D|------------------------------------|----------------------------------|---------------------------1---------|
A|------------------------------------|----------------------------------|-----------2---3---0---2-------2--2--|
E|-0--0--0---0--0--0---12---12--0--0--|-0---0--------0--0--0---0--0--0---|-0--0--0-----------------------------|
B|------------------------------------|----------------------------------|-------------------------------------|


C|-----------------------------------|-----------------------------------|-----------------------------------|
G|-----------------------------------|-----------------------------------|-0---2-----------------------------|
D|-2---4---------2---1---------------|-------------------------1---------|---------------2---1---------------|
A|---------2--2----------2---3---2---|-0---2-------3---0---2-------2--2--|---------2--2----------2---3---2---|
E|-----------------------------------|---------3-------------------------|-----------------------------------|
B|-----------------------------------|-----------------------------------|-----------------------------------|


C|-----------------------------------|-----------------------------------|-----------------------------------|
G|-----------------------------------|-2---4-----------------------------|-----------------------------------|
D|-------------------------1---------|---------------2---1---------------|-----------------------------------|
A|-0---2---0---3---0---2-------2--2--|---------2--2----------2---3---2---|-0---2-----------------0---1---2---|
E|-----------------------------------|-----------------------------------|---------0--0--2---3---------------|
B|-----------------------------------|-----------------------------------|-----------------------------------|


C|---------------------------------------------|-------------------------------------------|
G|---------------------------------------------|-------------4---------4---------2---------|
D|-1--4--2----------------------------2--------|----2--------------------------------------|
A|---------------7--6--5--7--4--3--2-----0--1--|-----------------2--2------2--2------2--2--|
E|-----------0---------------------------------|-3-----3--5--------------------------------|
B|---------------------------------------------|-------------------------------------------|


C|---------------4---3--------------------|---------------------------------|---------------------------------|
G|-----------------------4---5---4--5--4--|---------------------------------|---------------------------------|
D|-5---4----------------------------------|-7---5---4---6---7---------------|---------------------------------|
A|---------2--2---------------------------|---------------------4---3-------|-2---0---------------4---3---2---|
E|----------------------------------------|-----------------------------2---|---------2---0---2---------------|
B|----------------------------------------|---------------------------------|---------------------------------|


C|----------------|-------------|------------------------------------|-----------------------------------------|
G|----------------|-------------|------------------------------------|-----------------------------------------|
D|----------------|-------------|------------------------------------|-----------------------------------------|
A|----------------|-------------|------------------7-----------------|-7----------7----------7-----------------|
E|-2---3---0------|------0------|------0--0--0--0-------0-0-0--0--0--|-----0-0-0------0-0-0-------0-0-0--0--0--|
B|----------------|-------------|------------------------------------|-----------------------------------------|


C|-------------------|--------------------|------------------------------|------------------------------|
G|-------------------|--------------------|------------------------------|------------------------------|
D|-------------------|--------------------|------------------------------|------------------------------|
A|-7-----------------|--------------12----|---------4----4---4---4---4---|-4----------------------------|
E|-----0-0-1--2------|-2---4---5----------|-5---7------------------------|-----0---4----4---4---4---4---|
B|-------------------|--------------------|------------------------------|------------------------------|


C|------------------------------|------------------------------|---------------------------------|
G|------------------------------|------------------------------|---------------------------------|
D|------------------------------|-9---9---9----9---------------|---------------------------------|
A|---------2----2---2---2---2---|------------------4---2---4---|---------------------------------|
E|-4---5------------------------|------------------------------|-4---0---2---2---2---2---2---4---|
B|------------------------------|------------------------------|---------------------------------|


C|---------------------------------|---------------------------------|---------------------------------|
G|---------------------------------|---------------------------------|---------------------------------|
D|---------------------------------|---------------------------------|---------------------------------|
A|-------------------------4---4---|-4---4---4-----------------------|---------------------------------|
E|-5---5---5---5---5---7-----------|-------------0---4---4---4---4---|-4---4---5---5---5---5---5---5---|
B|---------------------------------|---------------------------------|---------------------------------|


C|------------------|-----------------|--------------------|-------------|-------------|
G|------------------|-----------------|--------------------|-------------|-------------|
D|------------------|------9-----9----|------9-------------|-------------|-------------|
A|-4-----------2----|-----------------|--------------------|-------------|-------------|
E|-------4----------|-----------------|------------0---2---|-3------3----|-------------|
B|------------------|-----------------|--------------------|-------------|-------------|


C|-------------|-------------|--------------------|-----------------------------------------------|
G|-------------|-------------|--------------------|-----------------------------------------------|
D|-------------|-------------|--------------------|-----------------------------------------------|
A|-------------|-------------|-----------------5--|-5--------4--4--------3--3-----2---------------|
E|-------------|-------------|--------0--2--3-----|----0--3--------0--3--------3------0--2--3--0--|
B|-------------|-------------|--------------------|-----------------------------------------------|


C|---------------------------------------------|---------------------------------------------|
G|---------------------------------------------|---------------------------------------------|
D|---------------------------------------------|---------------------------------------------|
A|---------------------------------------------|---------------------------------------------|
E|-0--0---0--0--2--3--0--0--0---0--0--2--3--0--|-0--0---0--0--2--3--0--0--0---0--0--2--3--0--|
B|---------------------------------------------|---------------------------------------------|


C|---------------------------------------------|-----------------------------------------------|
G|---------------------------------------------|-----------------------------------------------|
D|---------------------------------------------|-----------------------------------------------|
A|------------------------------------------5--|-5--------4--4--------3--3-----2---------------|
E|-0--0---0--0--2--3--0--0--0---0--0--2--3-----|----0--3--------0--3--------3------0--2--3--0--|
B|---------------------------------------------|-----------------------------------------------|


C|---------------------------------------------|---------------------------------------------|
G|---------------------------------------------|---------------------------------------------|
D|---------------------------------------------|---------------------------------------------|
A|---------------------------------------------|---------------------------------------------|
E|-0--0---0--0--2--3--0--0--0---0--0--2--3--0--|-0--0---0--0--2--3--0--0--0---0--0--2--3--0--|
B|---------------------------------------------|---------------------------------------------|


C|---------------------------------------------|-----------------------------------------------|
G|---------------------------------------------|-----------------------------------------------|
D|---------------------------------------------|-----------------------------------------------|
A|------------------------------------------5--|-5--------4--4--------3--3-----2---7--7--7--7--|
E|-0--0---0--0--2--3--0--0--0---0--0--2--3-----|----0--3--------0--3--------3------------------|
B|---------------------------------------------|-----------------------------------------------|


C|---------------------------------------------|---------------------------------------------|
G|---------------------------------------------|---------------------------------------------|
D|---------------------------------------------|---------------------------------------------|
A|----7--7--7--7---7--7--7--7-----7--7--7--7---|-7--7--7---7--7--7--7-----7--7--7--7---7--7--|
E|---------------------------------------------|---------------------------------------------|
B|---------------------------------------------|---------------------------------------------|


C|---------------------------------------------|---------------------------------------------|
G|---------------------------------------------|---------------------------------------------|
D|---------------------------------------------|---------------------------------------------|
A|-7--7-----7--7--7--7---7--7--7---7--7--7--7--|----7--7--7--7---7--7--7--7-----7--7--7--7---|
E|---------------------------------------------|---------------------------------------------|
B|---------------------------------------------|---------------------------------------------|


C|---------------------------------------------|---------------------------------------------|
G|---------------------------------------------|---------------------------------------------|
D|---------------------------------------------|---------------------------------------------|
A|-7--7--7---7--7--7--7-----7--7--7--7---7--7--|-7--7-----7--7--7--7---7--7--7---------------|
E|---------------------------------------------|---------------------------------0--0--0--0--|
B|---------------------------------------------|---------------------------------------------|


C|---------------------------------------------|---------------------------------------------|
G|---------------------------------------------|---------------------------------------------|
D|---------------------------------------------|---------------------------------------------|
A|---------------------------------------------|---------------------------------------------|
E|----0--0--0--0---0--0--0--0-----0--0--0--0---|-0--0--0---0--0--0--0-----0--0--0--0---0--0--|
B|---------------------------------------------|---------------------------------------------|


C|---------------------------------------------|---------------------------------------------|
G|---------------------------------------------|---------------------------------------------|
D|---------------------------------------------|---------------------------------------------|
A|---------------------------------------------|---------------------------------------------|
E|-0--0-----0--0--0--0---0--0--0---0--0--0--0--|----0--0--0--0---0--0--0--0-----0--0--0--0---|
B|---------------------------------------------|---------------------------------------------|


C|---------------------------------------------|-------------------------------------------|
G|---------------------------------------------|-------------------------------------------|
D|---------------------------------------------|-------------------------------------------|
A|---------------------------------------------|-------------------------------------------|
E|-0--0--0---0--0--0--0-----0--0--0--0---0--0--|-0--0-----0--0--0--0---0--0--0---2--2------|
B|---------------------------------------------|-------------------------------------------|


C|------------------------------------|------------------------------------|------------------------------------|
G|------------------------------------|------------------------------------|------------------------------------|
D|------------------------------------|------------------------------------|------------------------------------|
A|------------------------------------|------------------------------------|------------------------------------|
E|-----2--2--2--2--2--------2--2------|-----2--2--2--2--2--------2--2------|-----2--2--2--2--2--------2--2------|
B|------------------------------------|------------------------------------|------------------------------------|


C|--------------------------------------|---------------------------------------------|
G|--------------------------------------|---------------------------------------------|
D|--------------------------------------|---------------------------------------------|
A|--------------------------------------|---------------------------------------------|
E|-----2--2--2--2--2--------0--2--3--0--|-0--0---0--0--2--3--0--0--0---0--0--2--3--0--|
B|--------------------------------------|---------------------------------------------|


C|---------------------------------------------|---------------------------------------------|
G|---------------------------------------------|---------------------------------------------|
D|---------------------------------------------|---------------------------------------------|
A|---------------------------------------------|------------------------------------------5--|
E|-0--0---0--0--2--3--0--0--0---0--0--2--3--0--|-0--0---0--0--2--3--0--0--0---0--0--2--3-----|
B|---------------------------------------------|---------------------------------------------|


C|---------------------------------------------|------------------------------------|
G|---------------------------------------------|------------------------------------|
D|---------------------------------------------|------------------------------------|
A|-5--------4--4--------3--3-----2-------------|------------------------------------|
E|----0--3--------0--3--------3------2--2------|-----2--2--2--2--2--------2--2------|
B|---------------------------------------------|------------------------------------|


C|------------------------------------|------------------------------------|--------------------------------------|
G|------------------------------------|------------------------------------|--------------------------------------|
D|------------------------------------|------------------------------------|--------------------------------------|
A|------------------------------------|------------------------------------|--------------------------------------|
E|-----2--2--2--2--2--------2--2------|-----2--2--2--2--2--------2--2------|-----2--2--2--2--2--------0--2--3--0--|
B|------------------------------------|------------------------------------|--------------------------------------|


C|---------------------------------------------|---------------------------------------------|
G|---------------------------------------------|---------------------------------------------|
D|---------------------------------------------|---------------------------------------------|
A|---------------------------------------------|------------------------------------------5--|
E|-0--0---0--0--2--3--0--0--0---0--0--2--3--0--|-0--0---0--0--2--3--0--0--0---0--0--2--3-----|
B|---------------------------------------------|---------------------------------------------|


C|---------------------------------------------|------------------------------------|
G|---------------------------------------------|------------------------------------|
D|---------------------------------------------|------------------------------------|
A|-5--------4--4--------3--3-----2-------------|------------------------------------|
E|----0--3--------0--3--------3------2--2------|-----2--2--2--2--2--------2--2------|
B|---------------------------------------------|------------------------------------|


C|------------------------------------|--------------------------------------|---------------------------------------------|
G|------------------------------------|--------------------------------------|---------------------------------------------|
D|------------------------------------|--------------------------------------|---------------------------------------------|
A|------------------------------------|--------------------------------------|------------------------------------------5--|
E|-----2--2--2--2--2--------2--2------|-----2--2--2--2--2--------0--2--3--0--|-0--0---0--0--2--3--0--0--0---0--0--2--3-----|
B|------------------------------------|--------------------------------------|---------------------------------------------|


C|---------------------------------------------|------------------------------------|
G|---------------------------------------------|------------------------------------|
D|---------------------------------------------|------------------------------------|
A|-5--------4--4--------3--3-----2-------------|------------------------------------|
E|----0--3--------0--3--------3------2--2------|-----2--2--2--2--2--------2--2------|
B|---------------------------------------------|------------------------------------|


C|--------------------------------------|---------------------------------------------|
G|--------------------------------------|---------------------------------------------|
D|--------------------------------------|---------------------------------------------|
A|-----------------------------------5--|-5--------4--4--------3--3-----2-------------|
E|-----2--2--2--2--2--------0--2--3-----|----0--3--------0--3--------3------2--2------|
B|--------------------------------------|---------------------------------------------|


C|----------------------------------|-----------------------------------------|-------------------------------|
G|----------------------------------|-----------------------------------------|-------------------------------|
D|----------------------------------|-9--9--7--9--9--9--7---9-----------------|-----7--9--9--9--7-------------|
A|----------------------------------|---------------------------9--9----------|-------------------------------|
E|-----2--2--2--2--2--------7---7---|---------------------------------7---7---|-7---------------------7---7---|
B|----------------------------------|-----------------------------------------|-------------------------------|


C|-----------------------------------------|-----------------------------------------------|
G|-----------------------------------------|-----9-----8-----8-----7-----6-----------------|
D|-9--9--7--9--9--9--7---9-----------------|--------9-----8-----8-----7-----6--------------|
A|---------------------------9--9----------|--------------------------------------------5--|
E|---------------------------------7---7---|-7---------------------------------0--2--3-----|
B|-----------------------------------------|-----------------------------------------------|


C|---------------------------------------------|--------------------------------------|
G|---------------------------------------------|--------------------------------------|
D|---------------------------------------------|--------------------------------------|
A|-5--------4--4--------3--3-----2-------------|--------------------------------------|
E|----0--3--------0--3--------3------2--2------|-----2--2--2--2--2--------0--2--3--0--|
B|---------------------------------------------|--------------------------------------|


C|---------------------------------------------|---------------------------------------------|
G|---------------------------------------------|---------------------------------------------|
D|---------------------------------------------|---------------------------------------------|
A|------------------------------------------5--|-5--------4--4--------3--3-----2-------------|
E|-0--0---0--0--2--3--0--0--0---0--0--2--3-----|----0--3--------0--3--------3------2--2------|
B|---------------------------------------------|---------------------------------------------|


C|------------------------------------|--------------------------------------|---------------------------------------------|
G|------------------------------------|--------------------------------------|---------------------------------------------|
D|------------------------------------|--------------------------------------|---------------------------------------------|
A|------------------------------------|--------------------------------------|---------------------------------------------|
E|-----2--2--2--2--2--------2--2------|-----2--2--2--2--2--------0--2--3--0--|-0--0---0--0--2--3--0--0--0---0--0--2--3--0--|
B|------------------------------------|--------------------------------------|---------------------------------------------|


C|---------------------------------------------|---------------------------------------------|
G|---------------------------------------------|---------------------------------------------|
D|---------------------------------------------|---------------------------------------------|
A|------------------------------------------5--|-5--------4--4--------3--3-----2-------------|
E|-0--0---0--0--2--3--0--0--0---0--0--2--3-----|----0--3--------0--3--------3------2--2------|
B|---------------------------------------------|---------------------------------------------|


C|------------------------------------|------------------------------------|--------------------------------------|
G|------------------------------------|------------------------------------|--------------------------------------|
D|------------------------------------|------------------------------------|--------------------------------------|
A|------------------------------------|------------------------------------|--------------------------------------|
E|-----2--2--2--2--2--------2--2------|-----2--2--2--2--2--------2--2------|-----2--2--2--2--2--------0--2--3--0--|
B|------------------------------------|------------------------------------|--------------------------------------|


C|---------------------------------------------|---------------------------------------------|
G|---------------------------------------------|---------------------------------------------|
D|---------------------------------------------|---------------------------------------------|
A|---------------------------------------------|---------------------------------------------|
E|-0--0---0--0--2--3--0--0--0---0--0--2--3--0--|-0--0---0--0--2--3--0--0--0---0--0--2--3--0--|
B|---------------------------------------------|---------------------------------------------|


C|---------------------------------------------|---------------------------------------------|
G|---------------------------------------------|---------------------------------------------|
D|---------------------------------------------|---------------------------------------------|
A|------------------------------------------5--|-5--------4--4--------3--3-----2-------------|
E|-0--0---0--0--2--3--0--0--0---0--0--2--3-----|----0--3--------0--3--------3------2--2------|
B|---------------------------------------------|---------------------------------------------|


C|------------------------------------|------------------------------------|------------------------------------|
G|------------------------------------|------------------------------------|------------------------------------|
D|------------------------------------|------------------------------------|------------------------------------|
A|------------------------------------|------------------------------------|------------------------------------|
E|-----2--2--2--2--2--------2--2------|-----2--2--2--2--2--------2--2------|-----2--2--2--2--2--------2--2------|
B|------------------------------------|------------------------------------|------------------------------------|


C|----------------------------------|-------------------------------------------|-----------------------------------------------|
G|----------------------------------|-------4---4-----------2--4-----2----------|-------2---2--------------2--------------------|
D|----------------------------------|-----------------------------5-------------|-----------------------5-----4--5--2--1--------|
A|--------------------------2----2--|-2--2---------2--2--2--------------2----2--|-2--2---------2--2--2--------------------3--2--|
E|-----2--2--2--2--2----------------|-------------------------------------------|-----------------------------------------------|
B|----------------------------------|-------------------------------------------|-----------------------------------------------|


C|---------------------------------------------|------------------------------------------|
G|-------2--5--4--5--2--4-----2----------------|------------------------------------------|
D|-1--4--------------------5-----4--5--2-------|------------------------------------------|
A|---------------------------------------------|------2--2--2--2--2--2--2--2--2--2--2--2--|
E|---------------------------------------------|------------------------------------------|
B|---------------------------------------------|------------------------------------------|


C|-------------------------------------------------|-------------------------------------------------|
G|-------------------------------------------------|-------------------------------------------------|
D|-------------9--9--9--9--9--9--9--9--9--9--9--9--|-9--9--9--9--------------------------------------|
A|-2--2--2--2--------------------------------------|-------------0--0--0--0--0--0--0--0--0--0--0--0--|
E|-------------------------------------------------|-------------------------------------------------|
B|-------------------------------------------------|-------------------------------------------------|


C|-------------------------------------------------|-------------------------------------------------|
G|-------------------------------------------------|-------------------------------------------------|
D|-------------7--7--7--7--7--7--7--7--7--7--7--7--|-7--7--7--7--------------------------------------|
A|-0--0--0--0--------------------------------------|-------------------------------------------------|
E|-------------------------------------------------|-------------0--0--0--0--0--0--0--0--0--0--0--0--|
B|-------------------------------------------------|-------------------------------------------------|


C|-------------------------------------------------|-------------------------------------------------|
G|-------------------------------------------------|-------------------------------------------------|
D|----------------------7-----------------5--------|-5-----------------------------------------------|
A|-------------7--5--7-----7--5--7--5--7-----7--5--|----7--5-----------------------------------------|
E|-0--0--0--0--------------------------------------|----------7--0--0--0--0--0--0--0--0--0--0--0--0--|
B|-------------------------------------------------|-------------------------------------------------|


C|-------------------------------------------------|-------------------------------------------------|
G|-------------------------------------------------|-------------------------------------------------|
D|----------------------7-----------------5--------|-7--5--------------------------------------------|
A|-------------7--5--7-----7--5--7--5--7-----7--5--|-------7--5--2--2--2--2--2--2--2--2--2--2--2--2--|
E|-0--0--0--0--------------------------------------|-------------------------------------------------|
B|-------------------------------------------------|-------------------------------------------------|


C|-------------------------------------------------|-------------------------------------------------|
G|-------------------------------------------------|-------------------------------------------------|
D|-------------9--9--9--9--9--9--9--9--9--9--9--9--|-9--9--9--9--------------------------------------|
A|-2--2--2--2--------------------------------------|-------------0--0--0--0--0--0--0--0--0--0--0--0--|
E|-------------------------------------------------|-------------------------------------------------|
B|-------------------------------------------------|-------------------------------------------------|


C|-------------------------------------------------|-------------------------------------------------|
G|-------------------------------------------------|-------------------------------------------------|
D|-------------7--7--7--5--5--5--7--7--7--5--5--5--|-7--7--5--5--------------------7--------7--5-----|
A|-0--0--0--0--------------------------------------|----------------------7--5--7-----7--5--------5--|
E|-------------------------------------------------|-------------0--0--0-----------------------------|
B|-------------------------------------------------|-------------------------------------------------|


C|-------------------------------------------------|-------------------------------------------------|
G|-------------------------------------------------|-------------------------------------------------|
D|-7--7--5-----------------------5--------5--------|-------------------------------7--------7--5-----|
A|----------7-----------7--5--7-----7--5-----7--5--|-7--5-----------------7--5--7-----7--5--------7--|
E|-------------0--0--0-----------------------------|-------7--5--0--0--0-----------------------------|
B|-------------------------------------------------|-------------------------------------------------|


C|-------------------------------------------------|----7---------------------------------9------|
G|----------------------------------------------7--|-9-----9------------9--------9--11-12----11--|
D|-7--7--5-----------------------7--5-----7--9-----|-----------9--10-12----10-12-----------------|
A|----------7-----------7--5--7--------7-----------|---------------------------------------------|
E|-------------0--0--0-----------------------------|---------------------------------------------|
B|-------------------------------------------------|---------------------------------------------|


C|-------------------------------------------------|-------------------------------------------------|
G|-12-11-9-----------------9-----------------------|-------------------------------------------------|
D|----------12-10-9--10-12----12-10-9-----------10-|-12-10-9--------------9--10-9-----------------9--|
A|-------------------------------------12-10-12----|----------12-12-10-12----------12-10-9--10-12----|
E|-------------------------------------------------|-------------------------------------------------|
B|-------------------------------------------------|-------------------------------------------------|


C|-------------------------------------------------|-----------------------------------------------|
G|-------------------------------------------------|-----------------------------------------------|
D|-10-9-----------------------------9--10----------|----9---------------14-14-14-12-12-12-14-14-14-|
A|-------12-10----9--10----9--10-12-------12-9--10-|-12----12--------------------------------------|
E|-------------12-------12-------------------------|-----------0--0--0-----------------------------|
B|-------------------------------------------------|-----------------------------------------------|


C|-------------------------------------------------|-------------------------------------------------|
G|-12-12-------------------------------------------|-12-12-------------------------------------------|
D|-------14-14----------14-14-14-12-12-12-14-14-14-|-------14-14----------14-14-14-12-12-12-14-14-14-|
A|-------------------------------------------------|-------------------------------------------------|
E|-------------0--0--0-----------------------------|-------------0--0--0-----------------------------|
B|-------------------------------------------------|-------------------------------------------------|


C|----------------------------------|-----------------|-------------|--------|
G|-12-12----------------------------|-----------------|-------------|--------|
D|-------14-14----------------------|-----------------|-------------|--------|
A|----------------------------------|-----------------|-------------|--------|
E|-------------0---2---3----0-------|-----------------|-------------|--------|
B|----------------------------------|-----------------|-------------|--------|