Menu:

 

Search:

 

dream theater - eve:

 



Title: Eve
Artist: 
Album: Cleaning Out the Closet
Author: Dream Theater


Track 1: Slightly Dirty Lead M

E|--------|--------|--------|--------|--------|--------|--------|--------|--------|
B|--------|--------|--------|--------|--------|--------|--------|--------|--------|
G|--------|--------|--------|--------|--------|--------|--------|--------|--------|
D|--------|--------|--------|--------|--------|--------|--------|--------|--------|
A|--------|--------|--------|--------|--------|--------|--------|--------|--------|
E|--------|--------|--------|--------|--------|--------|--------|--------|--------|


E|--------|--------|--------|--------|--------|--------|--------|-------------------7--7-------|
B|--------|--------|--------|--------|--------|--------|--------|------------------------------|
G|--------|--------|--------|--------|--------|--------|--------|-7-------------5-7------------|
D|--------|--------|--------|--------|--------|--------|--------|------------------------------|
A|--------|--------|--------|--------|--------|--------|--------|------------------------------|
E|--------|--------|--------|--------|--------|--------|--------|------------------------------|


E|-------------|----------------------|-----------------------------------------|------------------------------|
B|-8-----------|-8-------------5---5--|----------8--8--8------------------------|------------------------------|
G|-5-----------|----------------------|----------9--7--7-------7-------------5--|-5---5---5--------------------|
D|-------------|----------------------|--------------------7-9----7-5----5-7-5--|-5------------------------3-5-|
A|-------------|----------------------|-------------------------------7---------|------------------------------|
E|-------------|----------------------|-----------------------------------------|------------------------------|


E|-------------------8-----------|-7-----------------------|---------------------------------------------|
B|-5--------------------8--------|-------------------------|-8-------8-10-8------------------------------|
G|---------------7-9---------7-8-|--------------8--8-------|---------9-9--9----7-9-7---7-9-7-------------|
D|-------------------------------|-------------------------|-9-------------------------7-9-7---7--9-7----|
A|-------------------------------|-------------------------|------------------------------------------10-|
E|-------------------------------|-------------------------|---------------------------------------------|


E|-----------------------2-----3--------|---------------------------------|------------------------|
B|--------5--5--------------1-----1--3--|-3------------------12-----------|-5----------------------|
G|--------------------------------------|-----------------12----12--------|---------------7--7--5--|
D|-----5--------------------------------|--------------12--------------5--|------------------------|
A|--------------------------------------|---------------------------------|------------------------|
E|--------------------------------------|---------------------------------|------------------------|


E|-----------------------------------|---------------8--8---8---------|-7-----------------7--7--5--------|
B|-----------------------------------|--------------------------------|---------8--8----------------8----|
G|------4--5-4-2--2--2---------------|-5---------7-9-9--11--11-----7--|-7--------------------------------|
D|-----------------------------------|--------------------------------|----------------------------------|
A|-------------------------------5-7-|--------------------------------|----------------------------------|
E|-----------------------------------|--------------------------------|----------------------------------|


E|----------------------------|------------------------|-------------|--------|--------|
B|---------------7---8-----8--|-8-------------------5--|-5-----------|--------|--------|
G|----------------------------|------------------4-----|-------------|--------|--------|
D|-----------5-7-7---7-----9--|-9----------4--5--------|-------------|--------|--------|
A|----------------------------|------------------------|-------------|--------|--------|
E|----------------------------|------------------------|-------------|--------|--------|


E|--------|--------|--------|--------|--------|--------|--------|--------|--------|
B|--------|--------|--------|--------|--------|--------|--------|--------|--------|
G|--------|--------|--------|--------|--------|--------|--------|--------|--------|
D|--------|--------|--------|--------|--------|--------|--------|--------|--------|
A|--------|--------|--------|--------|--------|--------|--------|--------|--------|
E|--------|--------|--------|--------|--------|--------|--------|--------|--------|


E|--------|--------|--------|--------|--------|--------|--------|--------|--------|
B|--------|--------|--------|--------|--------|--------|--------|--------|--------|
G|--------|--------|--------|--------|--------|--------|--------|--------|--------|
D|--------|--------|--------|--------|--------|--------|--------|--------|--------|
A|--------|--------|--------|--------|--------|--------|--------|--------|--------|
E|--------|--------|--------|--------|--------|--------|--------|--------|--------|


E|--------|--------|--------|--------|--------|--------|--------|--------|--------|
B|--------|--------|--------|--------|--------|--------|--------|--------|--------|
G|--------|--------|--------|--------|--------|--------|--------|--------|--------|
D|--------|--------|--------|--------|--------|--------|--------|--------|--------|
A|--------|--------|--------|--------|--------|--------|--------|--------|--------|
E|--------|--------|--------|--------|--------|--------|--------|--------|--------|


E|--------|--------|--------|--------|--------|
B|--------|--------|--------|--------|--------|
G|--------|--------|--------|--------|--------|
D|--------|--------|--------|--------|--------|
A|--------|--------|--------|--------|--------|
E|--------|--------|--------|--------|--------|





Track 2: Acoustic L

E|--------|--------|--------|--------|--------|--------|--------|--------|--------|
B|--------|--------|--------|--------|--------|--------|--------|--------|--------|
G|--------|--------|--------|--------|--------|--------|--------|--------|--------|
D|--------|--------|--------|--------|--------|--------|--------|--------|--------|
A|--------|--------|--------|--------|--------|--------|--------|--------|--------|
E|--------|--------|--------|--------|--------|--------|--------|--------|--------|


E|--------|--------|--------|--------|--------|--------|--------|--------|--------|
B|--------|--------|--------|--------|--------|--------|--------|--------|--------|
G|--------|--------|--------|--------|--------|--------|--------|--------|--------|
D|--------|--------|--------|--------|--------|--------|--------|--------|--------|
A|--------|--------|--------|--------|--------|--------|--------|--------|--------|
E|--------|--------|--------|--------|--------|--------|--------|--------|--------|


E|--------|--------|--------|--------|--------|--------|--------|--------|--------|
B|--------|--------|--------|--------|--------|--------|--------|--------|--------|
G|--------|--------|--------|--------|--------|--------|--------|--------|--------|
D|--------|--------|--------|--------|--------|--------|--------|--------|--------|
A|--------|--------|--------|--------|--------|--------|--------|--------|--------|
E|--------|--------|--------|--------|--------|--------|--------|--------|--------|


E|--------|--------|--------|--------|--------|--------|--------|--------|--------|
B|--------|--------|--------|--------|--------|--------|--------|--------|--------|
G|--------|--------|--------|--------|--------|--------|--------|--------|--------|
D|--------|--------|--------|--------|--------|--------|--------|--------|--------|
A|--------|--------|--------|--------|--------|--------|--------|--------|--------|
E|--------|--------|--------|--------|--------|--------|--------|--------|--------|


E|--------|--------|--------|--------|--------|--------|-3----3---3--3--------3--3--------3--3--|
B|--------|--------|--------|--------|--------|--------|-3----3---3--3--------3--3--------3--3--|
G|--------|--------|--------|--------|--------|--------|-0----0---0--0--0-----0--0--0-----0--0--|
D|--------|--------|--------|--------|--------|--------|-0----0---0--0--0-----0--0--0-----0--0--|
A|--------|--------|--------|--------|--------|--------|-2----2---2--2--2-----2--2--2-----2--2--|
E|--------|--------|--------|--------|--------|--------|-3----3---3--3--3--3--3--3--3--3--3--3--|


E|-2----2---2--2--2---2--2--2---2--2--|-0----0----0--0--0--0--0---0--0--0--|-0----0----0--0--0--0--0---0--0--0--|
B|-3----3---3--3--3---3--3--3---3--3--|-1----1----1--1--1--1--1---1--1--1--|-3----3----3--3--3--3--3---3--3--3--|
G|-4----4---4--4--4---4--4--4---4--4--|-0----0----0--0--0--0--0---0--0--0--|-0----0----0--0--0--0--0---0--0--0--|
D|-4----4---4--4--4---4--4--4---4--4--|-2----2----2--2--2--2--2---2--2--2--|-2----2----2--2--2--2--2---2--2--2--|
A|-2----2---2--2--2---2--2--2---2--2--|-3----3----3--3--3--3--3---3--3--3--|-2----2----2--2--2--2--2---2--2--2--|
E|------------------------------------|------------------------------------|-0----0----0--0--0--0--0---0--0--0--|


E|-0---0--0--0--0--0---0--0--0--0--0---0--0--|------7--7--7--7---7----7--7--7--7---|
B|-3---3--3--3--3--3---3--3--3--3--3---3--3--|------8--8--8--8---8----8--8--8--8---|
G|-2---2--2--2--2--2---2--2--2--2--2---2--2--|------9--9--9--9---9----9--9--9--9---|
D|-0---0--0--0--0--0---0--0--0--0--0---0--0--|------9--9--9--9---9----9--9--9--9---|
A|-2---2--2--2--2--2---2--2--2--2--2---2--2--|-7----7--7--7--7---7----7--7--7--7---|
E|-------------------------------------------|-0----0--0--0--0---0----0--0--0--0---|


E|-0----0--0--0--0--0---0--0--0--0---0--0--|-0----0--0----0--0--0--0--0---0--0--0--|
B|-3----3--3--3--3--3---3--3--3--3---3--3--|-3----3--3----3--3--3--3--3---3--3--3--|
G|-0----0--0--0--0--0---0--0--0--0---0--0--|-0----0--0----0--0--0--0--0---0--0--0--|
D|-5----5--5--5--5--4---4--4--4--4---4--4--|-2----2--2----2--2--2--2--2---2--2--2--|
A|-0----0--0--0--0--0---0--0--0--0---0--0--|-2----2--2----2--2--2--2--2---2--2--2--|
E|-----------------------------------------|-0----0--0----0--0--0--0--0---0--0--0--|


E|--------|--------|--------|--------|--------|--------|--------|--------|--------|
B|--------|--------|--------|--------|--------|--------|--------|--------|--------|
G|--------|--------|--------|--------|--------|--------|--------|--------|--------|
D|--------|--------|--------|--------|--------|--------|--------|--------|--------|
A|--------|--------|--------|--------|--------|--------|--------|--------|--------|
E|--------|--------|--------|--------|--------|--------|--------|--------|--------|


E|--------|--------|--------|--------|--------|--------|--------|--------|
B|--------|--------|--------|--------|--------|--------|--------|--------|
G|--------|--------|--------|--------|--------|--------|--------|--------|
D|--------|--------|--------|--------|--------|--------|--------|--------|
A|--------|--------|--------|--------|--------|--------|--------|--------|
E|--------|--------|--------|--------|--------|--------|--------|--------|





Track 3: Dist L (w/slight Chorus)

E|--------|--------|--------|--------|--------|--------|--------|--------|--------|
B|--------|--------|--------|--------|--------|--------|--------|--------|--------|
G|--------|--------|--------|--------|--------|--------|--------|--------|--------|
D|--------|--------|--------|--------|--------|--------|--------|--------|--------|
A|--------|--------|--------|--------|--------|--------|--------|--------|--------|
E|--------|--------|--------|--------|--------|--------|--------|--------|--------|


E|--------|--------|--------|--------|--------|--------|--------|--------|--------|
B|--------|--------|--------|--------|--------|--------|--------|--------|--------|
G|--------|--------|--------|--------|--------|--------|--------|--------|--------|
D|--------|--------|--------|--------|--------|--------|--------|--------|--------|
A|--------|--------|--------|--------|--------|--------|--------|--------|--------|
E|--------|--------|--------|--------|--------|--------|--------|--------|--------|


E|--------|--------|--------|--------|--------|--------|--------|--------|--------|
B|--------|--------|--------|--------|--------|--------|--------|--------|--------|
G|--------|--------|--------|--------|--------|--------|--------|--------|--------|
D|--------|--------|--------|--------|--------|--------|--------|--------|--------|
A|--------|--------|--------|--------|--------|--------|--------|--------|--------|
E|--------|--------|--------|--------|--------|--------|--------|--------|--------|


E|--------|--------|--------|--------|--------|--------|--------|--------|--------|
B|--------|--------|--------|--------|--------|--------|--------|--------|--------|
G|--------|--------|--------|--------|--------|--------|--------|--------|--------|
D|--------|--------|--------|--------|--------|--------|--------|--------|--------|
A|--------|--------|--------|--------|--------|--------|--------|--------|--------|
E|--------|--------|--------|--------|--------|--------|--------|--------|--------|


E|--------|--------|--------|--------|--------|--------|--------|--------|--------|
B|--------|--------|--------|--------|--------|--------|--------|--------|--------|
G|--------|--------|--------|--------|--------|--------|--------|--------|--------|
D|--------|--------|--------|--------|--------|--------|--------|--------|--------|
A|--------|--------|--------|--------|--------|--------|--------|--------|--------|
E|--------|--------|--------|--------|--------|--------|--------|--------|--------|


E|--------|--------|--------|--------|--------|-------------------------|---------------------------------------|
B|--------|--------|--------|--------|--------|-------------------------|------------1--1----1--3-3-0-----------|
G|--------|--------|--------|--------|--------|------------5---5-----5--|--------0---------------------2--------|
D|--------|--------|--------|--------|--------|--------5----------------|-----2---------------------------2-----|
A|--------|--------|--------|--------|--------|-3---3-------------------|-0----------------------------------3--|
E|--------|--------|--------|--------|--------|-1-----------------------|---------------------------------------|


E|--------------------1-----|---------0------------------|--------|--------|--------|
B|------------1--1----------|----------------------------|-2------|--------|-3------|
G|--------0-----------------|--------------1----2----4---|-2------|--------|-4------|
D|-----3--------------------|----------------------------|-2------|-4------|-4------|
A|-3------------------------|-2---2----------------------|-0------|-4------|-2------|
E|--------------------------|-0---0----------------------|--------|-2------|--------|


E|--------|-------------|-----------------5----------------------|------------------|
B|--------|-------7-----|-------5-7-5-----5-----5----------------|-----3--3---------|
G|-4------|-7-----7-----|-------6-6-6--6-----6-----4-2----2---2--|-4---4--4--4------|
D|-2------|-7-----7-----|-7----------------------------4----4-2--|-4---4--4--4------|
A|-2------|-5-----5-----|-4--------------------------------------|-2---2--2--2------|
E|-0------|-------------|----------------------------------------|------------------|


E|--------|-------3---------|-3-------------------------------------|------------------------------|
B|--------|------------3----|-3----------12-12---------8-----3------|------------------------------|
G|--------|-5---------------|-0-------------------------------------|----------6--6----4--4----2---|
D|-2------|-5---------------|-0-------5--12-12-----7-9-9-----5------|-7----------------------------|
A|-2------|-3---------------|-2-------------------------------------|-0----------------------------|
E|-0------|-----------------|---------------------------------------|------------------------------|


E|---------------------|-0------|
B|---------------------|-0------|
G|-2-------------------|-0------|
D|-0-----4----5----7---|-2------|
A|---------------------|-2------|
E|---------------------|-0------|





Track 4: Lead M

E|--------|--------|--------|--------|--------|--------|--------|--------|--------|
B|--------|--------|--------|--------|--------|--------|--------|--------|--------|
G|--------|--------|--------|--------|--------|--------|--------|--------|--------|
D|--------|--------|--------|--------|--------|--------|--------|--------|--------|
A|--------|--------|--------|--------|--------|--------|--------|--------|--------|
E|--------|--------|--------|--------|--------|--------|--------|--------|--------|


E|--------|--------|--------|--------|--------|--------|--------|--------|--------|
B|--------|--------|--------|--------|--------|--------|--------|--------|--------|
G|--------|--------|--------|--------|--------|--------|--------|--------|--------|
D|--------|--------|--------|--------|--------|--------|--------|--------|--------|
A|--------|--------|--------|--------|--------|--------|--------|--------|--------|
E|--------|--------|--------|--------|--------|--------|--------|--------|--------|


E|--------|--------|--------|--------|--------|--------|--------|--------|--------|
B|--------|--------|--------|--------|--------|--------|--------|--------|--------|
G|--------|--------|--------|--------|--------|--------|--------|--------|--------|
D|--------|--------|--------|--------|--------|--------|--------|--------|--------|
A|--------|--------|--------|--------|--------|--------|--------|--------|--------|
E|--------|--------|--------|--------|--------|--------|--------|--------|--------|


E|--------|--------|--------|--------|--------|--------|--------|--------|--------|
B|--------|--------|--------|--------|--------|--------|--------|--------|--------|
G|--------|--------|--------|--------|--------|--------|--------|--------|--------|
D|--------|--------|--------|--------|--------|--------|--------|--------|--------|
A|--------|--------|--------|--------|--------|--------|--------|--------|--------|
E|--------|--------|--------|--------|--------|--------|--------|--------|--------|


E|--------|--------|--------|--------|--------|--------|--------|--------|--------|
B|--------|--------|--------|--------|--------|--------|--------|--------|--------|
G|--------|--------|--------|--------|--------|--------|--------|--------|--------|
D|--------|--------|--------|--------|--------|--------|--------|--------|--------|
A|--------|--------|--------|--------|--------|--------|--------|--------|--------|
E|--------|--------|--------|--------|--------|--------|--------|--------|--------|


E|--------|--------|--------|--------|--------|--------|--------|--------|--------|
B|--------|--------|--------|--------|--------|--------|--------|--------|--------|
G|--------|--------|--------|--------|--------|--------|--------|--------|--------|
D|--------|--------|--------|--------|--------|--------|--------|--------|--------|
A|--------|--------|--------|--------|--------|--------|--------|--------|--------|
E|--------|--------|--------|--------|--------|--------|--------|--------|--------|


E|-----------------------|--------------------------------------|------------------------------|
B|-----------------------|-----------------------10-------------|--------------12---14---10-10-|
G|-------14---16---16-16-|-13-13--13-13---13--------------------|------------------------------|
D|-----------------------|--------------------11-11-11-9--11-9--|-9----9-----------------------|
A|-----------------------|--------------------------------------|------------------------------|
E|-----------------------|-----------------------------7--9--7--|-7----7-----------------------|


E|-------------------------------------------|------------------------|--------|------------------------------------|
B|-10-12109--9--9---7------------------------|-------7----9----9--9---|--------|------------------------------------|
G|---------------------9--9---9--9--9----7-9-|-7--------------------9-|-9------|-9---9-------6--6----6--6--6----4-6-|
D|-------------------------------------------|------------------------|--------|------------------------------------|
A|-------------------------------------------|------------------------|--------|------------------------------------|
E|-------------------------------------------|------------------------|--------|------------------------------------|


E|---------------------------|--------|--------|--------|--------|--------|
B|---------------------------|--------|--------|--------|--------|--------|
G|-4--4----4--1--1-----------|--------|--------|--------|--------|--------|
D|------------------2--------|--------|--------|--------|--------|--------|
A|---------------------2-----|--------|--------|--------|--------|--------|
E|---------------------------|--------|--------|--------|--------|--------|





Track 5: 6-string Bass

C|--------|--------|--------|--------|--------|--------|--------|--------|--------|
G|--------|--------|--------|--------|--------|--------|--------|--------|--------|
D|--------|--------|--------|--------|--------|--------|--------|--------|--------|
A|--------|--------|--------|--------|--------|--------|--------|--------|--------|
E|--------|--------|--------|--------|--------|--------|--------|--------|--------|
B|--------|--------|--------|--------|--------|--------|--------|--------|--------|


C|--------|--------|--------|--------|--------|--------|--------|--------|--------|
G|--------|--------|--------|--------|--------|--------|--------|--------|--------|
D|--------|--------|--------|--------|--------|--------|--------|--------|--------|
A|--------|--------|--------|--------|--------|--------|--------|--------|-3------|
E|--------|--------|--------|--------|--------|--------|--------|-3------|--------|
B|--------|--------|--------|--------|--------|--------|--------|--------|--------|


C|--------|--------|--------|--------|--------|-------------|--------|--------|------------------|
G|--------|--------|--------|--------|--------|-------------|--------|--------|------------------|
D|--------|--------|--------|--------|--------|-------------|--------|--------|------------------|
A|-0------|--------|--------|--------|-2------|-------5-----|-3------|-2------|-3------3---------|
E|--------|-0------|-1------|-0------|--------|-0-----------|--------|--------|------------------|
B|--------|--------|--------|--------|--------|-------------|--------|--------|---------------1--|


C|--------|--------|--------|--------|--------|--------|--------|--------|--------|
G|--------|--------|--------|--------|--------|--------|--------|--------|--------|
D|--------|--------|--------|--------|--------|--------|--------|--------|--------|
A|--------|--------|-5------|-5------|--------|--------|--------|--------|--------|
E|-1------|-0------|--------|--------|-3------|--------|--------|--------|--------|
B|--------|--------|--------|--------|--------|--------|--------|--------|--------|


C|--------|--------|--------|--------|--------|--------|--------|--------|--------|
G|--------|--------|--------|--------|--------|--------|--------|--------|--------|
D|--------|--------|--------|--------|--------|--------|--------|--------|--------|
A|--------|--------|--------|--------|--------|--------|--------|-2------|-3------|
E|--------|--------|--------|--------|--------|--------|-3------|--------|--------|
B|--------|--------|--------|--------|--------|--------|--------|--------|--------|


C|--------|--------|--------|-----------------|--------|--------|--------|--------|
G|--------|--------|--------|-----------------|--------|--------|--------|--------|
D|--------|--------|--------|-----------------|--------|--------|--------|--------|
A|-7------|--------|--------|-0-----0----0----|--------|--------|-0------|--------|
E|--------|-7------|-0------|-----------------|-0------|-1------|--------|-1------|
B|--------|--------|--------|-----------------|--------|--------|--------|--------|


C|--------|--------|--------|--------|--------|--------|--------|--------|--------|
G|--------|--------|--------|--------|--------|--------|--------|--------|--------|
D|--------|--------|--------|--------|--------|--------|--------|--------|--------|
A|--------|-0------|--------|-2------|-7------|-5------|-4------|-2------|--------|
E|-0------|--------|-2------|--------|--------|--------|--------|--------|-0------|
B|--------|--------|--------|--------|--------|--------|--------|--------|--------|


C|--------|--------|--------|--------|--------|
G|--------|--------|--------|--------|--------|
D|--------|--------|--------|-0------|--------|
A|-3------|-2------|-0------|--------|--------|
E|--------|--------|--------|--------|-0------|
B|--------|--------|--------|--------|--------|