Menu:

 

Search:

 

dream theater - erotomania:

 



Title: Erotomania
Artist: 
Album: Awake
Author: John Petrucci, Mike Portnoy, John Myung and Kevin Moore


Track 1: Keyboard

E|-7------7---3---|------6------|-6---5--------7-----|------7---3--------6----|-------6---5-------7---|
B|-7------7---3---|------4------|-4---5--------7-----|------7---3--------4----|-------4---5-------7---|
G|-9------9---5---|------6------|-6---7--------9-----|------9---5--------6----|-------6---7-------9---|
D|----------------|-------------|--------------------|------------------------|-----------------------|
A|----------------|-------------|--------------------|------------------------|-----------------------|
E|----------------|-------------|--------------------|------------------------|-----------------------|


E|-----------7---3-------|-----6------6---|-5--------7------|-----7---3--------6-----|
B|-----------7---3-------|-----4------4---|-5--------7------|-----7---3--------4-----|
G|-----------9---5-------|-----6------6---|-7--------9------|-----9---5--------6-----|
D|-----------------------|----------------|-----------------|------------------------|
A|-----------------------|----------------|-----------------|------------------------|
E|-----------------------|----------------|-----------------|------------------------|


E|-------6---5-------7----|-------7---3--------|-6------6---5---|------7------|-7---3--------6-----|
B|-------4---5-------7----|-------7---3--------|-4------4---5---|------7------|-7---3--------4-----|
G|-------6---7-------9----|-------9---5--------|-6------6---7---|------9------|-9---5--------6-----|
D|------------------------|--------------------|----------------|-------------|--------------------|
A|------------------------|--------------------|----------------|-------------|--------------------|
E|------------------------|--------------------|----------------|-------------|--------------------|


E|------6---5-------0-------0---|-----0----0---0------------|------------------------------|
B|------4---5-------0-------0---|-----0----0---0--------3---|-----3-------3----3-----------|
G|------6---7-------------------|-----------------------2---|-----2-------5----5-----------|
D|------------------------------|---------------------------|-------------5----5-----------|
A|------------------------------|---------------------------|------------------------------|
E|------------------------------|---------------------------|------------------------------|


E|-----0-------0-------0----0---|-0-----------------12--12--|--------------18--18---14--|
B|-----0-------0-------0----0---|-0-----------------15--15--|--------------16--16-------|
G|------------------------------|---------------------------|---------------------------|
D|------------------------------|---------------------------|---------------------------|
A|------------------------------|---------------------------|---------------------------|
E|------------------------------|---------------------------|---------------------------|


E|-13--11---0-------0-------0---|-----0---0--------------------|-----------------------0---|
B|----------0-------0-------0---|-----0---0--------3-------3---|-----3----3------------0---|
G|------------------------------|------------------2-------2---|-----5----5----------------|
D|------------------------------|------------------------------|-----5----5----------------|
A|------------------------------|------------------------------|---------------------------|
E|------------------------------|------------------------------|---------------------------|


E|-----0-------0----0---0-------|--------------12--12-------|---------18--18---14--14--13--11--|
B|-----0-------0----0---0-------|--------------15--15-------|---------16--16-------------------|
G|------------------------------|---------------------------|----------------------------------|
D|------------------------------|---------------------------|----------------------------------|
A|------------------------------|---------------------------|----------------------------------|
E|------------------------------|---------------------------|----------------------------------|


E|-----7------7---|-3--------6------|-----6---5--------7-----|-------7---3--------6---|
B|-----7------7---|-3--------4------|-----4---5--------7-----|-------7---3--------4---|
G|-----9------9---|-5--------6------|-----6---7--------9-----|-------9---5--------6---|
D|----------------|-----------------|------------------------|------------------------|
A|----------------|-----------------|------------------------|------------------------|
E|----------------|-----------------|------------------------|------------------------|


E|-----------6---5-------|-7------7---3---|------6------|-6---5--------7-----|------7---3--------6----|
B|-----------4---5-------|-7------7---3---|------4------|-4---5--------7-----|------7---3--------4----|
G|-----------6---7-------|-9------9---5---|------6------|-6---7--------9-----|------9---5--------6----|
D|-----------------------|----------------|-------------|--------------------|------------------------|
A|-----------------------|----------------|-------------|--------------------|------------------------|
E|-----------------------|----------------|-------------|--------------------|------------------------|


E|-------6---5-------0---|-----0-------0----0---0-------|------------------------------|
B|-------4---5-------0---|-----0-------0----0---0-------|-----3-------3-------3----3---|
G|-------6---7-----------|------------------------------|-----2-------2-------5----5---|
D|-----------------------|------------------------------|---------------------5----5---|
A|-----------------------|------------------------------|------------------------------|
E|-----------------------|------------------------------|------------------------------|


E|----------0-------0-------0---|-----0---0-----------------|-12--12------------18--18--|
B|----------0-------0-------0---|-----0---0-----------------|-15--15------------16--16--|
G|------------------------------|---------------------------|---------------------------|
D|------------------------------|---------------------------|---------------------------|
A|------------------------------|---------------------------|---------------------------|
E|------------------------------|---------------------------|---------------------------|


E|-----14--13--11---0-------0---|-----0----0---0------------|------------------------------|
B|------------------0-------0---|-----0----0---0--------3---|-----3-------3----3-----------|
G|------------------------------|-----------------------2---|-----2-------5----5-----------|
D|------------------------------|---------------------------|-------------5----5-----------|
A|------------------------------|---------------------------|------------------------------|
E|------------------------------|---------------------------|------------------------------|


E|-----0-------0-------0----0---|-0-----------------12--12--|--------------18--18---14--14-|
B|-----0-------0-------0----0---|-0-----------------15--15--|--------------16--16----------|
G|------------------------------|---------------------------|------------------------------|
D|------------------------------|---------------------------|------------------------------|
A|------------------------------|---------------------------|------------------------------|
E|------------------------------|---------------------------|------------------------------|


E|----13--11---3---2---5---2---5---|-4---5---4---5---0---5---3---2---|-5---2---5---4---5---4-------5---|
B|---------------------------------|---------------------------------|-------------------------3-------|
G|---------------------------------|---------------------------------|---------------------------------|
D|---------------------------------|---------------------------------|---------------------------------|
A|---------------------------------|---------------------------------|---------------------------------|
E|---------------------------------|---------------------------------|---------------------------------|


E|-8---7---5-------5---4---5---4---|-5-------5---8---7---5-------5---|-4---5---4-------5-------3----|
B|-------------7-------------------|-----5-------------------7-------|-------------5----------------|
G|---------------------------------|---------------------------------|------------------------------|
D|---------------------------------|---------------------------------|------------------------------|
A|---------------------------------|---------------------------------|------------------------------|
E|---------------------------------|---------------------------------|------------------------------|


E|-----2--------1--------0---|-----3--------2--------1---|-----0-------3--------2----|
B|---------------------------|---------------------------|---------------------------|
G|---------------------------|---------------------------|---------------------------|
D|---------------------------|---------------------------|---------------------------|
A|---------------------------|---------------------------|---------------------------|
E|---------------------------|---------------------------|---------------------------|


E|-----1--------0-------3----|-----2--------1-------0---3---|-2---5---2---5---4---5---4---5---|
B|---------------------------|------------------------------|---------------------------------|
G|---------------------------|------------------------------|---------------------------------|
D|---------------------------|------------------------------|---------------------------------|
A|---------------------------|------------------------------|---------------------------------|
E|---------------------------|------------------------------|---------------------------------|


E|-----5---3---2---5---2---5---4---|-5---4-------5---8---7---5-------|-5---4---5---4---5-------5---8---|
B|-5-------------------------------|---------5-------------------7---|---------------------5-----------|
G|---------------------------------|---------------------------------|---------------------------------|
D|---------------------------------|---------------------------------|---------------------------------|
A|---------------------------------|---------------------------------|---------------------------------|
E|---------------------------------|---------------------------------|---------------------------------|


E|-7---5-------5---4---5---4-------|-5---15----14--14---13--|-----13-----|-----7------7---|
B|---------7-------------------5---|-----15----14--14---13--|-----13-----|-----7------7---|
G|---------------------------------|------------------------|------------|-----9------9---|
D|---------------------------------|------------------------|------------|----------------|
A|---------------------------------|------------------------|------------|----------------|
E|---------------------------------|------------------------|------------|----------------|


E|-3--------6------|-----6---5--------7-----|-------7---3--------6---|-----------6---5-------|
B|-3--------4------|-----4---5--------7-----|-------7---3--------4---|-----------4---5-------|
G|-5--------6------|-----6---7--------9-----|-------9---5--------6---|-----------6---7-------|
D|-----------------|------------------------|------------------------|-----------------------|
A|-----------------|------------------------|------------------------|-----------------------|
E|-----------------|------------------------|------------------------|-----------------------|


E|-----7------7---|-3--------6------|-----6---5--------7-----|-------7---3--------6---|
B|-----7------7---|-3--------4------|-----4---5--------7-----|-------7---3--------4---|
G|-----9------9---|-5--------6------|-----6---7--------9-----|-------9---5--------6---|
D|----------------|-----------------|------------------------|------------------------|
A|----------------|-----------------|------------------------|------------------------|
E|----------------|-----------------|------------------------|------------------------|


E|-----------6---5-------|--------|--------|--------|--------|-----16-16-----18-18---------18-18-----|
B|-----------4---5-------|--------|--------|--------|--------|---------------------------------------|
G|-----------6---7-------|--------|--------|--------|--------|---------------------------------------|
D|-----------------------|--------|--------|--------|--------|---------------------------------------|
A|-----------------------|--------|--------|--------|--------|---------------------------------------|
E|-----------------------|--------|--------|--------|--------|---------------------------------------|


E|--------------19-19-----23-23------------12-|-161412-------------12--12--12--12--12--|
B|-1412---------------------------------14----|--------16-12-------12--12--12--12--12--|
G|-----15-13-11-------------------------------|--------------15-11---------------------|
D|--------------------------------------------|--------------------14--14--14--14--14--|
A|--------------------------------------------|----------------------------------------|
E|--------------------------------------------|----------------------------------------|


E|-14--14--14--14--16--16--16--16--|-16--18------18------16----16-18-16----|-16-18-16----14-19-18----14-19-18-------19-16-14-|
B|-14--14--14--14--17--17--17--17--|-17--19------19---------16----------16-|----------16----------14----------14-17----------|
G|-----------------13--13--13--13--|-13--15------15------------------------|-------------------------------------------------|
D|-16--16--16--16------------------|---------------------------------------|-------------------------------------------------|
A|---------------------------------|---------------------------------------|-------------------------------------------------|
E|---------------------------------|---------------------------------------|-------------------------------------------------|


E|----19-16-14----19-16-------21-16-------21-16----|----19-16-------19-18----14-19-18----14-19-16----|
B|-17----------17-------14-17-------14-17-------12-|-17-------12-17-------14----------14----------16-|
G|-------------------------------------------------|-------------------------------------------------|
D|-------------------------------------------------|-------------------------------------------------|
A|-------------------------------------------------|-------------------------------------------------|
E|-------------------------------------------------|-------------------------------------------------|


E|----19-16-------19-18----14-21-18----14-18-18--|------------------------------|------------------------------|
B|-17-------16-17-------14----------14-----------|-----16---14-14--12--14-------|-12--16---14-14--12--14-------|
G|-----------------------------------------------|--------------------------13--|--------------------------13--|
D|-----------------------------------------------|------------------------------|------------------------------|
A|-----------------------------------------------|------------------------------|------------------------------|
E|-----------------------------------------------|------------------------------|------------------------------|


E|------------------------------|------------------------------|------------------------------|
B|-----12-----------------------|-----12---14-14--12-----------|-----16---14-14--12--14-------|
G|-15-------15-15--13--15---13--|-15------------------15---13--|-15-----------------------13--|
D|------------------------------|------------------------------|------------------------------|
A|------------------------------|------------------------------|------------------------------|
E|------------------------------|------------------------------|------------------------------|


E|-----14---12-12---------------|-----12-----------------------|-12--12--------------------------|
B|-12--------------16--14-------|-12-------16--14--14--12------|---------16--16--14--14--12--16--|
G|--------------------------13--|--------------------------13--|---------------------------------|
D|------------------------------|------------------------------|---------------------------------|
A|------------------------------|------------------------------|---------------------------------|
E|------------------------------|------------------------------|---------------------------------|


E|------------------------|--------------16--16--12--12-12-|-12--12----------|-----------------9---9---12---|
B|-14--16----17--17--19---|-21--21--17-----------12--12-12-|-12--12----16----|-14--14----------11--11-------|
G|------------------------|--------------------------------|-----13----------|-11--11------11--11--11-------|
D|-----13----14--14--16---|-18--18--18---------------------|-----------13----|-11--11--11------11--11--14---|
A|------------------------|--------------------------------|-----------------|------------------------------|
E|------------------------|--------------------------------|-----------------|------------------------------|


E|---------------------------|---------------------------|---------------------------|
B|-16--16--16---17--17--19---|-19--19--17----17------17--|-----17---16--14--14--14---|
G|---------------------------|-16--16--16----16------16--|---------------------------|
D|-13--13--13---14--14--16---|-18--18--18----18--18--18--|-----14---13--11--11--11---|
A|---------------------------|---------------------------|---------------------------|
E|---------------------------|---------------------------|---------------------------|


E|------------------------------|---------------------|-----12----12--12---12--|-----12----12--12---12--|
B|-16--16---17--17--17--16--16--|-16--16----16--16----|-----14----14--14---14--|-----12----12--12---12--|
G|-16--16---16--16--16--16--16--|-16--16----16--16----|-----13----13--13---13--|-----13----13--13---13--|
D|-13--13---14--14--14--13--13--|-13--16----16--16----|------------------------|------------------------|
A|------------------------------|---------------------|------------------------|------------------------|
E|------------------------------|---------------------|------------------------|------------------------|


E|-----14----14--14---14--|---------------------|-----12----12--12---12--|-----12----14----|
B|-----14----14--14---14--|-----16----16--16----|-----14----14--14---14--|-----12----14----|
G|-----15----15--15---15--|-----16----16--16----|-----13----13--13---13--|-----13----15----|
D|------------------------|-----16----16--16----|------------------------|-----------------|
A|------------------------|---------------------|------------------------|-----------------|
E|------------------------|---------------------|------------------------|-----------------|


E|------------|-----14----12--12--14------|-12--12--13---13--13--12---|-12-12-12----------------|
B|-----16-----|---------------------------|---------------------------|-------------15-15-15----|
G|-----16-----|---------------------------|---------------------------|-------------------------|
D|-----16-----|---------------------------|---------------------------|-------------------------|
A|------------|---------------------------|---------------------------|-------------------------|
E|------------|---------------------------|---------------------------|-------------------------|


E|-12--12--10---12--12----|-10--10----14----|-12--12-----------------|-13--13--12---12-12-12----|
B|-13--13--12---13--13----|-12--12----------|---------15-------------|--------------------------|
G|------------------------|-----------------|--------------15--15----|--------------------------|
D|------------------------|-----------------|------------------------|--------------------------|
A|------------------------|-----------------|------------------------|--------------------------|
E|------------------------|-----------------|------------------------|--------------------------|


E|-------------12--12--10---|-12--12----10--10----|-----10----10----------|-----------15--17--19--|
B|-15-15-15----13--13--12---|-13--13----12--12----|-----12----12--13--15--|-16--16----------------|
G|--------------------------|---------------------|-----------------------|-----------------------|
D|--------------------------|---------------------|-----------------------|-----------------------|
A|--------------------------|---------------------|-----------------------|-----------------------|
E|--------------------------|---------------------|-----------------------|-----------------------|


E|-17--17----19-17-15----|-14--14--15--14--12--12-------|----------------|------------------------|
B|-----------------------|-------------------------15---|-13--12-----12--|------12----------------|
G|-----------------------|------------------------------|----------------|----------14--12--------|
D|-----------------------|------------------------------|----------------|------------------13----|
A|-----------------------|------------------------------|----------------|------------------------|
E|-----------------------|------------------------------|----------------|------------------------|


E|---------------------|---------------------------|---------------------|---------------------------|
B|---------------------|---------------------------|---------------------|---------------------------|
G|-------------12--14--|-15--14----14--15--14--12--|------12-------------|-----12--------------------|
D|-------13------------|---------------------------|---------------15----|-15------15--14----14--12--|
A|---------------------|---------------------------|-----------15--------|---------------------------|
E|---------------------|---------------------------|---------------------|---------------------------|


E|-----8---7---5-------5---4---5---|-4---5-------5---8---7---5-------|-5---4---5---4-------5---8---7---|
B|-----------------7---------------|---------5-------------------7---|-----------------5---------------|
G|---------------------------------|---------------------------------|---------------------------------|
D|---------------------------------|---------------------------------|---------------------------------|
A|-15------------------------------|---------------------------------|---------------------------------|
E|---------------------------------|---------------------------------|---------------------------------|


E|-5-------5---4---5---4---5-------|-5---8---7---5-------5---10------|-----8---------------------|
B|-----7-----------------------5---|-----------------7---------------|-10------12----------12----|
G|---------------------------------|-----------------------------9---|-------------12------11----|
D|---------------------------------|---------------------------------|-----------------12--------|
A|---------------------------------|---------------------------------|---------------------------|
E|---------------------------------|---------------------------------|---------------------------|


E|---------------------|-----------------|--------|----------------|-----------------|
B|-------10---10-------|-----------------|--------|------------12--|-----------10----|
G|-------11---11---12--|-----------13----|--------|------------10--|-----------11----|
D|-----------------14--|-----------14----|--------|------------12--|-----------12----|
A|-----------------14--|-----------17----|--------|----------------|-----------------|
E|---------------------|-----------------|--------|----------------|-----------------|


E|--------------------|------------------------|---------------------|-----------------|
B|-----12-------------|------------------------|---------------------|-----------------|
G|-----13----14-------|----------13---12-------|----------14---14----|-----11----14----|
D|-----14----15-------|----------12---14-------|----------16---16----|-----12----14----|
A|-----------17-------|----------14---15-------|----------15---17----|-----14----15----|
E|--------------------|------------------------|---------------19----|-----16----------|


E|-----------------|-----------------|-----------------|-----------12---10--|------------------------|
B|-----------------|-----12----12----|-----14----15----|-----12----12---12--|-----12-----------------|
G|-----14----14----|-----12----12----|-----14----14----|-----12----13---13--|-----13---13------------|
D|-----14----15----|-----12----14----|-----14----15----|-----12-------------|-----12---14---14-------|
A|-----16----17----|-----------------|-----------------|--------------------|----------14---14-------|
E|-----------------|-----------------|-----------------|--------------------|---------------15-------|


E|----------------------------------|----------------------------------------------------|
B|----------------------------------|----------------------------------------------------|
G|----------------------------------|------------------------------------------------12--|
D|----------------------------------|----------------------------12-14-15--15--14-15-----|
A|----------------------------------|----------12-------12-13-15-------------------------|
E|----------10-13-13--13--12-13-15--|-12-13-15----13-15----------------------------------|


E|----------------------------------------------|---------------------|--------------|
B|----------------------------------------------|--------------15-----|-------15-----|
G|----14-12-------------------------------------|--------------15-----|-------15-----|
D|----------14---------------------12-----------|-------1214---17-----|-------17-----|
A|-------------15------------121315-----12------|-121315--------------|--------------|
E|-----------------1513121315-------------151315|---------------------|--------------|


E|-------18-----|-------18-----|-------17-----|-------19-----|-------20-----|-------19-----|
B|-------18-----|-------18-----|-------18-----|-------20-----|-------22-----|-------20-----|
G|-------19-----|-------19-----|-------19-----|-------19-----|-------21-----|-------21-----|
D|--------------|--------------|--------------|--------------|--------------|--------------|
A|--------------|--------------|--------------|--------------|--------------|--------------|
E|--------------|--------------|--------------|--------------|--------------|--------------|


E|-------20-----|-----22-----19--|------------19--|------------19--|------------19--|
B|-------22-----|-----22-----21--|------------21--|------------21--|------------21--|
G|-------22-----|-----22-----21--|------------21--|------------21--|------------21--|
D|--------------|----------------|----------------|----------------|----------------|
A|--------------|----------------|----------------|----------------|----------------|
E|--------------|----------------|----------------|----------------|----------------|


E|------------------|-------------------------------------------------|-------------------------------------------------|
B|------------------|-------------------------------------------------|-------------------------------------------------|
G|------------------|-------------------------------------------------|-------------------------------------------------|
D|------------------|-------------------------------------------------|-------------------------------------------------|
A|------------------|-------14-17-16----------------14-15-16-17-18----|-------------------17-16-------12-12-------------|
E|------------14-15-|-16-17----------15-14-15-16-17----------------14-|-12-14-15-16-17-19-------15-14-------14-12-14-15-|


E|-------------------------------------------------|-------------------------------------------------|
B|-------------------------------------------------|-------------------------------------------------|
G|-------------------------------------------------|-------------------------------------------------|
D|-------------------------------------------------|-------------------------------------------------|
A|-------14-17-16----------------14-15-16-17-18----|-------------------17-16-------12-12-------------|
E|-16-17----------15-14-15-16-17----------------14-|-12-14-15-16-17-19-------15-14-------14-12-14-14-|


E|-------------------------------7-----|-------7---3--------6---|-----------6---5-------|
B|-------------------------------7-----|-------7---3--------4---|-----------4---5-------|
G|-------------------------------9-----|-------9---5--------6---|-----------6---7-------|
D|-------------------------------------|------------------------|-----------------------|
A|-------------------------------------|------------------------|-----------------------|
E|-14-14-14-14-14-14-14-14----14-------|------------------------|-----------------------|


E|-----7------7---|-3--------6------|-----6---5-------7-----|------7---3--------6----|
B|-----7------7---|-3--------4------|-----4---5-------7-----|------7---3--------4----|
G|-----9------9---|-5--------6------|-----6---7-------9-----|------9---5--------6----|
D|----------------|-----------------|-----------------------|------------------------|
A|----------------|-----------------|-----------------------|------------------------|
E|----------------|-----------------|-----------------------|------------------------|


E|-------6---5--------|-7------7---3---|------6------|-6---5-------0-------0-------0---|
B|-------4---5--------|-7------7---3---|------4------|-4---5-------0-------0-------0---|
G|-------6---7--------|-9------9---5---|------6------|-6---7---------------------------|
D|--------------------|----------------|-------------|---------------------------------|
A|--------------------|----------------|-------------|---------------------------------|
E|--------------------|----------------|-------------|---------------------------------|


E|-----0---0--------------------|-----------------------0---|-----0-------0----0---0-------|
B|-----0---0--------3-------3---|-----3----3------------0---|-----0-------0----0---0-------|
G|------------------2-------2---|-----5----5----------------|------------------------------|
D|------------------------------|-----5----5----------------|------------------------------|
A|------------------------------|---------------------------|------------------------------|
E|------------------------------|---------------------------|------------------------------|


E|--------------12--12-------|---------18--18---14--13--11--|-----0-------0-------0----0---|
B|--------------15--15-------|---------16--16---------------|-----0-------0-------0----0---|
G|---------------------------|------------------------------|------------------------------|
D|---------------------------|------------------------------|------------------------------|
A|---------------------------|------------------------------|------------------------------|
E|---------------------------|------------------------------|------------------------------|


E|-0----------------------------|------------------0-------0---|-----0----0---0------------|
B|-0--------3-------3-------3---|-----3------------0-------0---|-----0----0---0------------|
G|----------2-------2-------5---|-----5------------------------|---------------------------|
D|--------------------------5---|-----5------------------------|---------------------------|
A|------------------------------|------------------------------|---------------------------|
E|------------------------------|------------------------------|---------------------------|


E|---------12--12---12---18--|-------18--------|--------|--------|--------|
B|---------15--15---15---20--|-------20--------|--------|--------|--------|
G|-----------------------22--|-------22--------|--------|--------|--------|
D|---------------------------|-----------------|--------|--------|--------|
A|---------------------------|-----------------|--------|--------|--------|
E|---------------------------|-----------------|--------|--------|--------|





Track 2: Rhythm Guitar

E|--------|--------|--------|--------|----------------|---------------------------------|
B|--------|--------|--------|--------|----------------|---------------------------------|
G|--------|--------|--------|--------|----------------|---------------------------------|
D|--------|--------|--------|--------|----------------|---------------------------------|
A|--------|--------|--------|--------|----------------|-------------2---5---4-----------|
E|--------|--------|--------|--------|------------2---|-3---4---5---------------3-------|


E|---------------------------------|---------------------------------|---------------------------------|
B|---------------------------------|---------------------------------|---------------------------------|
G|---------------------------------|---------------------------------|---------------------------------|
D|---------------------------------|---------------------------------|---------------------------------|
A|---------------------4---7---6---|-----------------------------2---|-5---4---------------------------|
E|-0---4---5---6---7---------------|-5-------0---2---3---4---5-------|---------3-------0---4---5---6---|


E|---------------------------------|---------------------------------|---------------------------------|
B|---------------------------------|---------------------------------|---------------------------------|
G|---------------------------------|---------------------------------|---------------------------------|
D|---------------------------------|---------------------------------|---------------------------------|
A|-----4---7---6-------------------|---------2---5---4---------------|-----------------4---7---6-------|
E|-7---------------5---0---2---3---|-4---5---------------3-------0---|-4---5---6---7---------------5---|


E|---------------------------------|---------------------------------|---------------------------------|
B|---------------------------------|---------------------------------|---------------------------------|
G|---------------------------------|---------------------------------|---------------------------------|
D|---------------------------------|---------------------------------|---------------------------------|
A|-------------------------2---5---|-4-------------------------------|-4---7---6-----------7-------7---|
E|-----0---2---3---4---5-----------|-----3-------0---4---5---6---7---|-------------5---0-------0-------|


E|------------------------------|---------------------------------|------------------------------|
B|------------------------------|---------------------------------|------------------------------|
G|------------------------------|---------------------------------|------------------------------|
D|-9---8--------6---------------|-----7---6-------5---------------|-----------------9---8--------|
A|----------7---------------4---|-5-------------------3-----------|-----7-------7------------7---|
E|----------------------0-------|-------------3-----------1-------|-0-------0--------------------|


E|---------------------------------|---------------------------------|------------------------------|
B|---------------------------------|---------------------------------|------------------------------|
G|---------------------------------|---------------------------------|------------------------------|
D|-6-----------3---5---7-----------|-----1---3---5-------------------|----------------------9---8---|
A|-------------------------5---5---|-5---------------3---3---3---4---|-3---2----7-------7-----------|
E|---------0-----------------------|---------------------------------|--------------0---------------|


E|---------------------------------|---------------------------------|------------------------------|
B|---------------------------------|---------------------------------|------------------------------|
G|---------------------------------|---------------------------------|------------------------------|
D|---------6-------------------7---|-6-------5-----------------------|---------9---8--------6-------|
A|-----7---------------4---5-------|-------------3---------------7---|-----7------------7-----------|
E|-----------------0---------------|-----3-----------1-------0-------|-0----------------------------|


E|---------------------------------|-------------------------------------|---------------------------------|
B|---------------------------------|-------------------------------------|---------------------------------|
G|---------------------------------|-------------------------------------|---------------------------------|
D|-----3---5---7---------------1---|-3---5-------------------------------|---------------------------------|
A|-----------------5---5---5-------|---------3---3---3---4---4---3---2---|---------------------2---5---4---|
E|-0-------------------------------|-------------------------------------|-----2---3---4---5---------------|


E|---------------------------------|---------------------------------|---------------------------------|
B|---------------------------------|---------------------------------|---------------------------------|
G|---------------------------------|---------------------------------|---------------------------------|
D|---------------------------------|---------------------------------|---------------------------------|
A|-----------------------------4---|-7---6---------------------------|-----2---5---4-------------------|
E|-3-------0---4---5---6---7-------|---------5-------0---2---3---4---|-5---------------3-------0---4---|


E|---------------------------------|---------------------------------|---------------------------------|
B|---------------------------------|---------------------------------|---------------------------------|
G|---------------------------------|---------------------------------|---------------------------------|
D|---------------------------------|---------------------------------|---------------------------------|
A|-------------4---7---6-----------|-----------------2---5---4-------|-------------------------4---7---|
E|-5---6---7---------------5---0---|-2---3---4---5---------------3---|-----0---4---5---6---7-----------|


E|---------------------------------|---------------------------------|---------------------------------|
B|---------------------------------|---------------------------------|---------------------------------|
G|---------------------------------|---------------------------------|---------------------------------|
D|---------------------------------|---------------------------------|---------------------------------|
A|-6-------------------------------|-2---5---4-----------------------|---------4---7---6-----------7---|
E|-----5-------0---2---3---4---5---|-------------3-------0---4---5---|-6---7---------------5---0-------|


E|------------------------------|---------------------------------|---------------------------------|
B|------------------------------|---------------------------------|---------------------------------|
G|------------------------------|---------------------------------|---------------------------------|
D|---------9---8--------6-------|-------------7---6-------5-------|-------------------------9---8---|
A|-----7------------7-----------|-----4---5-------------------3---|-------------7-------7-----------|
E|-0----------------------------|-0-------------------3-----------|-1-------0-------0---------------|


E|---------------------------------|---------------------------------|------------------------------|
B|---------------------------------|---------------------------------|------------------------------|
G|---------------------------------|---------------------------------|------------------------------|
D|---------6-----------3---5---7---|-------------1---3---5-----------|------------------------------|
A|-----7---------------------------|-5---5---5---------------3---3---|-3---4---3---2----7-------7---|
E|-----------------0---------------|---------------------------------|----------------------0-------|


E|------------------------------|---------------------------------|------------------------------|
B|------------------------------|---------------------------------|------------------------------|
G|------------------------------|---------------------------------|------------------------------|
D|-9---8--------6---------------|-----7---6-------5---------------|-----------------9---8--------|
A|----------7---------------4---|-5-------------------3-----------|-----7-------7------------7---|
E|----------------------0-------|-------------3-----------1-------|-0-------0--------------------|


E|---------------------------------|------------------------------------|---------------------------|
B|---------------------------------|------------------------------------|---------------------------|
G|---------------------------------|------------------------------------|---------------------------|
D|-6-----------3---5---7-----------|-----1---3---5----------------------|---------------------------|
A|-------------------------5---5---|-5---------------3---3---3---4---4--|----3---2------------------|
E|---------0-----------------------|------------------------------------|-------------3-----2---2---|


E|---------------------|------------------------|---------------------|------------------------|
B|---------------------|------------------------|---------------------|------------------------|
G|---------------------|------------------------|---------------------|------------------------|
D|---------------------|------------------------|---------------------|------------------------|
A|---------------------|------------------------|---------------------|------------------------|
E|-----1-----0----3----|-----2---2----1----0----|-3-----2---2----1----|-----0----3-----2---2---|


E|------------------------|------------------------------|------------------------------|
B|------------------------|------------------------------|------------------------------|
G|------------------------|------------------------------|------------------2-------5---|
D|--------------------5---|---------4--------3-------2---|------5-----------------------|
A|------------------------|------------------------------|------------------------------|
E|-----1----0----0--------|------------------------------|------------------------------|


E|------------------------------|---------------------------|---------------------------------|
B|------------------------------|---------------------------|---------------------------------|
G|-----4------------------------|---------------------------|---------2-------5-------4-------|
D|--------------5-----------4---|------3-------2--------5---|---------------------------------|
A|------------------------------|---------------------------|-----------------------------5---|
E|---------0--------------------|---------------------------|-----------------------------3---|


E|---------------------------------|---------------------------------|---------------------------------|
B|---------------------------------|---------------------------------|---------------------------------|
G|---------------------------------|---------------------------------|-----------------12--12--12--11--|
D|---------------------------------|---------------------------------|-----------------12--12--12--11--|
A|-5---5---4---4---4---3---3---3---|-2---2---5---5---5---4---4---4---|-3---3---2---2---10--10--10--9---|
E|-3---3---2---2---2---1---1---1---|-0---0---3---3---3---2---2---2---|-1---1---0---0---10--10--10--9---|


E|---------------------------------|---------------------------------|------------------------|
B|---------------------------------|---------------------------------|------------------------|
G|-11--11--10--10--10--9---9---12--|-12--12--11--11--11--10--10--9---|-9---7-----6---6----5---|
D|-11--11--10--10--10--9---9---12--|-12--12--11--11--11--10--10--9---|-9---7-----6---6----5---|
A|-9---9---8---8---8---7---7---10--|-10--10--9---9---9---8---8---7---|-7---5-----4---4----3---|
E|-9---9---8---8---8---7---7---10--|-10--10--9---9---9---8---8---7---|-7---3-----2---2----1---|


E|------------|---------------------------------|---------------------------------|
B|------------|---------------------------------|---------------------------------|
G|-----5------|---------------------------------|---------------------------------|
D|-----5------|---------------------------------|---------------------------------|
A|-----3------|---------------------2---5---4---|-----------------------------4---|
E|-----1------|-----2---3---4---5---------------|-3-------0---4---5---6---7-------|


E|---------------------------------|---------------------------------|---------------------------------|
B|---------------------------------|---------------------------------|---------------------------------|
G|---------------------------------|---------------------------------|---------------------------------|
D|---------------------------------|---------------------------------|---------------------------------|
A|-7---6---------------------------|-----2---5---4-------------------|-------------4---7---6-----------|
E|---------5-------0---2---3---4---|-5---------------3-------0---4---|-5---6---7---------------5-------|


E|---------------------------------|---------------------------------|---------------------------------|
B|---------------------------------|---------------------------------|---------------------------------|
G|---------------------------------|---------------------------------|---------------------------------|
D|---------------------------------|---------------------------------|---------------------------------|
A|---------------------2---5---4---|-----------------------------4---|-7---6---------------------------|
E|-0---2---3---4---5---------------|-3-------0---4---5---6---7-------|---------5-------0---2---3---4---|


E|---------------------------------|---------------------------------|-----------------------------------------------|
B|---------------------------------|---------------------------------|-----------------------------------------------|
G|---------------------------------|---------------------------------|-----------------------------------------------|
D|---------------------------------|---------------------------------|-----------------------------------------------|
A|-----2---5---4-------------------|-------------4---7---6-----------|-----------------2--2-----------------4--4--6--|
E|-5---------------3-------0---4---|-5---6---7---------------5-------|-0---4--4--2--4--------4--2--4--4--4-----------|


E|-------------------------------------------------|-------------------------------------------------|
B|-------------------------------------------------|-------------------------------------------------|
G|-------------------------------------------------|-------------------------------------------------|
D|----4--------------------------------------------|-------------------------------------------------|
A|-6--------------2--2--2-----------------2--2--4--|-4-----------------2--2-----------------4--4--6--|
E|-------4--4--2-----------4--2--4--4--4-----------|----2--4--4--2--4--------4--2--4--4--4-----------|


E|-------------------------------------------------|-------------------------------------------------|
B|-------------------------------------------------|-------------------------------------------------|
G|-------------------------------------------------|-------------------------------------------------|
D|----4--------------------------------------------|-------------------------------------------------|
A|-6--------------2--2--2-----------------2--2--4--|-4-----------------1--1-----------2--1--1-----1--|
E|-------4--4--2-----------4--2--4--4--4-----------|----2--4--4--2--4--------4--2--4-----------4-----|


E|----------------------------------------------------|----------------------------------------------|
B|----------------------------------------------------|----------------------------------------------|
G|----------------------------------------------------|-1--------------------------------------------|
D|----------------------------1--1-----------1-----2--|----4--2--1-----------------------------------|
A|-4--2--1--------2--2--1--2--------4--2--4-----4-----|-------------2--1-----------------------------|
E|----------4--2--------------------------------------|-------------------2--0---0--2--4---4--2--0---|


E|------------------------------------------|---------------------------------------------|
B|------------------------------------------|---------------------------------------------|
G|------------------------------------------|---------------------------------------------|
D|------------------------------------------|---------------------------------------------|
A|----------------------7------7--6-4-------|---------------------------------------------|
E|-2--4--6---4---2---4------4---------7--6--|-4--7--6---7---9---7---6---2---4--2--4-------|


E|-----------------------------------------|---------------------------------------|
B|-----------------------------------------|---------------------------------------|
G|-----------------------------------------|---------------------------------1--1--|
D|-----------------------------------------|---------------------------------2--2--|
A|-----------------------------------------|---------------------------------2--2--|
E|-4--2--4--4--6---6--4--6-------7--6--7---|-----7--6--7---9---7--6--4---2---0--0--|


E|-------------------------------------------------|--------------------------------------------------|
B|-------------------------------------------------|--------------------------------------------------|
G|-1--1--1-----------------------------------------|--------------------------------------------------|
D|-2--2--2-----------------------4-----------------|--------------------------------8-----------------|
A|-2--2--2-----------------------4-----------7-----|-------4-7----------------------9-----------------|
E|-0--0--0--0--0--4--2--2--2--2--2--2--2--6--4--4--|-4--4--4---4--4--7--6--6--6--6--6--6--6--2--4--2--|


E|----------------|--------|--------|--------|--------|--------|--------|--------|
B|----------------|--------|--------|--------|--------|--------|--------|--------|
G|----------------|--------|--------|--------|--------|--------|--------|--------|
D|----------------|--------|--------|--------|--------|--------|--------|--------|
A|----------------|--------|--------|--------|--------|--------|--------|--------|
E|-4--------------|--------|--------|--------|--------|--------|--------|--------|


E|-----------------------------|-------------------------------|-------------------------------|
B|-----------------------------|-------------------------------|-------------------------------|
G|-----------4---4-------4--4--|-------------4---4-------4--4--|-------------4---4-------4--4--|
D|-----------------------------|-------------------------------|-------------------------------|
A|-----2-------------2---------|-2--2--2-------------2---------|-2--2--2-------------2---------|
E|-----------------------------|-------------------------------|-------------------------------|


E|-------------------------------|-----------------------------|-------------------------------|
B|-------------------------------|-----------------------------|-------------------------------|
G|-------------6---6---4---4--4--|-4---------4---4-------4--4--|-------------4---4-------4--4--|
D|-------------4---4---2---2--2--|-4---------------------------|-------------------------------|
A|-2--2--2-----------------------|-2---2-------------2---------|-2--2--2-------------2---------|
E|-------------------------------|-----------------------------|-------------------------------|


E|-------------------------------|-----------------------------|------------|------------|
B|-------------0---0-------0--0--|-----------0---0-------0--0--|------------|-----5------|
G|-------------4---4-------4--4--|-----------4---4-------4--4--|-----4------|-----6------|
D|-------------------------------|-----------------------------|-----4------|-----6------|
A|-2--2--2-------------2---------|-2---2-------------2---------|-2---2------|-----4------|
E|-------------------------------|-----------------------------|------------|------------|


E|------------|------------|------------|------------|-----------------|------------|
B|------------|------------|------------|-----5------|-----------------|------------|
G|------------|------------|-----4------|-----6------|-----------------|-----4------|
D|-----2------|-----4------|-----4------|-----6------|-----2-----4-----|-----4------|
A|-----2------|-----4------|-----2------|-----4------|-----2-----4-----|-----2------|
E|-----0------|-----2------|------------|------------|-----0-----2-----|------------|


E|-----2-----0---0-------------|---------------------------------------|------------------2--2-------------|
B|-----3-------------3---------|---------------------------------------|-8--8--8----8--0--3--3--7----------|
G|-----2-------------2---------|-9---9---10--10-10-10-10-10--9---------|-7--7--7----7--0--2--2--7----------|
D|-----0-------------0---------|-8---8---8---8--8--8--8--8---8---------|-5--5--5----5--0--------7----------|
A|-----0-----0---0-------0--0--|---------------------------------0--0--|-5--5--5----5----------------0--0--|
E|-----------------------------|---------------------------------------|-----------------------------------|


E|--------------------------------|-----------------|-----------------------------------|
B|-10--10--8---------5---5---5----|-0---0-----3-----|-------------------------1---------|
G|-9---9---7---------5---5---5----|-0---0-----2-----|-----------------3---3---3---------|
D|-7---7---5---0--0--5---5---5----|-0---0-----0-----|-----------------3---3-------------|
A|--------------------------------|-----------0-----|-------------0---1---1-------1--1--|
E|--------------------------------|-----------------|-----2---3-------------------------|


E|-------------------------------|------------------------------------|------------------------|
B|-6---6---5---------8--8--8-----|-7--7--7----------10--10--8---------|-5---5---5----0---0-----|
G|-5---5---5---------7--7--7-----|-7--7--7----------9---9---7---------|-5---5---5----0---0-----|
D|-3---3---5---------5--5--5-----|-7--7--7----------7---7---5---0--0--|-5---5---5----0---0-----|
A|-3---3-------0--0--------------|------------0--0--------------------|------------------------|
E|-------------------------------|------------------------------------|------------------------|


E|-----------------------|---------------------|-1--1--1-----0--0--0-----|----------------------------------|
B|-----0-----0-----------|-4---4----4----4-----|-1--1--1-----1--1--1-----|----------------------1---3-------|
G|-----0-----0---0-------|-3---3----3----3-----|-0--0--0-----0--0--0-----|-----------0----------------------|
D|-----0-----0---0---0---|-1---1----1----1-----|-3--3--3-----2--2--2-----|----------------------------------|
A|-----------------------|---------------------|-3--3--3-----------3-----|-----0--1-------1--3--------------|
E|-----3-----3-------3---|---------------------|-------------------------|------------------------------1---|


E|-----3----------|---------------------------|---------------------|------------------------------|
B|-----3----------|---------------------------|---------------------|-------------1---1------------|
G|-0---4----------|---------------------3-----|-------3-------------|----------------------0-------|
D|-----5----------|---------------------5-----|-------5-------------|-----0---3----------------0---|
A|-----5----------|---------------------6-----|-------6-------------|------------------------------|
E|-----3------3---|-3---3---3---3---3---3-----|-------3-----3---3---|-3----------------------------|


E|------------------------------|------------------0---0----|---------------------------------|
B|-----1---1--------------------|------------------1---1----|---------------------------------|
G|--------------0---0---0---0---|-0----------------0---0----|---------------------------------|
D|-2----------------------------|---------------------------|---------------------------------|
A|------------------0---1-------|------0---1---3------------|---------------------------------|
E|------------------------------|----------------------1----|-1---3---3---3---2---2---2---1---|


E|---------------------------------|---------------------------------|---------------------------------|
B|---------------------------------|---------------------------------|---------------------------------|
G|---------------------------------|---------------------------------|---------------------------------|
D|---------------------------------|---------------------------------|---------------------------------|
A|---------------------------------|---------------------------------|---------------------------------|
E|-1---1---0---0---3---3---3---2---|-2---2---1---1---0---0---3---3---|-3---2---2---2---1---1---1---0---|


E|---------------------------------|---------------------------------|---------------------------------|
B|---------------------------------|---------------------------------|---------------------------------|
G|-------------------------7-------|---------------------------------|---------------------------------|
D|---------------------7-----------|-7---10--9-------------------10--|-9---------------------------5---|
A|-----10--10--10--9-----------8---|-------------10--7-------9-------|-----12--10--9---10--12--9-------|
E|-0-------------------------------|---------------------11----------|---------------------------------|


E|---------------------------------|---------------------------------------------------------|
B|---------7---8-------------------|---------------------------------------------------------|
G|-----------------9---7-------4---|-5--4--5--4---------7--5--4---------------5--4--2--------|
D|-----9-------------------6-------|-------------7---------------7--5--4---------------5--4--|
A|-7-------------------------------|-----------------3---------------------0-----------------|
E|---------------------------------|---------------------------------------------------------|


E|----------------------------------------------------------|-------------------------------------------------------------------------|
B|----------------------------------------------------------|-------------------------------------------------------------------------|
G|----------------------------------------------------------|----------------------------2--4-----2--4--5-----------4--------4--5-----|
D|-0------9--7--5---------------7--5--4---------------5--3--|-2-----------------2--3--5--------5-----------4--5--7-----5--7--------7--|
A|-----------------9--7--5---------------7--5--3------------|----5--3--2--3--5--------------------------------------------------------|
E|-----0---------------------3---------------------1--------|-------------------------------------------------------------------------|


E|-----------------------------------------------------------------|---------------------------------------------------|
B|-----------------------------------------------------------------|---------------------------------------------------|
G|-4--5--7-----------6--------6--7-----6--7--9--10-14-14-10-1110---|------------------------------------12-12-9--9-----|
D|----------6--7--9-----7--9--------9---------------------------12-|-12-9--109--------------------------------------10-|
A|-----------------------------------------------------------------|-----------11-11-8--9-8----------------------------|
E|-----------------------------------------------------------------|------------------------10-10-7--8-----------------|


E|-------------------------------------------------|-------------------------------------------------|
B|-------------------------------------------------|-------------------------------------------------|
G|----------------------------------10-10-7--7-----|----------------------------------9--9--5--5-----|
D|-10-7--7--------------------------------------9--|-9--6--6--------------------------------------7--|
A|----------9--9--5--5-----------------------------|----------8--8--5--5-----------------------------|
E|----------------------8--8--5--7-----------------|----------------------7--7--4--5-----------------|


E|-------------------------------------------|-----------------------|-----------------------|
B|-------------------------------------------|-----------------------|-----------------------|
G|-------------------------------------------|-----------------------|-----------------------|
D|-7--5--5-------------------------------2---|-3---5-----5-----------|-----------3---0---7---|
A|----------7--7--4--4---------------5-------|-----------------------|-2---4-----------------|
E|----------------------5--5--3--1-----------|---------------0---4---|-----------------------|


E|-------------------------------------------------------|---------------------------------------------------------------------------|
B|-------------------------------------------------------|---------------------------------------------------------------------------|
G|--------------------------9-109-----9--------4-5-4-----|-4-------------------------------------------------------------------------|
D|-9---5--9--5--0---10--12---------12----10-12--------7--|----5--7--2-3-2-----2------------------------------------------------------|
A|-------------------------------------------------------|-----------------5-----3--5--2-3-2-----2-----------------------------------|
E|-------------------------------------------------------|------------------------------------5-----3--5--0--0--0--1--1--1--3--3--3--|


E|---------------------------------------|-------------------------------------------------|
B|---------------------------------------|-------------------------------------------------|
G|----------3----------------------------|----------------------------------7-------7--9---|
D|----------3----------------------------|-------------------------7--8--10------10--------|
A|----------1------------------------7---|-------7--8-----7--8--10-------------------------|
E|-5--5--5-------6--8--10--10--8--10-----|-8--10-------10----------------------------------|


E|----------------------------------------------|----------------------------------------------------------|
B|----------------------------------------------|----------------------------------------------------------|
G|----10-9-------------------10121415-----------|---1214151717---1210---------14-15-17-15-14---------------|
D|----------10-----1412101214-----------15141214|-15-----------------14-15-17----------------17-15-14-15-17|
A|-------------10-------------------------------|----------------------------------------------------------|
E|----------------------------------------------|----------------------------------------------------------|


E|--------------------------------------------------------------|--------------------------------------------------------------|
B|---13-15-17-15-13---------------------------------------------|---------------------------------8--10-11-10-8----------------|
G|---------------------------------14-15-17-15-14---------------|---14-15-17-15-14-------7--9--10----------------10-9--7--9--10|
D|------------------17-15-14-15-17------------------------------|------------------15-14---------------------------------------|
A|------------------------------------------------17-15-13-15-17|--------------------------------------------------------------|
E|--------------------------------------------------------------|--------------------------------------------------------------|


E|---6--8--10-8--6----------------------------------------------|--------------------------------------------------------------|
B|---------------------------------8--10-11-10-8----------------|---8--10-11-10-8--------------------8--10-8-------------------|
G|------------------10-9--7--9--10------------------------------|------------------9--7-----7--9--10----------10---------------|
D|------------------------------------------------10-8--7--8--10|------------------------10------------------------------------|
A|--------------------------------------------------------------|--------------------------------------------------------------|
E|--------------------------------------------------------------|------------------------------------------------12-10-8--10-12|


E|--------------------------------------------------------------|---12-13-15-13-12----------------10-12-13-12-10---------------|
B|------------------------------------------------15-13-12-13-15|------------------13-12-10-12-13------------------------------|
G|---------------------------------9--10-12-10-9----------------|--------------------------------------------------------------|
D|------------------12-10-9--10-12------------------------------|------------------------------------------------10-9--7--9--10|
A|---8--10-12-10-8----------------------------------------------|--------------------------------------------------------------|
E|--------------------------------------------------------------|--------------------------------------------------------------|


E|---------------------------------8--10-12-10-8----------------|---------------------------------5--7--8--7--5----------------|
B|------------------12-10-9--10-12------------------------------|------------------8--6--5--6--8-------------------------------|
G|---7--9--10-9--7----------------------------------------------|---5--7--9--7--5----------------------------------------------|
D|------------------------------------------------9--7--6--7--9-|------------------------------------------------5--3--2--3--5-|
A|--------------------------------------------------------------|--------------------------------------------------------------|
E|--------------------------------------------------------------|--------------------------------------------------------------|


E|-------------------------------------------------------------|----------------|------------0---|
B|---------------------------------------------------------0---|------------0---|------------0---|
G|---2--4--5--4--2-----------------------------------------1---|------------1---|----------------|
D|---------------------------------------------------------2---|------------2---|----------------|
A|---------------------------------2--3--5--3--2-----------2---|------------2---|----------------|
E|------------------5--3--1--3--5-----------------5--3--1--0---|------------0---|----------------|


E|------------0---|----------------------|-----------------------------------------------------|
B|------------0---|----------------------|-----------------------------------------------------|
G|----------------|----------------------|-----------------------------------------------------|
D|----------------|----------------------|--------------------------------------------2--------|
A|----------------|----------------4--4--|----4-4-4--4----------4--4-----4-4-4--2--4-----4--4--|
E|----------------|-----------13---2--2--|----2-2-2--2--2-2-2-2-2--2-----2-2-2-----------2--2--|


E|-----------------------------------------------------|-----------------------------------------------------|
B|-----------------------------------------------------|-----------------------------------------------------|
G|-----------------------------------------------------|-----------------------------------------------------|
D|-----------------------------------7--7--------------|--------------------------------------------2--------|
A|----4-4-4--4----------4--4-----4-4-7--7--4--2--4--4--|----4-4-4--4----------4--4-----4-4-4--2--4-----4--4--|
E|----2-2-2--2--2-2-2-2-2--2-----2-2-5--5--2--0--2--2--|----2-2-2--2--2-2-2-2-2--2-----2-2-2-----------2--2--|


E|-----------------------------------------------------|-----------------------------------------------|
B|-----------------------------------------------------|-----------------------------------------------|
G|-----------------------------------------------------|-----------------------------------------------|
D|-----------------------------------7--7--------------|-----------------------------------------------|
A|----4-4-4--4----------4--4-----4-4-7--7--4--2--4--4--|----4-4-4--4----------4--4-----4-4-------------|
E|----2-2-2--2--2-2-2-2-2--2-----2-2-5--5--2--0--2--2--|----2-2-2--2--2-2-2-2-2--2-----2-2-2---3---4---|


E|---------------------------------|---------------------------------|---------------------------------|
B|---------------------------------|---------------------------------|---------------------------------|
G|---------------------------------|---------------------------------|---------------------------------|
D|---------------------------------|---------------------------------|---------------------------------|
A|-----2---5---4-------------------|-------------4---7---6-----------|---------------------2---5---4---|
E|-5---------------3---3---0---4---|-5---6---7---------------5---5---|-0---2---3---4---5---------------|


E|---------------------------------|---------------------------------|---------------------------------|
B|---------------------------------|---------------------------------|---------------------------------|
G|---------------------------------|---------------------------------|---------------------------------|
D|---------------------------------|---------------------------------|---------------------------------|
A|-----------------------------4---|-7---6---------------------------|-2---5---4-----------------------|
E|-3---3---0---4---5---6---7-------|---------5---0---2---3---4---5---|-------------3---3---0---4---5---|


E|---------------------------------|---------------------------------|---------------------------------|
B|---------------------------------|---------------------------------|---------------------------------|
G|---------------------------------|---------------------------------|---------------------------------|
D|---------------------------------|---------------------------------|---------------------------------|
A|---------4---7---6---------------|-----------------2---5---4-------|-------------------------4---7---|
E|-6---7---------------5---5---0---|-2---3---4---5---------------3---|-3---0---4---5---6---7-----------|


E|---------------------------------|---------------------------------|---------------------------------|
B|---------------------------------|---------------------------------|---------------------------------|
G|---------------------------------|---------------------------------|---------------------------------|
D|-------------------------9---8---|---------6-------------------7---|-6-------5-----------------------|
A|-6-----------7-------7-----------|-----7---------------4---5-------|-------------3---------------7---|
E|-----5---0-------0---------------|-----------------0---------------|-----3-----------1-------0-------|


E|------------------------------|---------------------------------|---------------------------------|
B|------------------------------|---------------------------------|---------------------------------|
G|------------------------------|---------------------------------|---------------------------------|
D|---------9---8--------6-------|-----3---5---7---------------1---|-3---5---------------------------|
A|-----7------------7-----------|-----------------5---5---5-------|---------3---3---3---4---3---2---|
E|-0----------------------------|-0-------------------------------|---------------------------------|


E|------------------------------|---------------------------------|---------------------------------|
B|------------------------------|---------------------------------|---------------------------------|
G|------------------------------|---------------------------------|---------------------------------|
D|-----------------9---8--------|-6-------------------7---6-------|-5-------------------------------|
A|-----7-------7------------7---|-------------4---5---------------|-----3---------------7-------7---|
E|---------0--------------------|---------0-------------------3---|---------1-------0-------0-------|


E|------------------------------|---------------------------------------|----------------3-3-------------|
B|------------------------------|---------------------------------------|-----------6--------------------|
G|------------------------------|---------------------------------------|--------3-----3---------7--7-7--|
D|-9---8--------6-----------3---|-5---7---------------1---3-----5-------|-----5--------------------------|
A|----------7-------------------|---------5---5---5-----------------3---|--------------------------------|
E|----------------------0-------|---------------------------------------|--------------------------------|


E|---------------------------------------------------|--------|--------|
B|---------------------------------------------------|--------|--------|
G|-5-------------------------------------------------|--------|--------|
D|----5--3-7--7-7--7-7--7-7--5--3--------------------|--------|--------|
A|--------------------------------5-3-5-3---3--------|--------|--------|
E|---------------------------------------------------|--------|--------|





Track 3: Lead Guitar

E|--------|--------|--------|--------|--------|--------|--------|--------|--------|
B|--------|--------|--------|--------|--------|--------|--------|--------|--------|
G|--------|--------|--------|--------|--------|--------|--------|--------|--------|
D|--------|--------|--------|--------|--------|--------|--------|--------|--------|
A|--------|--------|--------|--------|--------|--------|--------|--------|--------|
E|--------|--------|--------|--------|--------|--------|--------|--------|--------|


E|--------|--------|--------|--------|--------|--------|--------|--------|--------|
B|--------|--------|--------|--------|--------|--------|--------|--------|--------|
G|--------|--------|--------|--------|--------|--------|--------|--------|--------|
D|--------|--------|--------|--------|--------|--------|--------|--------|--------|
A|--------|--------|--------|--------|--------|--------|--------|--------|--------|
E|--------|--------|--------|--------|--------|--------|--------|--------|--------|


E|--------|--------|--------|--------|--------|--------|-----10--12--13--------------8---|
B|--------|--------|--------|--------|--------|--------|-----------------10--10--10------|
G|--------|--------|--------|--------|--------|--------|---------------------------------|
D|--------|--------|--------|--------|--------|--------|---------------------------------|
A|--------|--------|--------|--------|--------|--------|---------------------------------|
E|--------|--------|--------|--------|--------|--------|---------------------------------|


E|-10--11------------------------------|--------|--------|--------|--------|--------|
B|---------8---8---8---11--11--10--7---|--------|--------|--------|--------|--------|
G|---------------------11--11--10--8---|--------|--------|--------|--------|--------|
D|-------------------------------------|--------|--------|--------|--------|--------|
A|-------------------------------------|--------|--------|--------|--------|--------|
E|-------------------------------------|--------|--------|--------|--------|--------|


E|--------|--------|--------|--------|--------|--------|--------|--------|--------|
B|--------|--------|--------|--------|--------|--------|--------|--------|--------|
G|--------|--------|--------|--------|--------|--------|--------|--------|--------|
D|--------|--------|--------|--------|--------|--------|--------|--------|--------|
A|--------|--------|--------|--------|--------|--------|--------|--------|--------|
E|--------|--------|--------|--------|--------|--------|--------|--------|--------|


E|--------|--------|--------|--------|--------|-------10--12--13----------|-----8---10--11---------------------|
B|--------|--------|--------|--------|--------|-------------------10--10--|-10--------------8---8---8---11--11-|
G|--------|--------|--------|--------|--------|---------------------------|-----------------------------11--11-|
D|--------|--------|--------|--------|--------|---------------------------|------------------------------------|
A|--------|--------|--------|--------|--------|---------------------------|------------------------------------|
E|--------|--------|--------|--------|--------|---------------------------|------------------------------------|


E|-----------------------|--------|--------|--------|--------|--------|--------|--------|
B|----10--7--------------|--------|--------|--------|--------|--------|--------|--------|
G|----10--8--------------|--------|--------|--------|--------|--------|--------|--------|
D|-----------------------|--------|--------|--------|--------|--------|--------|--------|
A|-----------------------|--------|--------|--------|--------|--------|--------|--------|
E|-----------------------|--------|--------|--------|--------|--------|--------|--------|


E|--------|--------|--------|--------|--------|--------|--------|--------|--------|
B|--------|--------|--------|--------|--------|--------|--------|--------|--------|
G|--------|--------|--------|--------|--------|--------|--------|--------|--------|
D|--------|--------|--------|--------|--------|--------|--------|--------|--------|
A|--------|--------|--------|--------|--------|--------|--------|--------|--------|
E|--------|--------|--------|--------|--------|--------|--------|--------|--------|


E|--------|-----14---------|------------------------|----------------------------------------|
B|--------|-----17-----15--|----------14----14--13--|----------------------14-15-17----------|
G|--------|------------17--|----------16------------|-15--13--14--13-14-16-----------14--16--|
D|--------|----------------|------------------------|----------------------------------------|
A|--------|----------------|------------------------|----------------------------------------|
E|--------|----------------|------------------------|----------------------------------------|


E|-----19-14-19-14-------15----19-19-|-14-14---------------------------------------|
B|-17--------------19-14-------------|-------19-19-14-14---------------------------|
G|-----------------------------------|-------------------16-16-11-11---------------|
D|-----------------------------------|-------------------------------16-16-----14--|
A|-----------------------------------|-------------------------------------12------|
E|-----------------------------------|---------------------------------------------|


E|---------------------------|-------------14------------------|---------------17-14-15-16-15-14-|
B|---------------12--15--14--|-------------------------16--14--|-17--16--------------------------|
G|-16------------------------|-12--0---12----------15----------|---------14----------------------|
D|---------------------------|-----------------13--------------|---------------------------------|
A|-----14----12--------------|---------------------------------|---------------------------------|
E|---------------------------|---------------------------------|---------------------------------|


E|---------------------------------------------------|----------------19-20-21-19----|
B|-17-16-15-14----14-15-171514-------------------19--|-------19-18-21----------------|
G|-------------16--------------16-15-14--------------|-------------------------------|
D|--------------------------------------18-17-16-----|-------------------------------|
A|---------------------------------------------------|-------------------------------|
E|---------------------------------------------------|-------------------------------|


E|-19-------------|--------|--------|--------|--------|--------|--------|--------|
B|----------------|--------|--------|--------|--------|--------|--------|--------|
G|----------------|--------|--------|--------|--------|--------|--------|--------|
D|----------------|--------|--------|--------|--------|--------|--------|--------|
A|----------------|--------|--------|--------|--------|--------|--------|--------|
E|----------------|--------|--------|--------|--------|--------|--------|--------|


E|--------|--------|--------|--------|--------|--------|--------|--------|--------|
B|--------|--------|--------|--------|--------|--------|--------|--------|--------|
G|--------|--------|--------|--------|--------|--------|--------|--------|--------|
D|--------|--------|--------|--------|--------|--------|--------|--------|--------|
A|--------|--------|--------|--------|--------|--------|--------|--------|--------|
E|--------|--------|--------|--------|--------|--------|--------|--------|--------|


E|--------|--------|--------|--------|--------|--------|--------|--------|--------|
B|--------|--------|--------|--------|--------|--------|--------|--------|--------|
G|--------|--------|--------|--------|--------|--------|--------|--------|--------|
D|--------|--------|--------|--------|--------|--------|--------|--------|--------|
A|--------|--------|--------|--------|--------|--------|--------|--------|--------|
E|--------|--------|--------|--------|--------|--------|--------|--------|--------|


E|--------|--------|--------|---------------------------|-------------------------------------|
B|--------|--------|--------|-----4-----5-------7-------|-5--7--7---5---5---5---5-------------|
G|--------|--------|--------|---------------------------|-4--6--6---4---4---4---4-------------|
D|--------|--------|--------|---------------------------|----------------------------5--6--8--|
A|--------|--------|--------|---------------------------|-------------------------------------|
E|--------|--------|--------|---------------------------|-------------------------------------|


E|-----------------------------|----------------------------------------------|-----------------------------|
B|----------------4----5-4-0---|----------------9-----7--9--7-----------------|-----------------------------|
G|-4--6--8--8------------------|-6---6----------6-----6-----------6-----------|-------4---4-----8---9---11--|
D|-----------------------------|----------6--8-----8-----------8-----8--6--4--|-------4---4-----------------|
A|-----------------------------|----------------------------------------------|-4--6------------------------|
E|-----------------------------|----------------------------------------------|-----------------------------|


E|--------------------------------|-------1112-----------------------------|---------------16-19-16----------------------------------------|
B|-----------------12--12---------|-111214-------14--14--14--12141211------|-12--12--16-19----------19-16-------19-16----------------------|
G|-9---9--------------------11-13-|----------------------------------13-11-|------------------------------18-16-------18-16-------18-16----|
D|---------9---11-----------------|----------------------------------------|------------------------------------------------18-16-------18-|
A|--------------------------------|----------------------------------------|---------------------------------------------------------------|
E|--------------------------------|----------------------------------------|---------------------------------------------------------------|


E|-----------------|------------|------------|--------|--------|--------|--------|
B|-----------------|------------|------------|--------|--------|--------|--------|
G|-----------------|------------|------------|--------|--------|--------|--------|
D|-16--------------|------------|------------|--------|--------|--------|--------|
A|----18-16-17-----|-----17-----|-----17-----|--------|--------|--------|--------|
E|-----------------|------------|------------|--------|--------|--------|--------|


E|--------|--------|--------|--------|--------|--------|--------|--------|--------|
B|--------|--------|--------|--------|--------|--------|--------|--------|--------|
G|--------|--------|--------|--------|--------|--------|--------|--------|--------|
D|--------|--------|--------|--------|--------|--------|--------|--------|--------|
A|--------|--------|--------|--------|--------|--------|--------|--------|--------|
E|--------|--------|--------|--------|--------|--------|--------|--------|--------|


E|--------|--------|--------|--------|--------|----------------|---------------------------------|
B|--------|--------|--------|--------|--------|----------------|---------------------------------|
G|--------|--------|--------|--------|--------|----------------|---------------------------------|
D|--------|--------|--------|--------|--------|----------------|---------------------------------|
A|--------|--------|--------|--------|--------|----------------|---------------------------------|
E|--------|--------|--------|--------|--------|--------3---3---|-3---2---2---2---1---1---1---0---|


E|---------------------------------|---------------------------|--------|--------|
B|---------------------------------|---------------------------|--------|--------|
G|---------------------------------|---------------------------|--------|--------|
D|---------------------------------|---------------------------|--------|--------|
A|-------------------------5-------|-0---3---2-----------------|--------|--------|
E|-0---3---3---3---2---5-------1---|-------------3---0---------|--------|--------|


E|--------|--------|--------|--------|--------|--------|--------|--------|--------|
B|--------|--------|--------|--------|--------|--------|--------|--------|--------|
G|--------|--------|--------|--------|--------|--------|--------|--------|--------|
D|--------|--------|--------|--------|--------|--------|--------|--------|--------|
A|--------|--------|--------|--------|--------|--------|--------|--------|--------|
E|--------|--------|--------|--------|--------|--------|--------|--------|--------|


E|--------|--------|--------|----------------------------------|---------------------------------------------3---|
B|--------|--------|--------|----------------------------------|----------------------------3--5--6----5--6------|
G|--------|--------|--------|----------------------------------|----------2--------2--4--5-----------------------|
D|--------|--------|--------|-------------2--3---3---2--3--5---|-2--3--5-----3--5--------------------------------|
A|--------|--------|--------|----------5-----------------------|-------------------------------------------------|
E|--------|--------|--------|----------------------------------|-------------------------------------------------|


E|----5--3--------------------------------------|-----------------------|--------|
B|----------5-----------------------------------|-----------------------|--------|
G|-------------5---------------3-5-7------------|----5-7-9--------------|--------|
D|-----------------7-5-3-5-5-7----------8-7-5-7-|-8---------------------|--------|
A|----------------------------------------------|-----------------------|--------|
E|----------------------------------------------|-----------------------|--------|


E|--------|--------|--------|--------|--------|--------|--------|--------|--------|
B|--------|--------|--------|--------|--------|--------|--------|--------|--------|
G|--------|--------|--------|--------|--------|--------|--------|--------|--------|
D|--------|--------|--------|--------|--------|--------|--------|--------|--------|
A|--------|--------|--------|--------|--------|--------|--------|--------|--------|
E|--------|--------|--------|--------|--------|--------|--------|--------|--------|


E|--------|--------|--------|--------|--------|--------|--------|--------|--------|
B|--------|--------|--------|--------|--------|--------|--------|--------|--------|
G|--------|--------|--------|--------|--------|--------|--------|--------|--------|
D|--------|--------|--------|--------|--------|--------|--------|--------|--------|
A|--------|--------|--------|--------|--------|--------|--------|--------|--------|
E|--------|--------|--------|--------|--------|--------|--------|--------|--------|


E|--------|--------|--------|--------|--------|--------|--------|--------|--------|
B|--------|--------|--------|--------|--------|--------|--------|--------|--------|
G|--------|--------|--------|--------|--------|--------|--------|--------|--------|
D|--------|--------|--------|--------|--------|--------|--------|--------|--------|
A|--------|--------|--------|--------|--------|--------|--------|--------|--------|
E|--------|--------|--------|--------|--------|--------|--------|--------|--------|


E|--------|--------|--------|--------|--------|--------|--------|--------|------------10--|
B|--------|--------|--------|--------|--------|--------|--------|--------|----------------|
G|--------|--------|--------|--------|--------|--------|--------|--------|----------------|
D|--------|--------|--------|--------|--------|--------|--------|--------|----------------|
A|--------|--------|--------|--------|--------|--------|--------|--------|----------------|
E|--------|--------|--------|--------|--------|--------|--------|--------|----------------|


E|-12--13--------------8---10--11------|-----10106-6---------------------------------------3-----|
B|---------10--10--10--------------8---|-------------10106-6---------------8--6-4-3--6-4-3----6--|
G|-------------------------------------|---------------------7-7-3-3-----------------------------|
D|-------------------------------------|-----------------------------7--3------------------------|
A|-------------------------------------|---------------------------------------------------3-----|
E|-------------------------------------|---------------------------------------------------------|


E|----------------3---3---------------3---------|-------6--6-----------------------6--6--------------------|
B|-------------6--3------6------------3---------|----6--------6-----------------6--------6-----------------|
G|-3--------1-----3---------3---------3---------|-8--------------8-----------8--------------8--------------|
D|----5--5---------------------5--5----------8--|-------------------8-----8-----------------------8--------|
A|----------------------------------------------|----------------------------------------------6--------10-|
E|----------------------------------------8-----|----------------------8-----------------------------8-----|


E|----------8--8--------------------8--------------8---|
B|-------11-------11-------------10----10----------10--|
G|----------------------------8-----------8--------8---|
D|-8-----------------------8-----------------8-----8---|
A|----10----------------10-----------------------------|
E|-------------------8--------------------------8------|





Track 4: Clean Tone

E|--------|--------|--------|--------|--------|--------|--------|--------|--------|
B|--------|--------|--------|--------|--------|--------|--------|--------|--------|
G|--------|--------|--------|--------|--------|--------|--------|--------|--------|
D|--------|--------|--------|--------|--------|--------|--------|--------|--------|
A|--------|--------|--------|--------|--------|--------|--------|--------|--------|
E|--------|--------|--------|--------|--------|--------|--------|--------|--------|


E|--------|--------|--------|--------|--------|--------|--------|--------|--------|
B|--------|--------|--------|--------|--------|--------|--------|--------|--------|
G|--------|--------|--------|--------|--------|--------|--------|--------|--------|
D|--------|--------|--------|--------|--------|--------|--------|--------|--------|
A|--------|--------|--------|--------|--------|--------|--------|--------|--------|
E|--------|--------|--------|--------|--------|--------|--------|--------|--------|


E|--------|--------|--------|--------|--------|--------|--------|--------|--------|
B|--------|--------|--------|--------|--------|--------|--------|--------|--------|
G|--------|--------|--------|--------|--------|--------|--------|--------|--------|
D|--------|--------|--------|--------|--------|--------|--------|--------|--------|
A|--------|--------|--------|--------|--------|--------|--------|--------|--------|
E|--------|--------|--------|--------|--------|--------|--------|--------|--------|


E|--------|--------|--------|--------|--------|--------|--------|--------|--------|
B|--------|--------|--------|--------|--------|--------|--------|--------|--------|
G|--------|--------|--------|--------|--------|--------|--------|--------|--------|
D|--------|--------|--------|--------|--------|--------|--------|--------|--------|
A|--------|--------|--------|--------|--------|--------|--------|--------|--------|
E|--------|--------|--------|--------|--------|--------|--------|--------|--------|


E|--------|--------|--------|--------|--------|--------|--------|--------|--------|
B|--------|--------|--------|--------|--------|--------|--------|--------|--------|
G|--------|--------|--------|--------|--------|--------|--------|--------|--------|
D|--------|--------|--------|--------|--------|--------|--------|--------|--------|
A|--------|--------|--------|--------|--------|--------|--------|--------|--------|
E|--------|--------|--------|--------|--------|--------|--------|--------|--------|


E|--------|--------|--------|--------|--------|--------|--------|--------|--------|
B|--------|--------|--------|--------|--------|--------|--------|--------|--------|
G|--------|--------|--------|--------|--------|--------|--------|--------|--------|
D|--------|--------|--------|--------|--------|--------|--------|--------|--------|
A|--------|--------|--------|--------|--------|--------|--------|--------|--------|
E|--------|--------|--------|--------|--------|--------|--------|--------|--------|


E|--------|--------|--------|--------|--------|--------|--------|--------|--------|
B|--------|--------|--------|--------|--------|--------|--------|--------|--------|
G|--------|--------|--------|--------|--------|--------|--------|--------|--------|
D|--------|--------|--------|--------|--------|--------|--------|--------|--------|
A|--------|--------|--------|--------|--------|--------|--------|--------|--------|
E|--------|--------|--------|--------|--------|--------|--------|--------|--------|


E|--------|--------|--------|--------|--------|--------|--------|--------|--------|
B|--------|--------|--------|--------|--------|--------|--------|--------|--------|
G|--------|--------|--------|--------|--------|--------|--------|--------|--------|
D|--------|--------|--------|--------|--------|--------|--------|--------|--------|
A|--------|--------|--------|--------|--------|--------|--------|--------|--------|
E|--------|--------|--------|--------|--------|--------|--------|--------|--------|


E|--------|--------|--------|--------|--------|--------|--------|--------|--------|
B|--------|--------|--------|--------|--------|--------|--------|--------|--------|
G|--------|--------|--------|--------|--------|--------|--------|--------|--------|
D|--------|--------|--------|--------|--------|--------|--------|--------|--------|
A|--------|--------|--------|--------|--------|--------|--------|--------|--------|
E|--------|--------|--------|--------|--------|--------|--------|--------|--------|


E|--------|--------|--------|--------|--------|--------|--------|-----------------------------------------------|
B|--------|--------|--------|--------|--------|--------|--------|-----------------------------------------------|
G|--------|--------|--------|--------|--------|--------|--------|-----8-----8--9--8-----8--9--6-----6--8--6-----|
D|--------|--------|--------|--------|--------|--------|--------|--------6-----------6-----------4-----------4--|
A|--------|--------|--------|--------|--------|--------|--------|-----------------------------------------------|
E|--------|--------|--------|--------|--------|--------|--------|-----------------------------------------------|


E|-------------------------------------------------|-------------------------------------------------|
B|-------------------------------------------------|-------------------------------------------------|
G|-6--8--4-----4--6--4-----4--8--6-----6--8--6-----|-6--8--9-----9--11-9-----9--11-------------------|
D|----------4-----------4-----------6-----------6--|----------9-----------9--------11----11-13-11----|
A|-------------------------------------------------|----------------------------------9-----------9--|
E|-------------------------------------------------|-------------------------------------------------|


E|-------------------------------------------------|----------------0-----------------------0--------|
B|-------------------------------------------------|-------------0-----0-----------------0-----0-----|
G|-------------------------------------------------|----------8-----------8-----8-----11----------11-|
D|-11-13-9-----9--11-9-----9--11-8-----8--9--8-----|-8--9--6-----------------6-----8-----------------|
A|----------7-----------7-----------9-----------9--|-------------------------------------------------|
E|-------------------------------------------------|-------------------------------------------------|


E|----------------0--0--------------------0--------|----------------0-----------------------0--------|
B|-------------0-----------------------0-----0-----|-------------0-----0-----------------0-----0-----|
G|----11----11----------11----11----13----------13-|----13----4-----------4-----4-----3-----------3--|
D|-8-----9-----------------9-----11----------------|-11----2-----------------2-----4-----------------|
A|-------------------------------------------------|-------------------------------------------------|
E|-------------------------------------------------|-------------------------------------------------|


E|--------------0-----------------------0--------|------------------|--------|--------|
B|-----------0-----0-----------------0-----0-----|------------------|--------|--------|
G|--------9-----------9-----9-----11----------11-|----11------------|--------|--------|
D|-4---6-----------------6-----8-----------------|-8----------------|--------|--------|
A|-----------------------------------------------|------------------|--------|--------|
E|-----------------------------------------------|------------------|--------|--------|


E|--------|--------|--------|--------|--------|--------|--------|--------|--------|
B|--------|--------|--------|--------|--------|--------|--------|--------|--------|
G|--------|--------|--------|--------|--------|--------|--------|--------|--------|
D|--------|--------|--------|--------|--------|--------|--------|--------|--------|
A|--------|--------|--------|--------|--------|--------|--------|--------|--------|
E|--------|--------|--------|--------|--------|--------|--------|--------|--------|


E|--------|--------|--------|--------|--------|--------|--------|--------|--------|
B|--------|--------|--------|--------|--------|--------|--------|--------|--------|
G|--------|--------|--------|--------|--------|--------|--------|--------|--------|
D|--------|--------|--------|--------|--------|--------|--------|--------|--------|
A|--------|--------|--------|--------|--------|--------|--------|--------|--------|
E|--------|--------|--------|--------|--------|--------|--------|--------|--------|


E|--------|--------|--------|--------|--------|--------|--------|--------|--------|
B|--------|--------|--------|--------|--------|--------|--------|--------|--------|
G|--------|--------|--------|--------|--------|--------|--------|--------|--------|
D|--------|--------|--------|--------|--------|--------|--------|--------|--------|
A|--------|--------|--------|--------|--------|--------|--------|--------|--------|
E|--------|--------|--------|--------|--------|--------|--------|--------|--------|


E|--------|--------|--------|--------|--------|--------|--------|--------|--------|
B|--------|--------|--------|--------|--------|--------|--------|--------|--------|
G|--------|--------|--------|--------|--------|--------|--------|--------|--------|
D|--------|--------|--------|--------|--------|--------|--------|--------|--------|
A|--------|--------|--------|--------|--------|--------|--------|--------|--------|
E|--------|--------|--------|--------|--------|--------|--------|--------|--------|


E|--------|--------|--------|--------|--------|--------|--------|--------|--------|
B|--------|--------|--------|--------|--------|--------|--------|--------|--------|
G|--------|--------|--------|--------|--------|--------|--------|--------|--------|
D|--------|--------|--------|--------|--------|--------|--------|--------|--------|
A|--------|--------|--------|--------|--------|--------|--------|--------|--------|
E|--------|--------|--------|--------|--------|--------|--------|--------|--------|


E|--------|--------|--------|--------|--------|--------|--------|--------|--------|
B|--------|--------|--------|--------|--------|--------|--------|--------|--------|
G|--------|--------|--------|--------|--------|--------|--------|--------|--------|
D|--------|--------|--------|--------|--------|--------|--------|--------|--------|
A|--------|--------|--------|--------|--------|--------|--------|--------|--------|
E|--------|--------|--------|--------|--------|--------|--------|--------|--------|


E|--------|--------|--------|--------|--------|--------|--------|--------|--------|
B|--------|--------|--------|--------|--------|--------|--------|--------|--------|
G|--------|--------|--------|--------|--------|--------|--------|--------|--------|
D|--------|--------|--------|--------|--------|--------|--------|--------|--------|
A|--------|--------|--------|--------|--------|--------|--------|--------|--------|
E|--------|--------|--------|--------|--------|--------|--------|--------|--------|


E|--------|--------|--------|--------|--------|--------|--------|--------|--------|
B|--------|--------|--------|--------|--------|--------|--------|--------|--------|
G|--------|--------|--------|--------|--------|--------|--------|--------|--------|
D|--------|--------|--------|--------|--------|--------|--------|--------|--------|
A|--------|--------|--------|--------|--------|--------|--------|--------|--------|
E|--------|--------|--------|--------|--------|--------|--------|--------|--------|


E|--------|--------|--------|--------|--------|--------|--------|--------|--------|
B|--------|--------|--------|--------|--------|--------|--------|--------|--------|
G|--------|--------|--------|--------|--------|--------|--------|--------|--------|
D|--------|--------|--------|--------|--------|--------|--------|--------|--------|
A|--------|--------|--------|--------|--------|--------|--------|--------|--------|
E|--------|--------|--------|--------|--------|--------|--------|--------|--------|


E|--------|--------|--------|--------|--------|--------|--------|--------|--------|
B|--------|--------|--------|--------|--------|--------|--------|--------|--------|
G|--------|--------|--------|--------|--------|--------|--------|--------|--------|
D|--------|--------|--------|--------|--------|--------|--------|--------|--------|
A|--------|--------|--------|--------|--------|--------|--------|--------|--------|
E|--------|--------|--------|--------|--------|--------|--------|--------|--------|


E|--------|--------|--------|--------|--------|--------|--------|--------|
B|--------|--------|--------|--------|--------|--------|--------|--------|
G|--------|--------|--------|--------|--------|--------|--------|--------|
D|--------|--------|--------|--------|--------|--------|--------|--------|
A|--------|--------|--------|--------|--------|--------|--------|--------|
E|--------|--------|--------|--------|--------|--------|--------|--------|





Track 5: Untitled

G|--------|-------------|-------------|-------------|----------------|---------------------------------|
D|--------|-------------|-------------|-------------|----------------|---------------------------------|
A|--------|-------------|-------------|-------------|----------------|-------------2---5---4-----------|
E|--------|-------------|-------------|-------------|------------2---|-3---4---5---------------3-------|


G|---------------------------------|---------------------------------|---------------------------------|
D|---------------------------------|---------------------------------|---------------------------------|
A|---------------------4---7---6---|-----------------------------2---|-5---4---------------------------|
E|-0---4---5---6---7---------------|-5-------0---2---3---4---5-------|---------3-------0---4---5---6---|


G|---------------------------------|---------------------------------|---------------------------------|
D|---------------------------------|---------------------------------|---------------------------------|
A|-----4---7---6-------------------|---------2---5---4---------------|-----------------4---7---6-------|
E|-7---------------5---0---2---3---|-4---5---------------3-------0---|-4---5---6---7---------------5---|


G|---------------------------------|---------------------------------|---------------------------------|
D|---------------------------------|---------------------------------|---------------------------------|
A|-------------------------2---5---|-4-------------------------------|-4---7---6-----------7-----------|
E|-----0---2---3---4---5-----------|-----3-------0---4---5---6---7---|-------------5---0-------0---0---|


G|------------------------------|---------------------------------|------------------------------|
D|-9---8--------6---------------|-----7---6-------5---------------|-----------------9---8--------|
A|----------9---------------4---|-5-------------------3-----------|-----7--------------------9---|
E|----------------------0-------|-------------3-----------1-------|-0-------0---0----------------|


G|---------------------------------|------------------------------|------------------------------|
D|-6-----------3---5---7-----------|-----1---3---5----------------|----------------------9---8---|
A|-------------------------5---5---|-----------------3---3----4---|-3---2----7-------------------|
E|---------0-----------------------|------------------------------|--------------0---0-----------|


G|---------------------------------|---------------------------------|------------------------------|
D|---------6-------------------7---|-6-------5-----------------------|---------9---8--------6-------|
A|-----9---------------4---5-------|-------------3---------------7---|------------------9-----------|
E|-----------------0---------------|-----3-----------1-------0-------|-0---0------------------------|


G|------------------------------|----------------------------------|---------------------------------|
D|-----3---5---7------------1---|-3---5----------------------------|---------------------------------|
A|-----------------3---3--------|---------3---3----4---4---3---2---|---------------------2---5---4---|
E|-0----------------------------|----------------------------------|-----2---3---4---5---------------|


G|---------------------------------|---------------------------------|---------------------------------|
D|---------------------------------|---------------------------------|---------------------------------|
A|-----------------------------4---|-7---6---------------------------|-----2---5---4-------------------|
E|-3-------0---4---5---6---7-------|---------5-------0---2---3---4---|-5---------------3-------0---4---|


G|---------------------------------|---------------------------------|---------------------------------|
D|---------------------------------|---------------------------------|---------------------------------|
A|-------------4---7---6-----------|-----------------2---5---4-------|-------------------------4---7---|
E|-5---6---7---------------5---0---|-2---3---4---5---------------3---|-----0---4---5---6---7-----------|


G|---------------------------------|---------------------------------|---------------------------------|
D|---------------------------------|---------------------------------|---------------------------------|
A|-6-------------------------------|-2---5---4-----------------------|---------4---7---6-----------7---|
E|-----5-------0---2---3---4---5---|-------------3-------0---4---5---|-6---7---------------5---0-------|


G|------------------------------|---------------------------------|---------------------------------|
D|---------9---8--------6-------|-------------7---6-------5-------|-------------------------9---8---|
A|------------------9-----------|-----4---5-------------------3---|-------------7-------------------|
E|-0---0------------------------|-0-------------------3-----------|-1-------0-------0---0-----------|


G|---------------------------------|------------------------------|------------------------------|
D|---------6-----------3---5---7---|----------1---3---5-----------|------------------------------|
A|-----9---------------------------|-5---5----------------3---3---|-----4---3---2----7-----------|
E|-----------------0---------------|------------------------------|----------------------0---0---|


G|------------------------------|---------------------------------|------------------------------|
D|-9---8--------6---------------|-----7---6-------5---------------|-----------------9---8--------|
A|----------9---------------4---|-5-------------------3-----------|-----7--------------------9---|
E|----------------------0-------|-------------3-----------1-------|-0-------0---0----------------|


G|---------------------------------|---------------------------------|------------------------|
D|-6-----------3---5---7-----------|-----1---3---5-------------------|------------------------|
A|-------------------------3---3---|-----------------3---3----4---4--|----3---2---------------|
E|---------0-----------------------|---------------------------------|-------------3-----2----|


G|---------------------|---------------------|------------------|---------------------|
D|---------------------|---------------------|------------------|---------------------|
A|---------------------|---------------------|------------------|---------------------|
E|-----1-----0----3----|-----2-----1----3----|-3-----2-----1----|-----0----3-----2----|


G|------------------------|---------------------------|---------------------------|
D|------------------------|---------------------------|---------------------------|
A|------------------------|---------------------------|---------------------------|
E|-----1----3----3--------|-2--------1--------0-------|-3--------2--------1-------|


G|---------------------------|---------------------------|------------------------------|
D|---------------------------|---------------------------|------------------------------|
A|---------------------------|---------------------------|------------------------------|
E|-0-------3--------2--------|-1--------0-------3--------|-2--------1-------0-------3---|


G|---------------------------------|---------------------------------|---------------------------------|
D|---------------------------------|---------------------------------|---------------------------------|
A|---------------------------------|---------------------------------|---------------------------------|
E|-3---3---2---2---2---1---1---1---|-0---0---3---3---3---2---2---2---|-1---1---0---0---3---3---3---2---|


G|---------------------------------|---------------------------------|------------------------|
D|---------------------------------|---------------------------------|------------------------|
A|---------------------------------|---------------------------------|------------------------|
E|-2---2---1---1---1---0---0---3---|-3---3---2---2---2---1---1---0---|-0---3-----2---2----1---|


G|------------|---------------------------------|---------------------------------|
D|------------|---------------------------------|---------------------------------|
A|------------|---------------------2---5---4---|-----------------------------4---|
E|-----1------|-----2---3---4---5---------------|-3-------0---4---5---6---7-------|


G|---------------------------------|---------------------------------|---------------------------------|
D|---------------------------------|---------------------------------|---------------------------------|
A|-7---6---------------------------|-----2---5---4-------------------|-------------4---7---6-----------|
E|---------5-------0---2---3---4---|-5---------------3-------0---4---|-5---6---7---------------5-------|


G|---------------------------------|---------------------------------|---------------------------------|
D|---------------------------------|---------------------------------|---------------------------------|
A|---------------------2---5---4---|-----------------------------4---|-7---6---------------------------|
E|-0---2---3---4---5---------------|-3-------0---4---5---6---7-------|---------5-------0---2---3---4---|


G|---------------------------------|---------------------------------|-----------------------------------------------|
D|---------------------------------|---------------------------------|-----------------------------------------------|
A|-----2---5---4-------------------|-------------4---7---6-----------|-----------------2--2-----------------4--4--6--|
E|-5---------------3-------0---4---|-5---6---7---------------5-------|-0---4--4--2--4--------4--2--4--4--4-----------|


G|-------------------------------------------------|-------------------------------------------------|
D|----4--------------------------------------------|-------------------------------------------------|
A|-6--------------2--2--2-----------------2--2--4--|-4-----------------2--2-----------------4--4--6--|
E|-------4--4--2-----------4--2--4--4--4-----------|----2--4--4--2--4--------4--2--4--4--4-----------|


G|-------------------------------------------------|-------------------------------------------------|
D|----4--------------------------------------------|-------------------------------------------------|
A|-6--------------2--2--2-----------------2--2--4--|-4-----------------1--1-----------2--1--1-----1--|
E|-------4--4--2-----------4--2--4--4--4-----------|----2--4--4--2--4--------4--2--4-----------4-----|


G|---------------------------------------------------|--------------------------------------------|
D|---------------------------1--1-----------1-----2--|-6-4-2--1-----------------------------------|
A|-4-2-1-1-------2--2--1--2--------4--2--4-----4-----|-----------2--1-----------------------------|
E|---------4--2--------------------------------------|-----------------2--0---0--2--4---4--2--0---|


G|------------------------------------------|-----------------------------------------------|
D|----------------------2------2--1---------|-----------------------------------------------|
A|----------------------------------4-2--1--|----2--1---2---4---2---1-----------------------|
E|-2--4--6---4---2---4------4---------------|-4-------------------------2---4--2--4---------|


G|---------------------------------------|---------------------------------------|
D|---------------------------------------|---------------------------------------|
A|-----------------------------2--1--2---|-----2--1--2---4---2--1----------------|
E|-4--2--4---6---6--4--6-----------------|-------------------------4---2---0--0--|


G|-------------------------------------------------|-------------------------------------------------|
D|-------------------------------------------------|-------------------------------------------------|
A|-------------------------------------------------|-------------------------------------------------|
E|-0--0--0--0--0--0--2--2--2--2--2--2--2--2--4--4--|-4--4--4--4--4--4--6--6--6--6--6--6--6--2--4--2--|


G|-------------------|-----------------|-----------------|-----------------|-----------------|
D|-------------------|-----------------|-----------------|-----------------|-----9-----11----|
A|-------------1-----|-----2-----4-----|-----7-----9-----|-----11----13----|-----------------|
E|-4-----4-----------|-----------------|-----------------|-----------------|-----------------|


G|-----------------|-----9-----9---11----|-11--13----13--15----|-15-------------|----------------|
D|-----13----14----|---------------------|---------------------|----------------|----------------|
A|-----------------|---------------------|---------------------|-----2------2---|-2---2------2---|
E|-----------------|---------------------|---------------------|----------------|----------------|


G|----------------|------------------------|------------------------|------------------------|
D|----------------|------------------------|------------------------|------------------------|
A|-2---2------2---|-2---2-----2---2---2----|-2---2-----2---2---2----|-2---2-----2---2---2----|
E|----------------|------------------------|------------------------|------------------------|


G|------------------------|---------------------------|------------------------|------------------------|
D|------------------------|---------------------------|------------------------|------------------------|
A|-2---2-----2---2---2----|-2---2-----2---2---2---2---|-2---2-----2---2---2----|-2---4-----4---4---4----|
E|------------------------|---------------------------|------------------------|------------------------|


G|------------------------|------------------------|------------------------|------------------------|
D|------------------------|------------------------|------------------------|------------------------|
A|-4----------------------|------------------------|-----2-----2---2---2----|-2---4-----4---4---4----|
E|-----0-----0---0---0----|-0---2-----2---2---2----|-2----------------------|------------------------|


G|-----------------|------------|------------------------|------------------------|
D|-----------------|------------|------------------------|------------------------|
A|-4---7-----9-----|-----2------|-----5-----5---5---5----|-5---5-----5---5---5----|
E|-----------------|------------|------------------------|------------------------|


G|-----------------|---------------------------|---------5--5------------------|---------------------------------|
D|-----------------|---------7------------7----|---------------7--5------------|---------------------------------|
A|-----5-----------|---------------------------|-5---5---------------7---5-----|-------------0---1---1---1-------|
E|-----------2-----|-5---5--------5---5--------|-------------------------------|-----2---3-----------------------|


G|-----------------------------|--------------------------|----------------------5---------|
D|-----------------------------|-------4-------------7----|---------7----------------7--5--|
A|-4---4---4-------5--5--5-----|-5--7---------------------|--------------5---5-------------|
E|-----------------------------|-------------5---5--------|-5---5--------------------------|


G|----------------------|------------------------|----------------------|------------------------------|
D|----------------------|------------------------|----------------------|--------------------------3---|
A|-7--5-----------------|------------------------|----------------------|------------------------------|
E|-------3-----3---3----|-3---3---3-----3---3----|-3--3--3-----3---3----|-3---3---3---3---3---3--------|


G|---------------------------------|---------------------------------|---------------------------------|
D|-5-------------------------------|---------------------------------|---------------------------------|
A|---------------------------------|---------------------------------|---------------------------------|
E|-----3---3---3---3---3---3---3---|-3---3---3---3---3---3---3---3---|-3---3---3---3---3---3---3---3---|


G|---------------------------------|---------------------------------|---------------------------------|
D|---------------------------------|---------------------------------|---------------------------------|
A|-----------------------------3---|-3---3---3---3---3---1---1---1---|-1---1---1---3---3---3---3---3---|
E|-3---1---1---1---1---1---1-------|---------------------------------|---------------------------------|


G|---------------------------------|---------------------------------|---------------------------------|
D|---------------------------------|---------------------------------|---------------------------------|
A|-3-------------------------------|---------------------------------|---------------------------------|
E|-----3---3---3---2---2---2---1---|-1---1---0---0---3---3---3---2---|-2---2---1---1---0---0---3---3---|


G|---------------------------------|---------------------------------|-----------------------------5---|
D|---------------------------------|---------------------------------|-------------------------4-------|
A|---------------------------------|---------------------------------|---------------------6-----------|
E|-3---2---2---2---1---1---1---0---|-0---3---3---3---2---2---2---1---|-1---1---0---0---0---------------|


G|-4-------------------------------|------------------------------|------------------------|
D|-----7---5---4-------------------|------------------------------|------------------------|
A|---------------------6-------7---|-----7---7---5---3---2----3---|-------3----------------|
E|---------------------------------|------------------------------|-0--------------5-------|


G|---------------------------|-----------------|--------------------|------------------------|
D|---------------------------|-----------------|--------------------|------------------------|
A|---------------------------|-----------5-----|-----7-----5--------|----------2----3--------|
E|-----0--------3--------1---|-----------------|--------------------|------------------------|


G|---------------------------------|-------------------------------------------------|
D|---------------------------------|-------------------------------------------------|
A|----------3----2--2--2--2--2--2--|-2--2--------------------------------------------|
E|---------------------------------|-------4--4--4--4--4--4--4--4--5--5--5--5--5--5--|


G|-------------------------------------|-----------------7---9-----|-----9---6---7---9---10----|
D|-------------------------------------|---------9---10------------|---------------------------|
A|-------4--4--4--4--4--4--4--4--5-----|-----5---------------------|---------------------------|
E|-5--5--------------------------------|---------------------------|---------------------------|


G|--------------------|------------------------|-------------------------|--------------------------------|
D|--------------------|------------------------|-------------------------|--------------------------------|
A|-----10----7----5---|------------------------|-----1-----1---1--1--1---|-----1----1---1--1--1---1---3---|
E|--------------------|-----7----4----0--------|-------------------------|--------------------------------|


G|-----------------------------------|-------------------|--------------|--------------|
D|-----------------------------------|-------------------|--------------|--------------|
A|-3---3---3---5---5--5--5---5---7---|-7--7--7-----------|--------------|-------0------|
E|-----------------------------------|------------3------|-------3------|--------------|


G|--------------|--------------|---------------------|-----------------------------|
D|--------------|--------------|---------------------|-----------------------------|
A|-------0------|-------5------|---------------------|-----------------------------|
E|--------------|--------------|-------3----3----3---|-3--3--3---3---5----5----5---|


G|-----------------------------|--------------------------|------------------------|
D|-----------------------------|--------------------------|------------------------|
A|-----------------------------|--------------------------|-----5----5-----5-------|
E|-5--5--5---5---0----0----0---|-0--0--0---0---1----1-----|-1------------------0---|


G|----------------|----------------|----------------|------------------|-----------------------------------------------------|
D|----------------|----------------|----------------|------------------|--------------------------------------------2--------|
A|----------------|----------------|----------------|------------------|--------------------------------------2--4-----------|
E|------------0---|------------0---|------------0---|------------2--2--|----2-2-2--2--2-2-2-2-2--2-----2-2-2-----------2--2--|


G|-----------------------------------------------------|-----------------------------------------------------|
D|-----------------------------------------------------|--------------------------------------------2--------|
A|-----------------------------------0--0--------------|--------------------------------------2--4-----------|
E|----2-2-2--2--2-2-2-2-2--2-----2-2-------2--0--2--2--|----2-2-2--2--2-2-2-2-2--2-----2-2-2-----------2--2--|


G|-----------------------------------------------------|-----------------------------------------------|
D|-----------------------------------------------------|-----------------------------------------------|
A|-----------------------------------0--0--------------|-----------------------------------------------|
E|----2-2-2--2--2-2-2-2-2--2-----2-2-------2--0--2--2--|----2-2-2--2--2-2-2-2-2--2-----2-2-2---3---4---|


G|---------------------------------|---------------------------------|---------------------------------|
D|---------------------------------|---------------------------------|---------------------------------|
A|-----2---5---4-------------------|-------------4---7---6-----------|---------------------2---5---4---|
E|-5---------------3-------0---4---|-5---6---7---------------5-------|-0---2---3---4---5---------------|


G|---------------------------------|---------------------------------|---------------------------------|
D|---------------------------------|---------------------------------|---------------------------------|
A|-----------------------------4---|-7---6---------------------------|-2---5---4-----------------------|
E|-3-------0---4---5---6---7-------|---------5---0---2---3---4---5---|-------------3-------0---4---5---|


G|---------------------------------|---------------------------------|---------------------------------|
D|---------------------------------|---------------------------------|---------------------------------|
A|---------4---7---6---------------|-----------------2---5---4-------|-------------------------4---7---|
E|-6---7---------------5-------0---|-2---3---4---5---------------3---|-----0---4---5---6---7-----------|


G|---------------------------------|---------------------------------|---------------------------------|
D|-------------------------9---8---|---------6-------------------7---|-6-------5-----------------------|
A|-6-----------7-------------------|-----9---------------4---5-------|-------------3---------------7---|
E|-----5---0-------0---0-----------|-----------------0---------------|-----3-----------1-------0-------|


G|------------------------------|------------------------------|------------------------------|
D|---------9---8--------6-------|-----3---5---7------------1---|-3---5------------------------|
A|------------------9-----------|-----------------5---5--------|---------3---3----4---3---2---|
E|-0---0------------------------|-0----------------------------|------------------------------|


G|------------------------------|---------------------------------|---------------------------------|
D|-----------------9---8--------|-6-------------------7---6-------|-5-------------------------------|
A|-----7--------------------9---|-------------4---5---------------|-----3---------------7-----------|
E|---------0---0----------------|---------0-------------------3---|---------1-------0-------0---0---|


G|------------------------------|----------------------------------|-----------------------------|
D|-9---8--------6-----------3---|-5---7------------1---3---5-------|-----------------------------|
A|----------9-------------------|---------5---5----------------3---|-------3-----1-1-1-3-3-4-5-6-|
E|----------------------0-------|----------------------------------|-----------------------------|


G|-------------------------1617181919-171920-19-17-----------|-------------1719201917----------------------171920222019221920--20--|
D|-4-5-6-7-1011121314151617------------------------20-18-1718|-20--18171820----------201817----------171820------------------------|
A|-----------------------------------------------------------|-----------------------------2018171820------------------------------|
E|-----------------------------------------------------------|---------------------------------------------------------------------|


G|-------20----20--|
D|-----------------|
A|-----------------|
E|-----------------|