Menu:

 

Search:

 

dream theater - erotomania:

 



Title: Erotomania
Artist: 
Album: Awake
Author: Dream Theater


Track 1: Untitled

C|--------|--------|--------|--------|--------|--------|--------|--------|--------|
G|--------|--------|--------|--------|--------|--------|--------|--------|--------|
D|--------|--------|--------|--------|--------|--------|--------|--------|--------|
A|--------|--------|--------|--------|--------|--------|--------|--------|--------|
E|--------|--------|--------|--------|--------|--------|--------|--------|--------|
B|--------|--------|--------|--------|--------|--------|--------|--------|--------|


C|--------|--------|--------|--------|--------|--------|--------|--------|--------|
G|--------|--------|--------|--------|--------|--------|--------|--------|--------|
D|--------|--------|--------|--------|--------|--------|--------|--------|--------|
A|--------|--------|--------|--------|--------|--------|--------|--------|--------|
E|--------|--------|--------|--------|--------|--------|--------|--------|--------|
B|--------|--------|--------|--------|--------|--------|--------|--------|--------|


C|--------|--------|--------|--------|--------|--------|--------|--------|--------|
G|--------|--------|--------|--------|--------|--------|--------|--------|--------|
D|--------|--------|--------|--------|--------|--------|--------|--------|--------|
A|--------|--------|--------|--------|--------|--------|--------|--------|--------|
E|--------|--------|--------|--------|--------|--------|--------|--------|--------|
B|--------|--------|--------|--------|--------|--------|--------|--------|--------|


C|--------|--------|--------|--------|--------|--------|--------|--------|--------|
G|--------|--------|--------|--------|--------|--------|--------|--------|--------|
D|--------|--------|--------|--------|--------|--------|--------|--------|--------|
A|--------|--------|--------|--------|--------|--------|--------|--------|--------|
E|--------|--------|--------|--------|--------|--------|--------|--------|--------|
B|--------|--------|--------|--------|--------|--------|--------|--------|--------|


C|--------|--------|--------|--------|--------|--------|--------|--------|--------|
G|--------|--------|--------|--------|--------|--------|--------|--------|--------|
D|--------|--------|--------|--------|--------|--------|--------|--------|--------|
A|--------|--------|--------|--------|--------|--------|--------|--------|--------|
E|--------|--------|--------|--------|--------|--------|--------|--------|--------|
B|--------|--------|--------|--------|--------|--------|--------|--------|--------|


C|--------|--------|--------|--------|--------|--------|--------|--------|--------|
G|--------|--------|--------|--------|--------|--------|--------|--------|--------|
D|--------|--------|--------|--------|--------|--------|--------|--------|--------|
A|--------|--------|--------|--------|--------|--------|--------|--------|--------|
E|--------|--------|--------|--------|--------|--------|--------|--------|--------|
B|--------|--------|--------|--------|--------|--------|--------|--------|--------|


C|--------|--------|--------|--------|--------|--------|--------|--------|--------|
G|--------|--------|--------|--------|--------|--------|--------|--------|--------|
D|--------|--------|--------|--------|--------|--------|--------|--------|--------|
A|--------|--------|--------|--------|--------|--------|--------|--------|--------|
E|--------|--------|--------|--------|--------|--------|--------|--------|--------|
B|--------|--------|--------|--------|--------|--------|--------|--------|--------|


C|--------|--------|--------|--------|--------|--------|--------|--------|--------|
G|--------|--------|--------|--------|--------|--------|--------|--------|--------|
D|--------|--------|--------|--------|--------|--------|--------|--------|--------|
A|--------|--------|--------|--------|--------|--------|--------|--------|--------|
E|--------|--------|--------|--------|--------|--------|--------|--------|--------|
B|--------|--------|--------|--------|--------|--------|--------|--------|--------|


C|--------|--------|--------|--------|--------|--------|--------|--------|--------|
G|--------|--------|--------|--------|--------|--------|--------|--------|--------|
D|--------|--------|--------|--------|--------|--------|--------|--------|--------|
A|--------|--------|--------|--------|--------|--------|--------|--------|--------|
E|--------|--------|--------|--------|--------|--------|--------|--------|--------|
B|--------|--------|--------|--------|--------|--------|--------|--------|--------|


C|--------|--------|--------|--------|--------|--------|--------|--------|--------|
G|--------|--------|--------|--------|--------|--------|--------|--------|--------|
D|--------|--------|--------|--------|--------|--------|--------|--------|--------|
A|--------|--------|--------|--------|--------|--------|--------|--------|--------|
E|--------|--------|--------|--------|--------|--------|--------|--------|--------|
B|--------|--------|--------|--------|--------|--------|--------|--------|--------|


C|--------|--------|--------|--------|--------|--------|--------|--------|--------|
G|--------|--------|--------|--------|--------|--------|--------|--------|--------|
D|--------|--------|--------|--------|--------|--------|--------|--------|--------|
A|--------|--------|--------|--------|--------|--------|--------|--------|--------|
E|--------|--------|--------|--------|--------|--------|--------|--------|--------|
B|--------|--------|--------|--------|--------|--------|--------|--------|--------|


C|--------|--------|--------|--------|--------|--------|--------|--------|--------|
G|--------|--------|--------|--------|--------|--------|--------|--------|--------|
D|--------|--------|--------|--------|--------|--------|--------|--------|--------|
A|--------|--------|--------|--------|--------|--------|--------|--------|--------|
E|--------|--------|--------|--------|--------|--------|--------|--------|--------|
B|--------|--------|--------|--------|--------|--------|--------|--------|--------|


C|--------|--------|--------|--------|--------|--------|--------|--------|--------|
G|--------|--------|--------|--------|--------|--------|--------|--------|--------|
D|--------|--------|--------|--------|--------|--------|--------|--------|--------|
A|--------|--------|--------|--------|--------|--------|--------|--------|--------|
E|--------|--------|--------|--------|--------|--------|--------|--------|--------|
B|--------|--------|--------|--------|--------|--------|--------|--------|--------|


C|--------|--------|--------|--------|--------|--------|--------|--------|--------|
G|--------|--------|--------|--------|--------|--------|--------|--------|--------|
D|--------|--------|--------|--------|--------|--------|--------|--------|--------|
A|--------|--------|--------|--------|--------|--------|--------|--------|--------|
E|--------|--------|--------|--------|--------|--------|--------|--------|--------|
B|--------|--------|--------|--------|--------|--------|--------|--------|--------|


C|--------|--------|--------|--------|--------|--------|--------|--------|--------|
G|--------|--------|--------|--------|--------|--------|--------|--------|--------|
D|--------|--------|--------|--------|--------|--------|--------|--------|--------|
A|--------|--------|--------|--------|--------|--------|--------|--------|--------|
E|--------|--------|--------|--------|--------|--------|--------|--------|--------|
B|--------|--------|--------|--------|--------|--------|--------|--------|--------|


C|--------|--------|--------|--------|--------|--------|--------|--------|--------|
G|--------|--------|--------|--------|--------|--------|--------|--------|--------|
D|--------|--------|--------|--------|--------|--------|--------|--------|--------|
A|--------|--------|--------|--------|--------|--------|--------|--------|--------|
E|--------|--------|--------|--------|--------|--------|--------|--------|--------|
B|--------|--------|--------|--------|--------|--------|--------|--------|--------|


C|--------|--------|--------|--------|--------|--------|--------|--------|--------|
G|--------|--------|--------|--------|--------|--------|--------|--------|--------|
D|--------|--------|--------|--------|--------|--------|--------|--------|--------|
A|--------|--------|--------|--------|--------|--------|--------|--------|--------|
E|--------|--------|--------|--------|--------|--------|--------|--------|--------|
B|--------|--------|--------|--------|--------|--------|--------|--------|--------|


C|--------|--------|--------|--------|--------|--------|--------|--------|--------|
G|--------|--------|--------|--------|--------|--------|--------|--------|--------|
D|--------|--------|--------|--------|--------|--------|--------|--------|--------|
A|--------|--------|--------|--------|--------|--------|--------|--------|--------|
E|--------|--------|--------|--------|--------|--------|--------|--------|--------|
B|--------|--------|--------|--------|--------|--------|--------|--------|--------|


C|--------|--------|--------|--------|--------|--------|--------|--------|--------|
G|--------|--------|--------|--------|--------|--------|--------|--------|--------|
D|--------|--------|--------|--------|--------|--------|--------|--------|--------|
A|--------|--------|--------|--------|--------|--------|--------|--------|--------|
E|--------|--------|--------|--------|--------|--------|--------|--------|--------|
B|--------|--------|--------|--------|--------|--------|--------|--------|--------|


C|--------|--------|--------|--------|--------|--------|--------|--------|--------|
G|--------|--------|--------|--------|--------|--------|--------|--------|--------|
D|--------|--------|--------|--------|--------|--------|--------|--------|--------|
A|--------|--------|--------|--------|--------|--------|--------|--------|--------|
E|--------|--------|--------|--------|--------|--------|--------|--------|--------|
B|--------|--------|--------|--------|--------|--------|--------|--------|--------|


C|--------|--------|--------|--------|--------|--------|--------|--------|--------|
G|--------|--------|--------|--------|--------|--------|--------|--------|--------|
D|--------|--------|--------|--------|--------|--------|--------|--------|--------|
A|--------|--------|--------|--------|--------|--------|--------|--------|--------|
E|--------|--------|--------|--------|--------|--------|--------|--------|--------|
B|--------|--------|--------|--------|--------|--------|--------|--------|--------|


C|--------|--------|--------|--------|--------|--------|--------|--------|--------|
G|--------|--------|--------|--------|--------|--------|--------|--------|--------|
D|--------|--------|--------|--------|--------|--------|--------|--------|--------|
A|--------|--------|--------|--------|--------|--------|--------|--------|--------|
E|--------|--------|--------|--------|--------|--------|--------|--------|--------|
B|--------|--------|--------|--------|--------|--------|--------|--------|--------|





Track 2: Bass

C|--------|--------|--------|-------------|----------------|---------------------------------|
G|--------|--------|--------|-------------|----------------|---------------------------------|
D|--------|--------|--------|-------------|----------------|---------------------------------|
A|--------|--------|--------|-------------|----------------|-------------2---5---4-----------|
E|--------|--------|--------|-------------|------------2---|-3---4---5---------------3-------|
B|--------|--------|--------|-------------|----------------|---------------------------------|


C|---------------------------------|---------------------------------|---------------------------------|
G|---------------------------------|---------------------------------|---------------------------------|
D|---------------------------------|---------------------------------|---------------------------------|
A|---------------------4---7---6---|-----------------------------2---|-5---4---------------------------|
E|-0---4---5---6---7---------------|-5-------0---2---3---4---5-------|---------3-------0---4---5---6---|
B|---------------------------------|---------------------------------|---------------------------------|


C|---------------------------------|---------------------------------|---------------------------------|
G|---------------------------------|---------------------------------|---------------------------------|
D|---------------------------------|---------------------------------|---------------------------------|
A|-----4---7---6-------------------|---------2---5---4---------------|-----------------4---7---6-------|
E|-7---------------5---0---2---3---|-4---5---------------3-------0---|-4---5---6---7---------------5---|
B|---------------------------------|---------------------------------|---------------------------------|


C|---------------------------------|---------------------------------|---------------------------------|
G|---------------------------------|---------------------------------|---------------------------------|
D|---------------------------------|---------------------------------|---------------------------------|
A|-------------------------2---5---|-4-------------------------------|-4---7---6-----------7-------7---|
E|-----0---2---3---4---5-----------|-----3-------0---4---5---6---7---|-------------5---0-------0-------|
B|---------------------------------|---------------------------------|---------------------------------|


C|------------------------------|---------------------------------|------------------------------|
G|------------------------------|---------------------------------|------------------------------|
D|-9---8--------6---6-----------|-----7---6-------5---------------|-----------------9---8--------|
A|----------7---------------4---|-5-------------------3-----------|-----7-------7------------7---|
E|------------------------------|-------------3-----------1-------|---------0--------------------|
B|------------------------------|---------------------------------|------------------------------|


C|------------------------------|---------------------------|------------------------------|
G|------------------------------|---------------------------|------------------------------|
D|-6---6-----------5---7--------|---------3---5-------------|----------------------9---8---|
A|-------------8-----------5----|-----6-----------3-----4---|-3---2----7-------7-----------|
E|------------------------------|---------------------------|--------------0---------------|
B|------------------------------|---------------------------|------------------------------|


C|---------------------------------|------------------------------|------------------------------|
G|---------------------------------|------------------------------|------------------------------|
D|---------6---6---------------7---|-6-------5--------------------|---------9---8--------6---6---|
A|-----7---------------4---5-------|-------------3------------7---|-----7------------7-----------|
E|---------------------------------|-----3-----------1------------|-0----------------------------|
B|---------------------------------|------------------------------|------------------------------|


C|---------------------------|-------------------------------|---------------------------------|
G|---------------------------|-------------------------------|---------------------------------|
D|---------5---7-------------|-3---5-------------------------|---------------------------------|
A|-----8-----------5-----6---|---------3-----4---4---3---2---|---------------------2---5---4---|
E|---------------------------|-------------------------------|-----2---3---4---5---------------|
B|---------------------------|-------------------------------|---------------------------------|


C|---------------------------------|---------------------------------|---------------------------------|
G|---------------------------------|---------------------------------|---------------------------------|
D|---------------------------------|---------------------------------|---------------------------------|
A|-----------------------------4---|-7---6---------------------------|-----2---5---4-------------------|
E|-3-------0---4---5---6---7-------|---------5-------0---2---3---4---|-5---------------3-------0---4---|
B|---------------------------------|---------------------------------|---------------------------------|


C|---------------------------------|---------------------------------|---------------------------------|
G|---------------------------------|---------------------------------|---------------------------------|
D|---------------------------------|---------------------------------|---------------------------------|
A|-------------4---7---6-----------|-----------------2---5---4-------|-------------------------4---7---|
E|-5---6---7---------------5---0---|-2---3---4---5---------------3---|-----0---4---5---6---7-----------|
B|---------------------------------|---------------------------------|---------------------------------|


C|---------------------------------|---------------------------------|---------------------------------|
G|---------------------------------|---------------------------------|---------------------------------|
D|---------------------------------|---------------------------------|---------------------------------|
A|-6-------------------------------|-2---5---4-----------------------|---------4---7---6-----------7---|
E|-----5-------0---2---3---4---5---|-------------3-------0---4---5---|-6---7---------------5---0-------|
B|---------------------------------|---------------------------------|---------------------------------|


C|------------------------------|---------------------------------|------------------------------|
G|------------------------------|---------------------------------|------------------------------|
D|---------9---8--------6---6---|-------------7---6-------5-------|----------------------9---8---|
A|-----7------------7-----------|-----4---5-------------------3---|----------7-------7-----------|
E|-0----------------------------|---------------------3-----------|-1------------0---------------|
B|------------------------------|---------------------------------|------------------------------|


C|---------------------------------|------------------------|------------------------------|
G|---------------------------------|------------------------|------------------------------|
D|---------6---6-----------5---7---|-----------3---5--------|------------------------------|
A|-----7---------------8-----------|-5-----6-----------3----|-----4---3---2----7-------7---|
E|---------------------------------|------------------------|----------------------0-------|
B|---------------------------------|------------------------|------------------------------|


C|------------------------------|---------------------------------|------------------------------|
G|------------------------------|---------------------------------|------------------------------|
D|-9---8--------6---6-----------|-----7---6-------5---------------|-----------------9---8--------|
A|----------7---------------4---|-5-------------------3-----------|-----7-------7------------7---|
E|------------------------------|-------------3-----------1-------|---------0--------------------|
B|------------------------------|---------------------------------|------------------------------|


C|------------------------------|------------------------------|------------------------|
G|------------------------------|------------------------------|------------------------|
D|-6---6-----------5---7--------|---------3---5----------------|------------------------|
A|-------------8-----------5----|-----6-----------3-----4---4--|----3---2---------------|
E|------------------------------|------------------------------|-------------3-----2----|
B|------------------------------|------------------------------|------------------------|


C|---------------------|---------------------|------------------|---------------------|
G|---------------------|---------------------|------------------|---------------------|
D|---------------------|---------------------|------------------|---------------------|
A|---------------------|---------------------|------------------|---------------------|
E|-----1-----0----3----|-----2-----1----0----|-3-----2-----1----|-----0----3-----2----|
B|---------------------|---------------------|------------------|---------------------|


C|---------------------------|---------------------------------|---------------------------------|
G|---------------------------|---------------------------------|---------------------------------|
D|---------------------------|---------------------------------|---------------------------------|
A|---------------------------|---------------------------------|---------------------------------|
E|-----1----0----3-----------|-2-----------1-----------0-------|-3-----------2-----------1-------|
B|---------------------------|---------------------------------|---------------------------------|


C|---------------------------------|---------------------------------|---------------------------------|
G|---------------------------------|---------------------------------|---------------------------------|
D|---------------------------------|---------------------------------|---------------------------------|
A|---------------------------------|---------------------------------|---------------------------------|
E|-0-------3-----------2-----------|-1-----------0-------3-----------|-2-----------1-------0-------3---|
B|---------------------------------|---------------------------------|---------------------------------|


C|---------------------------------|---------------------------------|---------------------------------|
G|---------------------------------|---------------------------------|---------------------------------|
D|---------------------------------|---------------------------------|---------------------------------|
A|---------------------------------|---------------------------------|---------------------------------|
E|-3---3---2---2---2---1---1---1---|-0---0---3---3---3---2---2---2---|-1---1---0---0---3---3---3---2---|
B|---------------------------------|---------------------------------|---------------------------------|


C|---------------------------------|---------------------------------|---------------------|
G|---------------------------------|---------------------------------|---------------------|
D|---------------------------------|---------------------------------|---------------------|
A|---------------------------------|---------------------------------|---------------------|
E|-2---2---1---1---1---0---0---3---|-3---3---2---2---2---1---1---0---|-0---3-----2-----1---|
B|---------------------------------|---------------------------------|---------------------|


C|------------|---------------------------------|---------------------------------|
G|------------|---------------------------------|---------------------------------|
D|------------|---------------------------------|---------------------------------|
A|------------|---------------------2---5---4---|-----------------------------4---|
E|-----1------|-----2---3---4---5---------------|-3-------0---4---5---6---7-------|
B|------------|---------------------------------|---------------------------------|


C|---------------------------------|---------------------------------|---------------------------------|
G|---------------------------------|---------------------------------|---------------------------------|
D|---------------------------------|---------------------------------|---------------------------------|
A|-7---6---------------------------|-----2---5---4-------------------|-------------4---7---6-----------|
E|---------5-------0---2---3---4---|-5---------------3-------0---4---|-5---6---7---------------5-------|
B|---------------------------------|---------------------------------|---------------------------------|


C|---------------------------------|---------------------------------|---------------------------------|
G|---------------------------------|---------------------------------|---------------------------------|
D|---------------------------------|---------------------------------|---------------------------------|
A|---------------------2---5---4---|-----------------------------4---|-7---6---------------------------|
E|-0---2---3---4---5---------------|-3-------0---4---5---6---7-------|---------5-------0---2---3---4---|
B|---------------------------------|---------------------------------|---------------------------------|


C|---------------------------------|---------------------------------|-----------------------------------------------|
G|---------------------------------|---------------------------------|-----------------------------------------------|
D|---------------------------------|---------------------------------|-----------------------------------------------|
A|-----2---5---4-------------------|-------------4---7---6-----------|-----------------2--2-----------------4--4--6--|
E|-5---------------3-------0---4---|-5---6---7---------------5-------|-0---4--4--2--4--------4--2--4--4--4-----------|
B|---------------------------------|---------------------------------|-----------------------------------------------|


C|-----------------------------------------------|-------------------------------------------------|
G|-----------------------------------------------|-------------------------------------------------|
D|----4------------------------------------------|-------------------------------------------------|
A|-6--------------2--2------------------2--2--4--|-4-----------------2--2-----------------4--4--6--|
E|-------4--4--2---------4--2--4--4--4-----------|----2--4--4--2--4--------4--2--4--4--4-----------|
B|-----------------------------------------------|-------------------------------------------------|


C|-----------------------------------------------|-----------------------------------------------|
G|-----------------------------------------------|-----------------------------------------------|
D|----4------------------------------------------|-----------------------------------------------|
A|-6--------------2--2------------------2--2--4--|-4-----------------1--1-----------2--1------1--|
E|-------4--4--2---------4--2--4--4--4-----------|----2--4--4--2--4--------4--2--4---------4-----|
B|-----------------------------------------------|-----------------------------------------------|


C|----------------------------------------------------|----------------------------------------------|
G|----------------------------------------------------|-1--------------------------------------------|
D|----------------------------1--1-----------1-----2--|----4--2--1-----------------------------------|
A|-4--2--1--------2--2--1--2--------4--2--4-----4-----|-------------2--1-----------------------------|
E|----------4--2--------------------------------------|-------------------2--0---0--2--4---4--2--0---|
B|----------------------------------------------------|----------------------------------------------|


C|-----------------------------------------|---------------------------------------------|
G|-----------------------------------------|---------------------------------------------|
D|----------------------2------2-----------|---------------------------------------------|
A|--------------------------------4--2--1--|----2--1---2---4---2---1---------------------|
E|-2--4--6---4---2---4------4--------------|-4-------------------------2---4--2--4-------|
B|-----------------------------------------|---------------------------------------------|


C|---------------------------------------|---------------------------------------|
G|---------------------------------------|---------------------------------------|
D|---------------------------------------|---------------------------------------|
A|---------------------------------------|---------------------------------------|
E|-4--2--4---6---6--4--6-------7--6--7---|-----7--6--7---9---7--6--4---2---0--0--|
B|---------------------------------------|---------------------------------------|


C|-------------------------------------------------|-------------------------------------------------|
G|-------------------------------------------------|-------------------------------------------------|
D|-------------------------------------------------|-------------------------------------------------|
A|-------------------------------------------------|-------------------------------------------------|
E|-0--0--0--0--0--4--2--2--2--2--2--2--2--6--4--4--|-4--4--4--4--4--7--6--6--6--6--6--6--6--2--4--2--|
B|-------------------------------------------------|-------------------------------------------------|


C|-----------------|-----------------|-----------------|-----------------|---------------------|
G|-----------------|-----------------|-----------------|-----------------|---------------------|
D|-----------------|-----------------|-----------------|-----6-----8-----|-----9-----9---11----|
A|-----------1-----|-----2-----4-----|-----7-----9-----|-----------------|---------------------|
E|-4---4-----------|-----------------|-----------------|-----------------|---------------------|
B|-----------------|-----------------|-----------------|-----------------|---------------------|


C|---------------------|---------------------|-----8-----8---10----|-----------------------------|
G|-----8-----8---9-----|-9---9-----9---11----|-11------------------|-15--------4---4-------4--4--|
D|-11------------------|---------------------|---------------------|-----------------------------|
A|---------------------|---------------------|---------------------|-----2-------------2---------|
E|---------------------|---------------------|---------------------|-----------------------------|
B|---------------------|---------------------|---------------------|-----------------------------|


C|-----------------------------|-----------------------------|-----------------------------|
G|-----------4---4-------4--4--|-----------4---4-------4--4--|-----------4---4-------4--4--|
D|-----------------------------|-----------------------------|-----------------------------|
A|-2---2-------------2---------|-2---2-------------2---------|-2---2-------------2---------|
E|-----------------------------|-----------------------------|-----------------------------|
B|-----------------------------|-----------------------------|-----------------------------|


C|-----------------------------|-----------------------------|-----------------------------|
G|-----------4---4-------4--4--|-----------4---4-------4--4--|-----------4---4-------4--4--|
D|-----------------------------|-----------------------------|-----------------------------|
A|-2---2-------------2---------|-2---2-------------2---------|-2---2-------------2---------|
E|-----------------------------|-----------------------------|-----------------------------|
B|-----------------------------|-----------------------------|-----------------------------|


C|-----------------------------|------------------------|------------------------|
G|-----------4---4-------4--4--|------------------------|------------------------|
D|-----------------------------|------------------------|------------------------|
A|-2---2-------------2---------|-2----------------------|------------------------|
E|-----------------------------|------------------------|------------------------|
B|-----------------------------|-----0-----0---0---0----|-----2-----2---2---2----|


C|------------------------|------------------------|------------------------|------------------------|
G|------------------------|------------------------|------------------------|------------------------|
D|------------------------|------------------------|------------------------|------------------------|
A|------------------------|------------------------|------------------------|------------------------|
E|-----0-----0---0---0----|-0---2-----2---2---2----|-2----------------------|------------------------|
B|-2----------------------|------------------------|-----0-----0---0---0----|-----2-----2---2---2----|


C|---------------------|------------|--------------------------------|---------------------------|
G|---------------------|------------|--------------------------------|---------------------------|
D|---------------------|------------|--------------------------------|---------------------------|
A|---------------------|------------|--------------------------------|---------------------------|
E|-----0-----0---2-----|-2----------|--------------------------------|---------------------------|
B|-2-------------------|-----0------|-----3----3---3---3---3--3--3---|-3---3-----3---3---3---3---|


C|--------------------------|---------------------------|-----------------------------|
G|--------------------------|---------------------------|---------5-------------------|
D|-----------------4--------|---------7------------7----|-7---7-------7--5------------|
A|-------5------------------|-0---0---------------------|-------------------7---5-----|
E|--------------------------|--------------5---5--------|-----------------------------|
B|-3--3---------------------|---------------------------|-----------------------------|


C|---------------------------------|---------------------------|---------------------------|
G|---------------------------------|---------------------------|---------------------------|
D|---------------------------------|---------------------------|-----4----------------7----|
A|-------------0---1---1---1-------|-3---3---3-------5---5-----|--------------0---0--------|
E|-----2---3-----------------------|---------------------------|---------------------------|
B|---------------------------------|---------------------------|---------------------------|


C|--------------------------------|--------------------|---------------------------------|
G|----------------------5---------|--------------------|---------------------------------|
D|---------7----7---7-------7--5--|--------------------|---------------------------------|
A|--------------------------------|-7------------------|---------------------------------|
E|-5---5--------------------------|-----3-----3---3----|-3---3---3---3----3--3---3---3---|
B|--------------------------------|--------------------|---------------------------------|


C|--------------------|---------------------------------|------------------------------|
G|--------------------|---------------------------------|------------------------------|
D|--------------------|-------------------------5---3---|-2----------------------------|
A|--------------------|---------------------------------|------------------------------|
E|-----3-----3---3----|-3---3---3---3---3---3-----------|-----3--------3---3---3---3---|
B|--------------------|---------------------------------|------------------------------|


C|---------------------------------|---------------------------------|---------------------------------|
G|---------------------------------|---------------------------------|---------------------------------|
D|---------------------------------|---------------------------------|---------------------------------|
A|---------------------------------|---------------------------------|-----------------------------3---|
E|-3---3---3---3---3---3---3---3---|-3---3---3---3---3---3---3---3---|-3---1---1---1---1---1---1-------|
B|---------------------------------|---------------------------------|---------------------------------|


C|---------------------------------|---------------------------------|---------------------------------|
G|---------------------------------|---------------------------------|---------------------------------|
D|---------------------------------|-------------------------3---2---|-0-------------------------------|
A|-3---3---3---3---3---1---1---1---|-1---1---1---0---0---0-----------|---------------------------------|
E|---------------------------------|---------------------------------|-----3---3---3---2---2---2---1---|
B|---------------------------------|---------------------------------|---------------------------------|


C|---------------------------------|---------------------------------|---------------------------------|
G|---------------------------------|---------------------------------|---------------------------------|
D|---------------------------------|-------------------------5---5---|-5---4---4---4---3---3---3---2---|
A|---------------------------------|---------------------------------|---------------------------------|
E|-1---1---0---0---3---3---3---2---|-2---2---1---1---0---0-----------|---------------------------------|
B|---------------------------------|---------------------------------|---------------------------------|


C|-------------------------2-------|---------------------------------|----------------------------|
G|---------------------2-----------|-2---5---4-----------------------|----------------------------|
D|-2---5---5---5---4-----------3---|-------------5---2---------------|-----7---5---4--------------|
A|---------------------------------|---------------------6-----------|------------------6----7----|
E|---------------------------------|---------------------------------|----------------------------|
B|---------------------------------|---------------------------------|----------------------------|


C|---------------------------|------------------------|------------------------|-------------|
G|---------------------------|------------------------|------------------------|-------------|
D|---------------------------|------------------------|------------------------|-------------|
A|-7---7---5-----------------|------3--------0--------|------------------------|-------5-----|
E|-------------8---7-----0---|------------------------|-0--------3--------1----|-------------|
B|---------------------------|------------------------|------------------------|-------------|


C|-----------------|---------------------|---------------------|---------------------------------|
G|-----------------|---------------------|---------------------|---------------------------------|
D|-----------------|---------------------|---------------------|---------------------------------|
A|-7-----5---------|------2----5---------|------2----3---------|------5----2---2--2--2--2--2--2--|
E|-----------------|---------------------|---------------------|---------------------------------|
B|-----------------|---------------------|---------------------|---------------------------------|


C|-------------------------------------------------|-------------------------------|
G|-------------------------------------------------|-------------------------------|
D|-------------------------------------------------|-------------------------0-----|
A|-------------------------0--0--0--0--0--0--0--0--|-4--4--4--4--4--4--4--4--------|
E|-4--4--4--4--4--4--4--4--------------------------|-------------------------------|
B|-------------------------------------------------|-------------------------------|


C|-----------------------|-----------------------|-----------------------|------------------------|
G|-------------7---9-----|-9-------7---9---10----|-----------------------|------------------------|
D|-0---9---10------------|-----11----------------|-5---------------------|------------------------|
A|-----------------------|-----------------------|-------7-------5-------|------------------------|
E|-----------------------|-----------------------|-----------------------|-7-------4----0---------|
B|-----------------------|-----------------------|-----------------------|------------------------|


C|-------------------------------|------------------------------------|---------------------------------------|
G|-------------------------------|------------------------------------|---------------------------------------|
D|-------------------------------|------------------------------------|---------------------------------------|
A|-------------------------------|------------------------------------|---------------------------------------|
E|-1---1--1--1----1---1--1--1----|-1----1---1--1--1---1--1--3---3--3--|-3---3--3--5----5--5--5--5--5-------7--|
B|-------------------------------|------------------------------------|---------------------------------------|


C|----------------|-------------|-------------|-------------|--------------------------|
G|----------------|-------------|-------------|-------------|--------------------------|
D|----------------|-------------|-------------|-------------|--------------------------|
A|----------------|-------------|------1------|------1------|------5----5----5---5--5--|
E|-7---7---3------|------3------|-------------|-------------|--------------------------|
B|----------------|-------------|-------------|-------------|--------------------------|


C|-----------------------------|-----------------------------|-----------------------------|
G|-----------------------------|-----------------------------|-----------------------------|
D|-----------------------------|-----------------------------|-----------------------------|
A|-5---5-----------------------|---------0----0----0---0--0--|-0---0-----------------------|
E|---------3----3----3---3--3--|-3---3-----------------------|---------0----0----0---0--0--|
B|-----------------------------|-----------------------------|-----------------------------|


C|---------------------------|-----------------|-------------|-------------|-------------|
G|---------------------------|-----------------|-------------|-------------|-------------|
D|---------------------------|-----------------|-------------|-------------|-------------|
A|---------------------------|-5----5----------|-------------|-------------|-------------|
E|-0---0---1----1----1---1---|------------0----|--------0----|--------0----|--------0----|
B|---------------------------|-----------------|-------------|-------------|-------------|


C|-------------------------|-----------------------------------------------------|
G|-------------------------|-----------------------------------------------------|
D|-------------------------|-------------------------------------2---------------|
A|-------------------------|-------------------------------2--4------------------|
E|------------2--2-----2-2-|-2--2--2-2-2-2-2--2-----2-2-2-----------2--2-----2-2-|
B|-------------------------|-----------------------------------------------------|


C|-----------------------------------------------------|-----------------------------------------------------|
G|-----------------------------------------------------|-----------------------------------------------------|
D|-----------------------------------------------------|-------------------------------------2---------------|
A|----------------------------0--0---------------------|-------------------------------2--4------------------|
E|-2--2--2-2-2-2-2--2-----2-2-------2--0--2--2-----2-2-|-2--2--2-2-2-2-2--2-----2-2-2-----------2--2-----2-2-|
B|-----------------------------------------------------|-----------------------------------------------------|


C|-----------------------------------------------------|--------------------------------------------|
G|-----------------------------------------------------|--------------------------------------------|
D|-----------------------------------------------------|--------------------------------------------|
A|----------------------------0--0---------------------|--------------------------------------------|
E|-2--2--2-2-2-2-2--2-----2-2-------2--0--2--2-----2-2-|-2--2--2-2-2-2-2--2-----2-2-2---3---4---5---|
B|-----------------------------------------------------|--------------------------------------------|


C|---------------------------------|---------------------------------|---------------------------------|
G|---------------------------------|---------------------------------|---------------------------------|
D|---------------------------------|---------------------------------|---------------------------------|
A|-2---5---4-----------------------|---------4---7---6---------------|-----------------2---5---4-------|
E|-------------3-------0---4---5---|-6---7---------------5-------0---|-2---3---4---5---------------3---|
B|---------------------------------|---------------------------------|---------------------------------|


C|---------------------------------|---------------------------------|---------------------------------|
G|---------------------------------|---------------------------------|---------------------------------|
D|---------------------------------|---------------------------------|---------------------------------|
A|-------------------------4---7---|-6---------------------------2---|-5---4---------------------------|
E|-----0---4---5---6---7-----------|-----5---0---2---3---4---5-------|---------3-------0---4---5---6---|
B|---------------------------------|---------------------------------|---------------------------------|


C|---------------------------------|---------------------------------|---------------------------------|
G|---------------------------------|---------------------------------|---------------------------------|
D|---------------------------------|---------------------------------|---------------------------------|
A|-----4---7---6-------------------|-------------2---5---4-----------|---------------------4---7---6---|
E|-7---------------5-------0---2---|-3---4---5---------------3-------|-0---4---5---6---7---------------|
B|---------------------------------|---------------------------------|---------------------------------|


C|------------------------------|---------------------------------|------------------------------|
G|------------------------------|---------------------------------|------------------------------|
D|---------------------9---8----|-----6---6---------------7---6---|-----5------------------------|
A|---------7-------7------------|-7---------------4---5-----------|---------3------------7-------|
E|-5---0-------0----------------|---------------------------------|-3-----------1------------0---|
B|------------------------------|---------------------------------|------------------------------|


C|------------------------------|---------------------------|------------------------|
G|------------------------------|---------------------------|------------------------|
D|-----9---8--------6---6-------|-----5---7-------------3---|-5----------------------|
A|-7------------7---------------|-8-----------5-----6-------|-----3-----4---3---2----|
E|------------------------------|---------------------------|------------------------|
B|------------------------------|---------------------------|------------------------|


C|------------------------------|---------------------------------|------------------------------|
G|------------------------------|---------------------------------|------------------------------|
D|-------------9---8--------6---|-6---------------7---6-------5---|--------------------------9---|
A|-7-------7------------7-------|---------4---5-------------------|-3------------7-------7-------|
E|-----0------------------------|-------------------------3-------|-----1------------0-----------|
B|------------------------------|---------------------------------|------------------------------|


C|------------------------------|-------------------------------|---------------------------|
G|------------------------------|-------------------------------|---------------------------|
D|-8--------6---6-----------5---|-7----------------3---5--------|---------------------------|
A|------7---------------8-------|-----5--------6----------------|---------------------------|
E|------------------------------|-------------------------------|-----------3---8---6-6-8-8-|
B|------------------------------|--------------------------1----|-------1-------------------|


C|--------------------------------------14--1415-14------|------------------------14151415-------------------------14-|
G|----------------------12101212141517--------------15-14|---15-14---1415---141517--------1514------------14-15-17----|
D|------------------1010---------------------------------|---------17-----17------------------17151315-17-------------|
A|-----8--1010121213-------------------------------------|------------------------------------------------------------|
E|-1010--------------------------------------------------|------------------------------------------------------------|
B|-------------------------------------------------------|------------------------------------------------------------|


C|-15-17-15-14----15--15---|
G|-------------------------|
D|-------------------------|
A|-------------------------|
E|-------------------------|
B|-------------------------|