Menu:

 

Search:

 

dream theater - endless sacrifice:

 



Title: Endless sacrifice
Artist: 
Album: Train of thought
Author: Dream Theater


Track 1: Untitled

C|--------|--------|--------|--------|--------|--------|--------|--------|--------|
G|--------|--------|--------|--------|--------|--------|--------|--------|--------|
D|--------|--------|--------|--------|--------|--------|--------|--------|--------|
A|--------|--------|--------|--------|--------|--------|--------|--------|--------|
E|--------|--------|--------|--------|--------|--------|--------|--------|--------|
B|--------|--------|--------|--------|--------|--------|--------|--------|--------|


C|--------|--------|--------|--------|--------|--------|--------|--------|--------|
G|--------|--------|--------|--------|--------|--------|--------|--------|--------|
D|--------|--------|--------|--------|--------|--------|--------|--------|--------|
A|--------|--------|--------|--------|--------|--------|--------|--------|--------|
E|--------|--------|--------|--------|--------|--------|--------|--------|--------|
B|--------|--------|--------|--------|--------|--------|--------|--------|--------|


C|--------|--------|--------|--------|--------|--------|--------|--------|--------|
G|--------|--------|--------|--------|--------|--------|--------|--------|--------|
D|--------|--------|--------|--------|--------|--------|--------|--------|--------|
A|--------|--------|--------|--------|--------|--------|--------|--------|--------|
E|--------|--------|--------|--------|--------|--------|--------|--------|--------|
B|--------|--------|--------|--------|--------|--------|--------|--------|--------|


C|--------|--------|--------|--------|--------|--------|--------|--------|--------|
G|--------|--------|--------|--------|--------|--------|--------|--------|--------|
D|--------|--------|--------|--------|--------|--------|--------|--------|--------|
A|--------|--------|--------|--------|--------|--------|--------|--------|--------|
E|--------|--------|--------|--------|--------|--------|--------|--------|--------|
B|--------|--------|--------|--------|--------|--------|--------|--------|--------|


C|--------|--------|--------|--------|--------|--------|--------|--------|--------|
G|--------|--------|--------|--------|--------|--------|--------|--------|--------|
D|--------|--------|--------|--------|--------|--------|--------|--------|--------|
A|--------|--------|--------|--------|--------|--------|--------|--------|--------|
E|--------|--------|--------|--------|--------|--------|--------|--------|--------|
B|--------|--------|--------|--------|--------|--------|--------|--------|--------|


C|--------|--------|--------|--------|--------|--------|--------|--------|--------|
G|--------|--------|--------|--------|--------|--------|--------|--------|--------|
D|--------|--------|--------|--------|--------|--------|--------|--------|--------|
A|--------|--------|--------|--------|--------|--------|--------|--------|--------|
E|--------|--------|--------|--------|--------|--------|--------|--------|--------|
B|--------|--------|--------|--------|--------|--------|--------|--------|--------|


C|--------|--------|--------|--------|--------|--------|--------|--------|--------|
G|--------|--------|--------|--------|--------|--------|--------|--------|--------|
D|--------|--------|--------|--------|--------|--------|--------|--------|--------|
A|--------|--------|--------|--------|--------|--------|--------|--------|--------|
E|--------|--------|--------|--------|--------|--------|--------|--------|--------|
B|--------|--------|--------|--------|--------|--------|--------|--------|--------|


C|--------|--------|--------|--------|--------|--------|--------|--------|--------|
G|--------|--------|--------|--------|--------|--------|--------|--------|--------|
D|--------|--------|--------|--------|--------|--------|--------|--------|--------|
A|--------|--------|--------|--------|--------|--------|--------|--------|--------|
E|--------|--------|--------|--------|--------|--------|--------|--------|--------|
B|--------|--------|--------|--------|--------|--------|--------|--------|--------|


C|--------|--------|--------|--------|--------|--------|--------|--------|--------|
G|--------|--------|--------|--------|--------|--------|--------|--------|--------|
D|--------|--------|--------|--------|--------|--------|--------|--------|--------|
A|--------|--------|--------|--------|--------|--------|--------|--------|--------|
E|--------|--------|--------|--------|--------|--------|--------|--------|--------|
B|--------|--------|--------|--------|--------|--------|--------|--------|--------|


C|--------|--------|--------|--------|--------|--------|--------|--------|--------|
G|--------|--------|--------|--------|--------|--------|--------|--------|--------|
D|--------|--------|--------|--------|--------|--------|--------|--------|--------|
A|--------|--------|--------|--------|--------|--------|--------|--------|--------|
E|--------|--------|--------|--------|--------|--------|--------|--------|--------|
B|--------|--------|--------|--------|--------|--------|--------|--------|--------|


C|--------|--------|--------|--------|--------|--------|--------|--------|--------|
G|--------|--------|--------|--------|--------|--------|--------|--------|--------|
D|--------|--------|--------|--------|--------|--------|--------|--------|--------|
A|--------|--------|--------|--------|--------|--------|--------|--------|--------|
E|--------|--------|--------|--------|--------|--------|--------|--------|--------|
B|--------|--------|--------|--------|--------|--------|--------|--------|--------|


C|--------|--------|--------|--------|--------|--------|--------|--------|--------|
G|--------|--------|--------|--------|--------|--------|--------|--------|--------|
D|--------|--------|--------|--------|--------|--------|--------|--------|--------|
A|--------|--------|--------|--------|--------|--------|--------|--------|--------|
E|--------|--------|--------|--------|--------|--------|--------|--------|--------|
B|--------|--------|--------|--------|--------|--------|--------|--------|--------|


C|--------|--------|--------|--------|--------|--------|--------|--------|--------|
G|--------|--------|--------|--------|--------|--------|--------|--------|--------|
D|--------|--------|--------|--------|--------|--------|--------|--------|--------|
A|--------|--------|--------|--------|--------|--------|--------|--------|--------|
E|--------|--------|--------|--------|--------|--------|--------|--------|--------|
B|--------|--------|--------|--------|--------|--------|--------|--------|--------|


C|--------|--------|--------|--------|--------|--------|--------|--------|--------|
G|--------|--------|--------|--------|--------|--------|--------|--------|--------|
D|--------|--------|--------|--------|--------|--------|--------|--------|--------|
A|--------|--------|--------|--------|--------|--------|--------|--------|--------|
E|--------|--------|--------|--------|--------|--------|--------|--------|--------|
B|--------|--------|--------|--------|--------|--------|--------|--------|--------|


C|--------|--------|--------|--------|--------|--------|--------|--------|--------|
G|--------|--------|--------|--------|--------|--------|--------|--------|--------|
D|--------|--------|--------|--------|--------|--------|--------|--------|--------|
A|--------|--------|--------|--------|--------|--------|--------|--------|--------|
E|--------|--------|--------|--------|--------|--------|--------|--------|--------|
B|--------|--------|--------|--------|--------|--------|--------|--------|--------|


C|--------|--------|--------|--------|--------|--------|--------|--------|--------|
G|--------|--------|--------|--------|--------|--------|--------|--------|--------|
D|--------|--------|--------|--------|--------|--------|--------|--------|--------|
A|--------|--------|--------|--------|--------|--------|--------|--------|--------|
E|--------|--------|--------|--------|--------|--------|--------|--------|--------|
B|--------|--------|--------|--------|--------|--------|--------|--------|--------|


C|--------|--------|--------|--------|--------|--------|--------|--------|--------|
G|--------|--------|--------|--------|--------|--------|--------|--------|--------|
D|--------|--------|--------|--------|--------|--------|--------|--------|--------|
A|--------|--------|--------|--------|--------|--------|--------|--------|--------|
E|--------|--------|--------|--------|--------|--------|--------|--------|--------|
B|--------|--------|--------|--------|--------|--------|--------|--------|--------|


C|--------|--------|--------|--------|--------|--------|--------|--------|--------|
G|--------|--------|--------|--------|--------|--------|--------|--------|--------|
D|--------|--------|--------|--------|--------|--------|--------|--------|--------|
A|--------|--------|--------|--------|--------|--------|--------|--------|--------|
E|--------|--------|--------|--------|--------|--------|--------|--------|--------|
B|--------|--------|--------|--------|--------|--------|--------|--------|--------|


C|--------|--------|--------|--------|--------|--------|--------|--------|--------|
G|--------|--------|--------|--------|--------|--------|--------|--------|--------|
D|--------|--------|--------|--------|--------|--------|--------|--------|--------|
A|--------|--------|--------|--------|--------|--------|--------|--------|--------|
E|--------|--------|--------|--------|--------|--------|--------|--------|--------|
B|--------|--------|--------|--------|--------|--------|--------|--------|--------|


C|--------|--------|--------|--------|--------|--------|--------|--------|--------|
G|--------|--------|--------|--------|--------|--------|--------|--------|--------|
D|--------|--------|--------|--------|--------|--------|--------|--------|--------|
A|--------|--------|--------|--------|--------|--------|--------|--------|--------|
E|--------|--------|--------|--------|--------|--------|--------|--------|--------|
B|--------|--------|--------|--------|--------|--------|--------|--------|--------|


C|--------|--------|--------|--------|--------|--------|--------|--------|--------|
G|--------|--------|--------|--------|--------|--------|--------|--------|--------|
D|--------|--------|--------|--------|--------|--------|--------|--------|--------|
A|--------|--------|--------|--------|--------|--------|--------|--------|--------|
E|--------|--------|--------|--------|--------|--------|--------|--------|--------|
B|--------|--------|--------|--------|--------|--------|--------|--------|--------|


C|--------|--------|--------|--------|--------|--------|--------|--------|--------|
G|--------|--------|--------|--------|--------|--------|--------|--------|--------|
D|--------|--------|--------|--------|--------|--------|--------|--------|--------|
A|--------|--------|--------|--------|--------|--------|--------|--------|--------|
E|--------|--------|--------|--------|--------|--------|--------|--------|--------|
B|--------|--------|--------|--------|--------|--------|--------|--------|--------|


C|--------|--------|--------|--------|--------|--------|--------|--------|--------|
G|--------|--------|--------|--------|--------|--------|--------|--------|--------|
D|--------|--------|--------|--------|--------|--------|--------|--------|--------|
A|--------|--------|--------|--------|--------|--------|--------|--------|--------|
E|--------|--------|--------|--------|--------|--------|--------|--------|--------|
B|--------|--------|--------|--------|--------|--------|--------|--------|--------|


C|--------|--------|--------|--------|--------|--------|--------|--------|--------|
G|--------|--------|--------|--------|--------|--------|--------|--------|--------|
D|--------|--------|--------|--------|--------|--------|--------|--------|--------|
A|--------|--------|--------|--------|--------|--------|--------|--------|--------|
E|--------|--------|--------|--------|--------|--------|--------|--------|--------|
B|--------|--------|--------|--------|--------|--------|--------|--------|--------|


C|--------|--------|--------|--------|--------|--------|--------|--------|--------|
G|--------|--------|--------|--------|--------|--------|--------|--------|--------|
D|--------|--------|--------|--------|--------|--------|--------|--------|--------|
A|--------|--------|--------|--------|--------|--------|--------|--------|--------|
E|--------|--------|--------|--------|--------|--------|--------|--------|--------|
B|--------|--------|--------|--------|--------|--------|--------|--------|--------|


C|--------|--------|--------|--------|--------|--------|--------|--------|--------|
G|--------|--------|--------|--------|--------|--------|--------|--------|--------|
D|--------|--------|--------|--------|--------|--------|--------|--------|--------|
A|--------|--------|--------|--------|--------|--------|--------|--------|--------|
E|--------|--------|--------|--------|--------|--------|--------|--------|--------|
B|--------|--------|--------|--------|--------|--------|--------|--------|--------|


C|--------|--------|--------|--------|--------|--------|--------|--------|--------|
G|--------|--------|--------|--------|--------|--------|--------|--------|--------|
D|--------|--------|--------|--------|--------|--------|--------|--------|--------|
A|--------|--------|--------|--------|--------|--------|--------|--------|--------|
E|--------|--------|--------|--------|--------|--------|--------|--------|--------|
B|--------|--------|--------|--------|--------|--------|--------|--------|--------|


C|--------|--------|--------|--------|--------|--------|--------|--------|--------|
G|--------|--------|--------|--------|--------|--------|--------|--------|--------|
D|--------|--------|--------|--------|--------|--------|--------|--------|--------|
A|--------|--------|--------|--------|--------|--------|--------|--------|--------|
E|--------|--------|--------|--------|--------|--------|--------|--------|--------|
B|--------|--------|--------|--------|--------|--------|--------|--------|--------|


C|--------|--------|--------|--------|--------|--------|--------|--------|--------|
G|--------|--------|--------|--------|--------|--------|--------|--------|--------|
D|--------|--------|--------|--------|--------|--------|--------|--------|--------|
A|--------|--------|--------|--------|--------|--------|--------|--------|--------|
E|--------|--------|--------|--------|--------|--------|--------|--------|--------|
B|--------|--------|--------|--------|--------|--------|--------|--------|--------|


C|--------|--------|--------|--------|--------|--------|--------|--------|--------|
G|--------|--------|--------|--------|--------|--------|--------|--------|--------|
D|--------|--------|--------|--------|--------|--------|--------|--------|--------|
A|--------|--------|--------|--------|--------|--------|--------|--------|--------|
E|--------|--------|--------|--------|--------|--------|--------|--------|--------|
B|--------|--------|--------|--------|--------|--------|--------|--------|--------|


C|--------|--------|--------|--------|--------|--------|--------|--------|--------|
G|--------|--------|--------|--------|--------|--------|--------|--------|--------|
D|--------|--------|--------|--------|--------|--------|--------|--------|--------|
A|--------|--------|--------|--------|--------|--------|--------|--------|--------|
E|--------|--------|--------|--------|--------|--------|--------|--------|--------|
B|--------|--------|--------|--------|--------|--------|--------|--------|--------|


C|--------|--------|--------|--------|--------|--------|--------|--------|--------|
G|--------|--------|--------|--------|--------|--------|--------|--------|--------|
D|--------|--------|--------|--------|--------|--------|--------|--------|--------|
A|--------|--------|--------|--------|--------|--------|--------|--------|--------|
E|--------|--------|--------|--------|--------|--------|--------|--------|--------|
B|--------|--------|--------|--------|--------|--------|--------|--------|--------|


C|--------|--------|--------|--------|--------|--------|--------|--------|--------|
G|--------|--------|--------|--------|--------|--------|--------|--------|--------|
D|--------|--------|--------|--------|--------|--------|--------|--------|--------|
A|--------|--------|--------|--------|--------|--------|--------|--------|--------|
E|--------|--------|--------|--------|--------|--------|--------|--------|--------|
B|--------|--------|--------|--------|--------|--------|--------|--------|--------|


C|--------|--------|--------|--------|--------|--------|--------|--------|--------|
G|--------|--------|--------|--------|--------|--------|--------|--------|--------|
D|--------|--------|--------|--------|--------|--------|--------|--------|--------|
A|--------|--------|--------|--------|--------|--------|--------|--------|--------|
E|--------|--------|--------|--------|--------|--------|--------|--------|--------|
B|--------|--------|--------|--------|--------|--------|--------|--------|--------|


C|--------|
G|--------|
D|--------|
A|--------|
E|--------|
B|--------|





Track 2: Fretless Bass

C|--------|--------|--------|--------|-------------|-----------------|--------------------|
G|--------|--------|--------|--------|-------------|-----------------|------14--12--------|
D|--------|--------|--------|--------|-------12----|-12--------------|------15--14--------|
A|--------|--------|--------|--------|-------------|-------12--13----|-15-----------------|
E|--------|--------|--------|--------|-------------|-----------------|--------------10----|
B|--------|--------|--------|--------|-------------|-----------------|--------------------|


C|-----------------|-5-----4------------------|----------------|-----------------|
G|-----------------|-----------6----6--7--6---|----------------|-----------------|
D|-----------------|--------------------------|-8---7----------|-----------------|
A|-----------------|--------------------------|----------------|------1-----2----|
E|-10--------6-----|--------------------------|----------------|-----------------|
B|-------6---------|--------------------------|---------3------|-----------------|


C|-----------------|------------------------|------------------------|-------------|
G|-----------------|------------------------|------------------------|-------------|
D|-----------------|------------------------|------------------------|-------------|
A|-0---------------|------------------------|------------------------|--------1----|
E|-----------------|-----5---6-----6---1----|------0----6---5--------|-------------|
B|------3-----3----|------------------------|-------------------3----|-------------|


C|-----------------|---------------------|--------------------|--------------------|
G|-----------------|---------------------|--------------------|--------------------|
D|-----------------|---------------------|--------------------|--------------------|
A|------3----------|---------------------|--------------------|--------------------|
E|-----------------|------------5---6----|-----6---1-----5----|------6---5---------|
B|------------3----|------3--------------|--------------------|--------------3-----|


C|-------------|-----------------|---------------------|--------------------|-----------------|
G|-------------|-----------------|---------------------|--------------------|-----------------|
D|-------------|-----------------|---------------------|--------------------|-----------------|
A|-------1-----|-2----0----------|---------------------|--------------------|-------------0---|
E|-------------|-----------------|-------5---6-----6---|-1-----0----6---5---|-----------------|
B|-------------|-----------3-----|-3-------------------|--------------------|-3-----3---------|


C|-------------|-----------------|-----------------|--------------------|---------------------|
G|-------------|-----------------|-----------------|--------------------|---------------------|
D|-------------|-----------------|-----------------|--------------------|---------------------|
A|-1-----3-----|-----------------|-----------------|--------------------|------------0---1----|
E|-------------|-------------5---|-6-----6---1-----|-5-----6---5--------|---------------------|
B|-------------|-3-----3---------|-----------------|---------------3----|------3--------------|


C|---------------------|---------------------|--------------------|--------------------|
G|---------------------|---------------------|--------------------|--------------------|
D|---------------------|---------------------|--------------------|--------------------|
A|------2----0---------|---------------------|--------------------|--------------------|
E|---------------------|------------5---6----|-----6---1-----0----|-6---5--------------|
B|----------------3----|------3--------------|--------------------|---------3-----3----|


C|--------------------|-----------------|------------------------|--------------------|
G|--------------------|-----------------|------------------------|--------------------|
D|--------------------|-----------------|------------------------|--------------------|
A|-----0---1-----3----|-----------------|------------------------|--------------------|
E|--------------------|-----------------|-----5---6-----6---1----|------5-----6---5---|
B|--------------------|------3-----3----|------------------------|--------------------|


C|---------------------|-----------------|--------------------------------|-----------------|
G|---------------------|-----------------|--------------------------------|-----------------|
D|---------------------|-----------------|--------------------------------|-----------------|
A|-----------10----10--|-7-----6-----6---|-----10---10--10-12-10--10------|-----------------|
E|-3-----3-------------|-----------------|-3--------------------------10--|-8-----8---2-----|
B|---------------------|-----------------|--------------------------------|-----------------|


C|---------------------|--------------------|--------------------------------|--------------------|
G|---------------------|--------------------|--------------------------------|--------------------|
D|---------------------|--------------------|--------------------------------|--------------------|
A|----------------10---|-----10--7-----8----|-----8-------10---10--10-12-10--|-10--8---7-----6----|
E|------3-----3--------|--------------------|---------3----------------------|--------------------|
B|---------------------|--------------------|--------------------------------|--------------------|


C|-----------------|------------------------------------|---------------------------------------|
G|-----------------|------------------------------------|---------------------------------------|
D|-----------------|------------------------------------|---------------------------------------|
A|-6----1-----3----|------------------------------------|---------------------------------0--1--|
E|-----------------|--------------1--3------------1--3--|-----------------1--3------------------|
B|-----------------|------3----3--------3---3--3--------|-3-------3----3--------3---3--3--------|


C|---------------------------------------|---------------------------------------|
G|---------------------------------------|---------------------------------------|
D|---------------------------------------|---------------------------------------|
A|-0-------------------------------------|---------------------------1--1--1--1--|
E|-----0-----------1--3------------1--3--|-----------------1--3------------------|
B|---------3----3--------3---3--3--------|-3-------3----3--------3---------------|


C|-------------------------------------------|---------------------------------------|
G|-------------------------------------------|---------------------------------------|
D|-------------------------------------------|---------------------------------------|
A|-3--3--3--3--------------------------------|---------------------------------0--1--|
E|---------------------1--3------------1--3--|-----------------1--3------------------|
B|-------------3----3--------3---3--3--------|-3-------3----3--------3---3--3--------|


C|---------------------------------------|---------------------------------------|
G|---------------------------------------|---------------------------------------|
D|---------------------------------------|---------------------------------------|
A|-0-------------------------------------|---------------------------1--1--1--1--|
E|-----0-----------1--3------------1--3--|-----------------1--3------------------|
B|---------3----3--------3---3--3--------|-3-------3----3--------3---------------|


C|--------------------|-------------|-------------|--------------------|-------------|
G|--------------------|-------------|-------------|--------------------|-------------|
D|--------------------|-------------|-------------|--------------------|-------------|
A|-3--3--3--3---------|-------------|-------------|---------------4----|-------------|
E|--------------------|-------------|------3------|-3---5---6----------|-------------|
B|-------------3------|------5------|-------------|--------------------|------3------|


C|-------------|-------------|--------------------|-------------|-----------------|
G|-------------|-------------|--------------------|-------------|-----------------|
D|-------------|-------------|--------------------|-------------|-----------------|
A|-------------|-------------|---------------4----|-------------|------1-----2----|
E|-------------|------3------|-3---5---6----------|-------------|-----------------|
B|------5------|-------------|--------------------|------3------|-----------------|


C|-----------------|------------------------|------------------------|---------------------|
G|-----------------|------------------------|------------------------|---------------------|
D|-----------------|------------------------|------------------------|---------------------|
A|-0---------------|------------------------|------------------------|------------0---1----|
E|-----------------|-----5---6-----6---1----|------0----6---5--------|---------------------|
B|------3-----3----|------------------------|-------------------3----|------3--------------|


C|-----------------|---------------------|--------------------|--------------------|
G|-----------------|---------------------|--------------------|--------------------|
D|-----------------|---------------------|--------------------|--------------------|
A|------3----------|---------------------|--------------------|--------------------|
E|-----------------|------------5---6----|-----6---1-----5----|------6---5---------|
B|------------3----|------3--------------|--------------------|--------------3-----|


C|-----------------|-----------------|---------------------|--------------------|-----------------|
G|-----------------|-----------------|---------------------|--------------------|-----------------|
D|-----------------|-----------------|---------------------|--------------------|-----------------|
A|-------0---1-----|-2----0----------|---------------------|--------------------|-------------0---|
E|-----------------|-----------------|-------5---6-----6---|-1-----0----6---5---|-----------------|
B|-3---------------|-----------3-----|-3-------------------|--------------------|-3-----3---------|


C|--------------------|-----------------|-----------------------|--------------------|
G|--------------------|-----------------|-----------------------|--------------------|
D|--------------------|-----------------|-----------------------|--------------------|
A|-1-----3---3---3----|-----------------|-----------------------|--------------------|
E|--------------------|-------------5---|-6---6---6---6---1-----|-5-----6---5---3----|
B|--------------------|-3-----3---------|-----------------------|--------------------|


C|------------------------|------------------------|--------------------------------|
G|------------------------|------------------------|--------------------------------|
D|------------------------|------------------------|--------------------------------|
A|---------10----10--7----|------6-----6-------10--|-----10--10-12-10--10-----------|
E|-----3------------------|----------------3-------|-----------------------10--8----|
B|------------------------|------------------------|--------------------------------|


C|----------------|---------------------|-----------------|--------------------------------|
G|----------------|---------------------|-----------------|--------------------------------|
D|----------------|---------------------|-----------------|--------------------------------|
A|----------------|-----------10----10--|-7-----8-----8---|-----10---10--10-12-10--10--8---|
E|-----8---2------|-3-----3-------------|-----------------|-3------------------------------|
B|----------------|---------------------|-----------------|--------------------------------|


C|-----------------|-------------|---------------------------------------|---------------------------------------|
G|-----------------|-------------|---------------------------------------|---------------------------------------|
D|-----------------|-------------|---------------------------------------|---------------------------------------|
A|-7-----6----6----|-1-----3-----|---------------------------------------|-------------------------0--1--0-------|
E|-----------------|-------------|---------1--3------------1--3----------|---------1--3----------------------0---|
B|-----------------|-------------|-3----3--------3---3--3--------3-------|-3----3--------3---3--3----------------|


C|---------------------------------------|-------------------------------------------|
G|---------------------------------------|-------------------------------------------|
D|---------------------------------------|-------------------------------------------|
A|---------------------------------------|-------------------1--1--1--1--3--3--3--3--|
E|---------1--3------------1--3----------|---------1--3------------------------------|
B|-3----3--------3---3--3--------3-------|-3----3--------3---------------------------|


C|---------------------------------------|---------------------------------------|
G|---------------------------------------|---------------------------------------|
D|---------------------------------------|---------------------------------------|
A|---------------------------------------|-------------------------0--1--0-------|
E|---------1--3------------1--3----------|---------1--3----------------------0---|
B|-3----3--------3---3--3--------3-------|-3----3--------3---3--3----------------|


C|---------------------------------------|-------------------------------------------|
G|---------------------------------------|-------------------------------------------|
D|---------------------------------------|-------------------------------------------|
A|---------------------------------------|-------------------1--1--1--1--3--3--3--3--|
E|---------1--3------------1--3----------|---------1--3------------------------------|
B|-3----3--------3---3--3--------3-------|-3----3--------3---------------------------|


C|---------------------------------------|---------------------------------------|
G|---------------------------------------|---------------------------------------|
D|---------------------------------------|---------------------------------------|
A|---------------------------------------|-------------------------0--1--0-------|
E|---------1--3------------1--3----------|---------1--3----------------------0---|
B|-3----3--------3---3--3--------3-------|-3----3--------3---3--3----------------|


C|---------------------------------------|-------------------------------------------|
G|---------------------------------------|-------------------------------------------|
D|---------------------------------------|-------------------------------------------|
A|---------------------------------------|-------------------1--1--1--1--3--3--3--3--|
E|---------1--3------------1--3----------|---------1--3------------------------------|
B|-3----3--------3---3--3--------3-------|-3----3--------3---------------------------|


C|---------------------------------------|---------------------------------------|
G|---------------------------------------|---------------------------------------|
D|---------------------------------------|---------------------------------------|
A|---------------------------------------|-------------------------0--1--0-------|
E|---------1--3------------1--3----------|---------1--3----------------------0---|
B|-3----3--------3---3--3--------3-------|-3----3--------3---3--3----------------|


C|---------------------------------------|-------------------------------------------|
G|---------------------------------------|-------------------------------------------|
D|---------------------------------------|-------------------------------------------|
A|---------------------------------------|-------------------1--1--1--1--3--3--3--3--|
E|---------1--3------------1--3----------|---------1--3------------------------------|
B|-3----3--------3---3--3--------3-------|-3----3--------3---------------------------|


C|--------|--------|--------|--------|--------|-------------|------------------------|
G|--------|--------|--------|--------|--------|-------------|------------------------|
D|--------|--------|--------|--------|--------|-------------|------------------------|
A|--------|--------|--------|--------|--------|-------------|------------------------|
E|--------|--------|--------|--------|--------|-------------|-------10--10--10--10---|
B|-3------|-3------|-3------|-3------|-3------|-15----------|------------------------|


C|-----------------|------------------------|--------|--------|----------------------------------|
G|-----------------|------------------------|--------|--------|----------------------------------|
D|-----------------|------------------------|--------|--------|----------------------------------|
A|-----------------|------------------------|--------|--------|----------------------------------|
E|-----------------|-------10-10-10-10-10---|--------|--------|-------------------6--------------|
B|-------3---------|------------------------|--------|--------|-6--5--3---3---3--------6--5--3---|


C|--------------------------------|----------------------------------|--------------------------------|
G|--------------------------------|----------------------------------|--------------------------------|
D|--------------------------------|----------------------------------|--------------------------------|
A|--------------------------------|----------------------------------|--------------------------------|
E|-------------------4-------4----|-------------------6--------------|-------------------4-------4----|
B|-6--5--3---3---3-------3--------|-6--5--3---3---3--------6--5--3---|-6--5--3---3---3-------3--------|


C|----------------------------------|--------------------------------|----------------------------------|
G|----------------------------------|--------------------------------|----------------------------------|
D|----------------------------------|--------------------------------|----------------------------------|
A|----------------------------------|--------------------------------|----------------------------------|
E|-------------------6--------------|-------------------4-------4----|-------------------6--------------|
B|-6--5--3---3---3--------6--5--3---|-6--5--3---3---3-------3--------|-6--5--3---3---3--------6--5--3---|


C|--------------------------------|----------------------------------|--------------------------------|
G|--------------------------------|----------------------------------|--------------------------------|
D|--------------------------------|----------------------------------|--------------------------------|
A|--------------------------------|----------------------------------|--------------------------------|
E|-------------------4-------4----|-------------------6--------------|-------------------4-------4----|
B|-6--5--3---3---3-------3--------|-6--5--3---3---3--------6--5--3---|-6--5--3---3---3-------3--------|


C|----------------------------------|--------------------------------|----------------------------------|
G|----------------------------------|--------------------------------|----------------------------------|
D|----------------------------------|--------------------------------|----------------------------------|
A|----------------------------------|--------------------------------|----------------------------------|
E|-------------------6--------------|-------------------4-------4----|-------------------6--------------|
B|-6--5--3---3---3--------6--5--3---|-6--5--3---3---3-------3--------|-6--5--3---3---3--------6--5--3---|


C|--------------------------------|----------------------------------|--------------------------------|
G|--------------------------------|----------------------------------|--------------------------------|
D|--------------------------------|----------------------------------|--------------------------------|
A|--------------------------------|----------------------------------|--------------------------------|
E|-------------------4-------4----|-------------------6--------------|-------------------4-------4----|
B|-6--5--3---3---3-------3--------|-6--5--3---3---3--------6--5--3---|-6--5--3---3---3-------3--------|


C|--------------------------------|--------------------------------|--------------------------------|
G|--------------------------------|--------------------------------|--------------------------------|
D|--------------------------------|--------------------------------|--------------------------------|
A|--------------------------------|--------------------------------|--------------------------------|
E|-0---0---3--2--0---0---0---6----|-0---0---3--2--0---6-------4----|-0---0---3--2--0---0---0---6----|
B|--------------------------------|--------------------------------|--------------------------------|


C|--------------------------------|--------------------------------|--------------------------------|
G|--------------------------------|--------------------------------|--------------------------------|
D|--------------------------------|--------------------------------|--------------------------------|
A|--------------------------------|--------------------------------|--------------------------------|
E|-0---0---3--2--0---6---5---4----|-0---0---3--2--0---0---0---6----|-0---0---3--2--0---6-------4----|
B|--------------------------------|--------------------------------|--------------------------------|


C|--------------------------------|--------------------------------|---------------------------------|
G|--------------------------------|--------------------------------|---------------------------------|
D|--------------------------------|--------------------------------|---------------------------------|
A|--------------------------------|--------------------------------|-10------10--8---7-------7---6---|
E|-0---0---3--2--0---0---0---6----|-0---0---3--2--0---6---5---4----|-----10--------------8-----------|
B|--------------------------------|--------------------------------|---------------------------------|


C|------------------------------|---------------------------------|---------------------------------|
G|------------------------------|---------------------------------|---------------------------------|
D|-------------------------8----|---------------------------------|-----11------12------------------|
A|-----6---------------8--------|-10------10--8---7---------------|-10------12--------------12--10--|
E|-6-------8---9---10-----------|-----10--------------8---8---9---|-----------------9---10----------|
B|------------------------------|---------------------------------|---------------------------------|


C|---------------------------------|------------------------------|---------------------------------|
G|---------------------------------|------------------------------|---------------------------------|
D|---------------------------------|---------------------8--------|---------------------------------|
A|-----10--8---7-------7---6-------|-6---------------8--------10--|-----10--8---7---------------10--|
E|-10--------------8-----------6---|-----8---9---10---------------|-10--------------8---8---9-------|
B|---------------------------------|------------------------------|---------------------------------|


C|---------------------------------|---------------------------------|---------------------------------|
G|---------------------------------|---------------------------------|---------------------------------|
D|-11------12----------------------|---------------------------------|----------------14-----------10--|
A|-----12--------------12----------|-8---7-----------10----------12--|-10----------13----------7-------|
E|-------------9---10----------6---|-------------6-----------8-------|---------10----------------------|
B|-------------------------8-------|---------8-----------8-----------|-----8---------------8-----------|


C|---------------------------------|---------------------------------|---------------------------------|
G|---------------------------------|------------15-------------------|---------------------------------|
D|-8-----------12----------14--12--|---------15----------------------|---------------------------------|
A|---------8-----------10----------|-----13------------------8---7---|---------10----------12--10------|
E|---------------------------------|---------------------6-----------|-----6-----------8---------------|
B|-----8-----------8---------------|-8---------------8---------------|-8-----------8---------------8---|


C|---------------------------------|---------------------------------|---------------------------------|
G|---------------------------------|---------------------------------|----15---------------------------|
D|--------14-----------10--8-------|-----12----------14--12----------|-15------------------------------|
A|-----13----------7---------------|-8-----------10--------------13--|---------------------------------|
E|-10------------------------------|---------------------------------|---------2---3-------3---4---5---|
B|-------------8---------------8---|---------8---------------8-------|-----------------2---------------|


C|---------------------------------|---------------------------------|-----------------------------22--|
G|---------------------------------|---------------------------------|---------------------------------|
D|---------------------------------|---------------------------------|---------------------------------|
A|---------------------------------|---------------------------------|---------------------13--15------|
E|-----5---6-------6---7---8-------|-8---9---7-----------------------|-----10--12--14--16--------------|
B|-4-----------6---------------7---|-------------9--8----7---9---11--|-13------------------------------|


C|---------------------19----------|-------------15------------------14--13-----|--------------------------------------|
G|-19--20--21--17----------17--18--|-19--15----------16----------15----------14-|--------------------------------------|
D|-----------------18--------------|---------16----------17--16-----------------|----15--------------------------------|
A|---------------------------------|--------------------------------------------|----------------------------------13--|
E|---------------------------------|--------------------------------------------|--------12--12--15-14-12--12--12------|
B|---------------------------------|--------------------------------------------|--------------------------------------|


C|-----------------------------------|-----------------------------------|-----------------------------------|
G|-----------------------------------|-----------------------------------|-----------------------------------|
D|-----------------------------------|-----------------------------------|-----------------------------------|
A|-----------------------13------11--|-------------------------------13--|-----------------------13--12--11--|
E|-----12--12--15-14-12------12------|-----12--12--15-14-12--12--12------|-----12--12--15-14-12--------------|
B|-----------------------------------|-----------------------------------|-----------------------------------|


C|-----------------------------------|-----------------------------------|-----------------------------------|
G|-----------------------------------|-----------------------------------|-----------------------------------|
D|-----------------------------------|-----------------------------------|-----------------------------------|
A|-----------------------------------|-----------------------------------|-----------------------------------|
E|-----0---0---3--2--0---0---0---6---|-----0---0---3--2--0---6-------4---|-----0---0---3--2--0---0---0---6---|
B|-----------------------------------|-----------------------------------|-----------------------------------|


C|-----------------------------------|--------|--------|--------|----------------------|
G|-----------------------------------|--------|--------|--------|----------------------|
D|-----------------------------------|--------|--------|--------|----------------------|
A|-----------------------------------|--------|--------|--------|----------------------|
E|-----0---0---3--2--0---6---5---4---|--------|--------|--------|----------------------|
B|-----------------------------------|--------|--------|--------|----------------5--3--|


C|----------------------------------|--------------------------------|----------------------------------|
G|----------------------------------|--------------------------------|----------------------------------|
D|----------------------------------|--------------------------------|----------------------------------|
A|----------------------------------|--------------------------------|----------------------------------|
E|-------------6--------------------|-------------4-------4----------|-------------6--------------------|
B|-2---3---3--------6--5--3---6--5--|-3---3---3-------3--------6--5--|-3---3---3--------6--5--3---6--5--|


C|--------------------------------|----------------------------------|----------------------------------|
G|--------------------------------|----------------------------------|----------------------------------|
D|--------------------------------|----------------------------------|----------------------------------|
A|--------------------------------|----------------------------------|----------------------------------|
E|-------------4-------4----------|-------------6--------------------|-----------------------4----------|
B|-3---3---3-------3--------6--5--|-3---3---3--------6--5--3---6--5--|-3---3---3---6--5--3--------6--5--|


C|----------------------------------|--------------------------------|--------------------------------|
G|----------------------------------|--------------------------------|--------------------------------|
D|----------------------------------|--------------------------------|--------------------------------|
A|----------------------------------|--------------------------------|--------------------------------|
E|-------------6--------------------|-----------------------4----0---|-0---3--2--0---0---0---6----0---|
B|-3---3---3--------6--5--3---6--5--|-3---3---3---6--5--3------------|--------------------------------|


C|--------------------------------|--------------------------------|--------------------------------|
G|--------------------------------|--------------------------------|--------------------------------|
D|--------------------------------|--------------------------------|--------------------------------|
A|--------------------------------|--------------------------------|--------------------------------|
E|-0---3--2--0---6-------4----0---|-0---3--2--0---0---0---6----0---|-0---3--2--0---6---5---4----0---|
B|--------------------------------|--------------------------------|--------------------------------|


C|--------------------------------|--------------------------------|--------------------------------|
G|--------------------------------|--------------------------------|--------------------------------|
D|--------------------------------|--------------------------------|--------------------------------|
A|--------------------------------|--------------------------------|--------------------------------|
E|-0---3--2--0---0---0---6----0---|-0---3--2--0---6-------4----0---|-0---3--2--0---0---0---6----0---|
B|--------------------------------|--------------------------------|--------------------------------|


C|----------------------------------|----------------------------------|----------------------------------|
G|----------------------------------|----------------------------------|----------------------------------|
D|----------------------------------|----------------------------------|----------------------------------|
A|----------------------------------|----------------------------------|----------------------------------|
E|-0---3--2--0---6---5---4----------|-------------6--------------------|-----------------------4----------|
B|----------------------------6--5--|-3---3---3--------6--5--3---6--5--|-3---3---3---6--5--3--------6--5--|


C|----------------------------------|----------------------------------|----------------------------------|
G|----------------------------------|----------------------------------|----------------------------------|
D|----------------------------------|----------------------------------|----------------------------------|
A|----------------------------------|----------------------------------|----------------------------------|
E|-------------6--------------------|-----------------------4----------|-------------6--------------------|
B|-3---3---3--------6--5--3---6--5--|-3---3---3---6--5--3--------6--5--|-3---3---3--------6--5--3---6--5--|


C|----------------------------------|----------------------------------|--------------------------------|
G|----------------------------------|----------------------------------|--------------------------------|
D|----------------------------------|----------------------------------|--------------------------------|
A|----------------------------------|----------------------------------|--------------------------------|
E|-----------------------4----------|-------------6--------------------|-----------------------4----0---|
B|-3---3---3---6--5--3--------6--5--|-3---3---3--------6--5--3---6--5--|-3---3---3---6--5--3------------|


C|--------------------------------|--------------------------------|--------------------------------|
G|--------------------------------|--------------------------------|--------------------------------|
D|--------------------------------|--------------------------------|--------------------------------|
A|--------------------------------|--------------------------------|--------------------------------|
E|-0---3--2--0---0---0---6----0---|-0---3--2--0---6-------4----0---|-0---3--2--0---0---0---6----0---|
B|--------------------------------|--------------------------------|--------------------------------|


C|--------------------------------|--------------------------------|--------------------------------|
G|--------------------------------|--------------------------------|--------------------------------|
D|--------------------------------|--------------------------------|--------------------------------|
A|--------------------------------|--------------------------------|--------------------------------|
E|-0---3--2--0---6---5---4----0---|-0---3--2--0---0---0---6----0---|-0---3--2--0---6-------4----0---|
B|--------------------------------|--------------------------------|--------------------------------|


C|--------------------------------|----------------------------------|----------------------------------|
G|--------------------------------|----------------------------------|----------------------------------|
D|--------------------------------|----------------------------------|----------------------------------|
A|--------------------------------|----------------------------------|----------------------------------|
E|-0---3--2--0---0---0---6----0---|-0---3--2--0---6---5---4----------|-------------6--------------------|
B|--------------------------------|----------------------------6--5--|-3---3---3--------6--5--3---6--5--|


C|----------------------------------|----------------------------------|----------------------------------|
G|----------------------------------|----------------------------------|----------------------------------|
D|----------------------------------|----------------------------------|----------------------------------|
A|----------------------------------|----------------------------------|----------------------------------|
E|-----------------------4----------|-------------6--------------------|-----------------------4----------|
B|-3---3---3---6--5--3--------6--5--|-3---3---3--------6--5--3---6--5--|-3---3---3---6--5--3--------6--5--|


C|----------------------------------|----------------------------------|----------------------------------|
G|----------------------------------|----------------------------------|----------------------------------|
D|----------------------------------|----------------------------------|----------------------------------|
A|----------------------------------|----------------------------------|----------------------------------|
E|-------------6--------------------|-----------------------4----------|-------------6--------------------|
B|-3---3---3--------6--5--3---6--5--|-3---3---3---6--5--3--------6--5--|-3---3---3--------6--5--3---6--5--|


C|--------------------------------|--------------------------------|--------------------------------|
G|--------------------------------|--------------------------------|--------------------------------|
D|--------------------------------|--------------------------------|--------------------------------|
A|--------------------------------|--------------------------------|--------------------------------|
E|-----------------------4----0---|-0---3--2--0---0---0---6----0---|-0---3--2--0---6-------4----0---|
B|-3---3---3---6--5--3------------|--------------------------------|--------------------------------|


C|--------------------------------|--------------------------------|--------------------------------|
G|--------------------------------|--------------------------------|--------------------------------|
D|--------------------------------|--------------------------------|--------------------------------|
A|--------------------------------|--------------------------------|--------------------------------|
E|-0---3--2--0---0---0---6----0---|-0---3--2--0---6---5---4----0---|-0---3--2--0---0---0---6----0---|
B|--------------------------------|--------------------------------|--------------------------------|


C|--------------------------------|--------------------------------|--------------------------------|
G|--------------------------------|--------------------------------|--------------------------------|
D|--------------------------------|--------------------------------|--------------------------------|
A|--------------------------------|--------------------------------|--------------------------------|
E|-0---3--2--0---6-------4----0---|-0---3--2--0---0---0---6----0---|-0---3--2--0---6---5---4--------|
B|--------------------------------|--------------------------------|----------------------------3---|


C|---------------------------|--------------------|-----------------------|-------------------------|
G|---------------------------|--------------------|-----------------------|-------------------------|
D|---------------------------|--------------------|-----------------------|-------------------------|
A|---------------------------|--------------------|-----------------------|-------------------------|
E|---------------------------|--------------------|----------------10--10-|----10--10---------------|
B|-------------------3---3---|----------------3---|-----------------------|-------------------5--5--|


C|-------------------------------------------------|-------------------------------------------------|
G|-------------------------------------------------|-------------------------------------------------|
D|-------------------------------------------------|-------------------------------------------------|
A|-------------------------------------------------|-------------------------------------------------|
E|-------------------------------------------------|-------------------------------------------3--3--|
B|-5--5--5--5--5--5--5--5--5--5--5--5--5--5--5--5--|-5--5--5--5--5--5--5--5--5--5--5--5--5--5--------|


C|-------------------------------------------------|-------------------------------------------------|
G|-------------------------------------------------|-------------------------------------------------|
D|-------------------------------------------------|-------------------------------------------------|
A|-------------------------------------------------|-------------------------------------------------|
E|-3--3--3--3--3--3--3--3--3--3--3--3--3--3--3--3--|-3--3--3--3--3--3--3--3--3--3--3--3--3--3--------|
B|-------------------------------------------------|-------------------------------------------3--3--|


C|-------------------------------------------------|-----------------------------------------------|
G|-------------------------------------------------|-----------------------------------------------|
D|-------------------------------------------------|-----------------------------------------------|
A|-------------------------------------------------|-----------------------------------------------|
E|-------------------------------------------3--3--|-3--3--3--3--3--3--6--6--6--6--6--6--6--6--5---|
B|-3--3--3--3--3--3--5--5--5--5--5--5--5--5--------|-----------------------------------------------|


C|----------------|------------------|----------------------------------------|-----------------------------------------------------------|
G|----------------|------------------|----------------------------------------|-----------------------------------------------------------|
D|----------------|------------------|----------------------------------------|-----------------------------------------------------------|
A|----------------|------------3--5--|-------------3--5-----------------3--5--|-----------------------------------------------------3--5--|
E|------------5---|------------------|-----------------------------4----------|--------------------------5--6--8--5--6-----5--------------|
B|----------------|------------------|-3--3--3--3--------3--3---3-------------|-3--3--3--3--3---5--6--8-----------------8-----6--8--------|


C|----------------------------------------|------------------------------------------------------|
G|----------------------------------------|------------------------------------------------------|
D|----------------------------------------|------------------------------------------------------|
A|-------------3--5-----------------3--5--|------------------------------------------------3--5--|
E|-----------------------------4----------|-----------------5-8-6-5-6-5-----6-5------------------|
B|-3--3--3--3--------3--3---3-------------|-3--3--3--3--3---------------8-6-----8-6-8-6-5--------|


C|----------------------------------------|-----------------------------------------------------------|
G|----------------------------------------|-----------------------------------------------------------|
D|----------------------------------------|-----------------------------------------------------------|
A|-------------3--5-----------------3--5--|-----------------------------------------------------3--5--|
E|-----------------------------4----------|--------------------------5--6--8--5--6-----5--------------|
B|-3--3--3--3--------3--3---3-------------|-3--3--3--3--3---5--6--8-----------------8-----6--8--------|


C|----------------------------------------|------------------------------------------------------|
G|----------------------------------------|------------------------------------------------------|
D|----------------------------------------|------------------------------------------------------|
A|-------------3--5-----------------3--5--|------------------------------------------------------|
E|-----------------------------4----------|-----------------5-8-6-5-6-5-----6-5------------------|
B|-3--3--3--3--------3--3---3-------------|-3--3--3--3--3---------------8-6-----8-6-8-6-5--3--3--|


C|-------------------------------------------------|-------------------------------------------------|
G|-------------------------------------------------|-------------------------------------------------|
D|-------------------------------------------------|-------------------------------------------------|
A|-------------------------------------------------|-------------------------------------------------|
E|-------------------------------------------------|-------------------------------------------3--3--|
B|-3--3--3--3--3--3--3--3--3--3--3--3--3--3--5--5--|-5--5--5--5--5--5--5--5--5--5--5--5--5--5--------|


C|-------------------------------------------------|-------------------------------------------------|
G|-------------------------------------------------|-------------------------------------------------|
D|-------------------------------------------------|-------------------------------------------------|
A|-------------------------------------------------|-------------------4--4--4--4--4--4--4--4--------|
E|-3--3--3--3--3--3--3--3--3--3--3--3--3--3--6--6--|-6--6--6--6--6--6--------------------------------|
B|-------------------------------------------------|-------------------------------------------3--3--|


C|-------------------------------------------------|-------------------------------------------------|
G|-------------------------------------------------|-------------------------------------------------|
D|-------------------------------------------------|-------------------------------------------------|
A|-------------------------------------------------|-------------------------------------------------|
E|-------------------------------------------------|-------------------------------------------3--3--|
B|-3--3--3--3--3--3--3--3--3--3--3--3--3--3--5--5--|-5--5--5--5--5--5--5--5--5--5--5--5--5--5--------|


C|-------------------------------------------------|-------------------------------------------------|
G|-------------------------------------------------|-------------------------------------------------|
D|-------------------------------------------------|-------------------------------------------------|
A|-------------------------------------------------|-------------------4--4--4--4--4--4--4--4--3--5--|
E|-3--3--3--3--3--3--3--3--3--3--3--3--3--3--6--6--|-6--6--6--6--6--6--------------------------------|
B|-------------------------------------------------|-------------------------------------------------|


C|----------------------------------------|-----------------------------------------------------------|
G|----------------------------------------|-----------------------------------------------------------|
D|----------------------------------------|-----------------------------------------------------------|
A|-------------3--5-----------------3--5--|-----------------------------------------------------3--5--|
E|-----------------------------4----------|--------------------------5--6--8--5--6-----5--------------|
B|-3--3--3--3--------3--3---3-------------|-3--3--3--3--3---5--6--8-----------------8-----6--8--------|


C|----------------------------------------|------------------------------------------------------|
G|----------------------------------------|------------------------------------------------------|
D|----------------------------------------|------------------------------------------------------|
A|-------------3--5-----------------3--5--|------------------------------------------------------|
E|-----------------------------4----------|-----------------5-8-6-5-6-5-----6-5------------------|
B|-3--3--3--3--------3--3---3-------------|-3--3--3--3--3---------------8-6-----8-6-8-6-5--3--3--|


C|-------------------------------------------------|-------------------------------------------------|
G|-------------------------------------------------|-------------------------------------------------|
D|-------------------------------------------------|-------------------------------------------------|
A|-------------------------------------------------|-------------------------------------------------|
E|-------------------------------------------------|-------------------------------------------3--3--|
B|-3--3--3--3--3--3--3--3--3--3--3--3--3--3--5--5--|-5--5--5--5--5--5--5--5--5--5--5--5--5--5--------|


C|-------------------------------------------------|-------------------------------------------------|
G|-------------------------------------------------|-------------------------------------------------|
D|-------------------------------------------------|-------------------------------------------------|
A|-------------------------------------------------|-------------------4--4--4--4--4--4--4--4--------|
E|-3--3--3--3--3--3--3--3--3--3--3--3--3--3--6--6--|-6--6--6--6--6--6--------------------------------|
B|-------------------------------------------------|-------------------------------------------3--3--|


C|-------------------------------------------------|-------------------------------------------------|
G|-------------------------------------------------|-------------------------------------------------|
D|-------------------------------------------------|-------------------------------------------------|
A|-------------------------------------------------|-------------------------------------------------|
E|-------------------------------------------------|-------------------------------------------3--3--|
B|-3--3--3--3--3--3--3--3--3--3--3--3--3--3--5--5--|-5--5--5--5--5--5--5--5--5--5--5--5--5--5--------|


C|-------------------------------------------------|-----------------------------------------------|
G|-------------------------------------------------|-----------------------------------------------|
D|-------------------------------------------------|-----------------------------------------------|
A|-------------------------------------------------|-------------------4--4--4--4--4--4--4--4------|
E|-3--3--3--3--3--3--3--3--3--3--3--3--3--3--6--6--|-6--6--6--6--6--6------------------------------|
B|-------------------------------------------------|-------------------------------------------3---|


C|-----------------------------------------|-----------------------------------------|
G|-----------------------------------------|-----------------------------------------|
D|-----------------------------------------|-----------------------------------------|
A|-----------------------------------------|-----------------------------------------|
E|-----------------------------------------|-------------------------------------3---|
B|-3--3--3--3--3---3--3--3---3--3--3---5---|-5--5--5--5--5---5--5--5---5--5--5-------|


C|-----------------------------------------|-----------------------------------------|
G|-----------------------------------------|-----------------------------------------|
D|-----------------------------------------|-----------------------------------------|
A|-----------------------------------------|-----------------4---4--4--4--4--4-------|
E|-3--3--3--3--3---3--3--3---3--3--3---6---|-6--6--6--6--6---------------------------|
B|-----------------------------------------|-------------------------------------3---|


C|-----------------------------------------|-----------------------------------------|
G|-----------------------------------------|-----------------------------------------|
D|-----------------------------------------|-----------------------------------------|
A|-----------------------------------------|-----------------------------------------|
E|-----------------------------------------|-------------------------------------3---|
B|-3--3--3--3--3---3--3--3---3--3--3---5---|-5--5--5--5--5---5--5--5---5--5--5-------|


C|-----------------------------------------|-----------------------------------------|
G|-----------------------------------------|-----------------------------------------|
D|-----------------------------------------|-----------------------------------------|
A|-----------------------------------------|-----------------4---4--4--4--4--4-------|
E|-3--3--3--3--3---3--3--3---3--3--3---6---|-6--6--6--6--6---------------------------|
B|-----------------------------------------|-------------------------------------3---|


C|-----------------------------------------|-----------------------------------------|
G|-----------------------------------------|-----------------------------------------|
D|-----------------------------------------|-----------------------------------------|
A|-----------------------------------------|-----------------------0--1--0-----------|
E|-------1--3------------1--3--------------|-------1--3----------------------0-------|
B|----3--------3---3--3--------3-------3---|----3--------3---3--3----------------3---|


C|-----------------------------------------|---------------------------------------------|
G|-----------------------------------------|---------------------------------------------|
D|-----------------------------------------|---------------------------------------------|
A|-----------------------------------------|-----------------1--1--1--1--3--3--3--3------|
E|-------1--3------------1--3--------------|-------1--3----------------------------------|
B|----3--------3---3--3--------3-------3---|----3--------3---------------------------3---|


C|-----------------------------------------|-----------------------------------------|
G|-----------------------------------------|-----------------------------------------|
D|-----------------------------------------|-----------------------------------------|
A|-----------------------------------------|-----------------------------------------|
E|-----------------------------------------|-------------------------------------3---|
B|-3--3--3--3--3---3--3--3---3--3--3---5---|-5--5--5--5--5---5--5--5---5--5--5-------|


C|-----------------------------------------|-----------------------------------------|
G|-----------------------------------------|-----------------------------------------|
D|-----------------------------------------|-----------------------------------------|
A|-----------------------------------------|-----------------4---4--4--4--4--4-------|
E|-3--3--3--3--3---3--3--3---3--3--3---6---|-6--6--6--6--6---------------------------|
B|-----------------------------------------|-------------------------------------3---|


C|-----------------------------------------|-----------------------------------------|
G|-----------------------------------------|-----------------------------------------|
D|-----------------------------------------|-----------------------------------------|
A|-----------------------------------------|-----------------------------------------|
E|-----------------------------------------|-------------------------------------3---|
B|-3--3--3--3--3---3--3--3---3--3--3---5---|-5--5--5--5--5---5--5--5---5--5--5-------|


C|-----------------------------------------|-----------------------------------------|
G|-----------------------------------------|-----------------------------------------|
D|-----------------------------------------|-----------------------------------------|
A|-----------------------------------------|-----------------4---4--4--4--4--4-------|
E|-3--3--3--3--3---3--3--3---3--3--3---6---|-6--6--6--6--6---------------------------|
B|-----------------------------------------|-------------------------------------3---|


C|-----------------------------------------|-----------------------------------------|
G|-----------------------------------------|-----------------------------------------|
D|-----------------------------------------|-----------------------------------------|
A|-----------------------------------------|-----------------------0--1--0-----------|
E|-------1--3------------1--3--------------|-------1--3----------------------0-------|
B|----3--------3---3--3--------3-------3---|----3--------3---3--3----------------3---|


C|-----------------------------------------|---------------------------------------------|
G|-----------------------------------------|---------------------------------------------|
D|-----------------------------------------|---------------------------------------------|
A|-----------------------------------------|-----------------1--1--1--1--3--3--3--3------|
E|-------1--3------------1--3--------------|-------1--3----------------------------------|
B|----3--------3---3--3--------3-------3---|----3--------3---------------------------3---|


C|-----------------------------------------|-----------------------------------------|
G|-----------------------------------------|-----------------------------------------|
D|-----------------------------------------|-----------------------------------------|
A|-----------------------------------------|-----------------------0--1--0-----------|
E|-------1--3------------1--3--------------|-------1--3----------------------0-------|
B|----3--------3---3--3--------3-------3---|----3--------3---3--3----------------3---|


C|-----------------------------------------|---------------------------------------------|
G|-----------------------------------------|---------------------------------------------|
D|-----------------------------------------|---------------------------------------------|
A|-----------------------------------------|-----------------1--1--1--1--3--3--3--3------|
E|-------1--3------------1--3--------------|-------1--3----------------------------------|
B|----3--------3---3--3--------3-------3---|----3--------3---------------------------3---|


C|-----------------------------------------|-----------------------------------------|
G|-----------------------------------------|-----------------------------------------|
D|-----------------------------------------|-----------------------------------------|
A|-----------------------------------------|-----------------------0--1--0-----------|
E|-------1--3------------1--3--------------|-------1--3----------------------0-------|
B|----3--------3---3--3--------3-------3---|----3--------3---3--3----------------3---|


C|-----------------------------------------|-----------------------------------------------|
G|-----------------------------------------|-----------------------------------------------|
D|-----------------------------------------|-----------------------------------------------|
A|-----------------------------------------|-----------------1--1--1--1--3--3--3--3--3--5--|
E|-------1--3------------1--3--------------|-------1--3------------------------------------|
B|----3--------3---3--3--------3-------3---|----3--------3---------------------------------|


C|----------------------------------------|-----------------------------------------------------------|
G|----------------------------------------|-----------------------------------------------------------|
D|----------------------------------------|-----------------------------------------------------------|
A|-------------3--5-----------------3--5--|-----------------------------------------------------3--5--|
E|-----------------------------4----------|--------------------------5--6--8--5--6-----5--------------|
B|-3--3--3--3--------3--3---3-------------|-3--3--3--3--3---5--6--8-----------------8-----6--8--------|


C|----------------------------------------|------------------------------------------------------|
G|----------------------------------------|------------------------------------------------------|
D|----------------------------------------|------------------------------------------------------|
A|-------------3--5-----------------3--5--|------------------------------------------------3--5--|
E|-----------------------------4----------|-----------------5-8-6-5-6-5-----6-5------------------|
B|-3--3--3--3--------3--3---3-------------|-3--3--3--3--3---------------8-6-----8-6-8-6-5--------|


C|----------------------------------------|-----------------------------------------------------------|
G|----------------------------------------|-----------------------------------------------------------|
D|----------------------------------------|-----------------------------------------------------------|
A|-------------3--5-----------------3--5--|-----------------------------------------------------3--5--|
E|-----------------------------4----------|--------------------------5--6--8--5--6-----5--------------|
B|-3--3--3--3--------3--3---3-------------|-3--3--3--3--3---5--6--8-----------------8-----6--8--------|


C|----------------------------------------|--------------------------------------------------------|
G|----------------------------------------|--------------------------------------------------------|
D|----------------------------------------|--------------------------------------------------------|
A|-------------3--5-----------------3--5--|------------------------------------------------5-------|
E|-----------------------------4----------|-----------------5-8-6-5-6-5-----6-5--------------8-6-5-|
B|-3--3--3--3--------3--3---3-------------|-3--3--3--3--3---------------8-6-----8-6-8-6-5----------|


C|----------------------------------------------------------------|----------------------------------|
G|----------------------------------------------------------------|----------------------------------|
D|----------------------------------------------------------------|----------------------------------|
A|------------------------8-7-5---7-5-----5-----------------------|----------------------------------|
E|-6-5-----5--------------------8-----8-7---8-7-5-8-7-5---6-5-----|-5-------5------------------------|
B|-----8-6---8-6-5-8-6-5--------------------------------8-----8-6-|---8-6-5-----4---4---4--------3---|


C|-----------------|--------------------|-----------------|
G|-----------------|--------------------|-----------------|
D|-----------------|--------------------|-----------------|
A|-----------------|--------------------|-----------------|
E|-------------10--|-----------10-------|-----------------|
B|-------3---------|----------------3---|-----------------|