Menu:

 

Search:

 

dream theater - endless sacrifice:

 



Title: Endless Sacrifice
Artist: 
Album: Train Of Thought
Author: Mike Portnoy, John Petrucci, Jordan Rudess, John Myung & James Labrie


Track 1: acoustic

D|---------------------------------|---------------------------------|---------------------------------|
A|---------------------------------|---------------------------------|---------------------------------|
F|-----------------0---------------|---------0-----------------------|-----------------0---------------|
C|---------2---4-------4---2-------|-----2-------2-------2-------4---|---------2---4-------4---2-------|
G|-----2-----------------------2---|-3---------------4-------2-------|-----2-----------------------2---|
D|-0-------------------------------|---------------------------------|-0-------------------------------|


D|---------------------------------|---------------------------------|---------------------------------|
A|---------------------------------|---------------------------------|---------------------------------|
F|---------0-----------------------|---------------------------------|-0-----------------------0-------|
C|-----2-------2-----------0-------|-------------------------2---4---|-----4---2-----------2-------2---|
G|-3-------------------2-------2---|-----5---3---2-------2-----------|-------------2---3---------------|
D|-----------------3---------------|-2---------------0---------------|---------------------------------|


D|---------------------------------|---------------------------------|---------------------------------|
A|---------------------------------|---------------------------------|---------------------------------|
F|---------0-----------------------|-0-----------------------0-------|---------------------------------|
C|-----4-------4-----------2---4---|-----4---2-----------2-------2---|---------0---------------7-------|
G|-5-------------------2-----------|-------------2---3---------------|-----2---------------6-----------|
D|-----------------0---------------|---------------------------------|-3-----------3---7-----------7---|


D|---------------------------------|---------------------------------|---------------------------------|
A|---------------------------------|---------------------------------|---------------------------------|
F|-------------------------0-------|-----------------0---------------|-------------------------0-------|
C|-----------------2---4-------4---|-2-----------2-------2-------2---|-----4-----------2---4-------4---|
G|-------------2-------------------|-----2---3---------------4-------|-2-----------2-------------------|
D|-8---7---0-----------------------|---------------------------------|---------0-----------------------|


D|---------------------------------|---------------------------------|---------------------------------|
A|---------------------------------|---------------------------------|---------------------------------|
F|-----------------0---------------|---------------------------------|---------0-----------------------|
C|-2-----------2-------2-----------|-0-------------------------------|-2---4-------4---2-----------2---|
G|-----2---3-------------------2---|-----2-------5---3---2-------2---|---------------------2---3-------|
D|-------------------------3-------|---------2---------------0-------|---------------------------------|


D|---------------------------------|---------------------------------|---------------------------------|
A|---------------------------------|---------------------------------|---------------------------------|
F|-0---------------0---------------|---------0-----------------------|-0-------------------------------|
C|-----2-------4-------4-----------|-2---4-------4---2-----------2---|-----2-----------0---------------|
G|---------5-------------------2---|---------------------2---3-------|-------------2---------------6---|
D|-------------------------0-------|---------------------------------|---------3-----------3---7-------|


D|---------------------------------|---------------------------------|---------------------------------|
A|---------------------------------|---------------------------------|---------------------------------|
F|---------------------------------|-0-----------------------0-------|---------------------------------|
C|-7-----------------------2---4---|-----4---2-----------2-------2---|-----2-------4-----------2---4---|
G|---------------------2-----------|-------------2---3---------------|-4-------2-----------2-----------|
D|-----7---8---7---0---------------|---------------------------------|-----------------0---------------|


D|---------------------------------|---------------------------------|---------------------------------|
A|---------------------------------|---------------------------------|---------------------------------|
F|-0-----------------------0-------|---------------------------------|-----------------0---------------|
C|-----4---2-----------2-------2---|---------0-----------------------|---------2---4-------4---2-------|
G|-------------2---3---------------|-----2-------2-------5---3---2---|-----2-----------------------2---|
D|---------------------------------|-3---------------2---------------|-0-------------------------------|


D|---------------------------------|---------------------------------|---------------------------------|
A|---------------------------------|---------------------------------|---------------------------------|
F|---------0---------------0-------|-----------------0---------------|---------0-----------------------|
C|-----2-------2-------4-------4---|---------2---4-------4---2-------|-----2-------2-----------0-------|
G|-3---------------5---------------|-----2-----------------------2---|-3-------------------2-----------|
D|---------------------------------|-0-------------------------------|-----------------3-----------3---|


D|---------------------------------|---------------------------------|---------------------------------|
A|---------------------------------|---------------------------------|---------------------------------|
F|---------------------------------|---------0-----------------------|-0-------------------------------|
C|---------7-----------------------|-2---4-------4---2-----------2---|-----2-------2-------4-----------|
G|-----6-----------------------2---|---------------------2---3-------|---------4-------2-----------2---|
D|-7-----------7---8---7---0-------|---------------------------------|-------------------------0-------|


D|---------------------------------|---------------------------------|---------------------------------|
A|---------------------------------|---------------------------------|---------------------------------|
F|---------0-----------------------|-0-------------------------------|-------------------------0-------|
C|-2---4-------4---2-----------2---|-----2-----------0---------------|-----------------2---4-------4---|
G|---------------------2---3-------|-------------2-------2-------5---|-3---2-------2-------------------|
D|---------------------------------|---------3---------------2-------|---------0-----------------------|


D|---------------------------------|---------------------------------|---------------------------------|
A|---------------------------------|---------------------------------|---------------------------------|
F|-----------------0---------------|-0-----------------------0-------|-----------------0---------------|
C|-2-----------2-------2-------4---|-----4-----------2---4-------4---|-2-----------2-------2-----------|
G|-----2---3---------------5-------|-------------2-------------------|-----2---3-------------------2---|
D|---------------------------------|---------0-----------------------|-------------------------3-------|


D|---------------------------------|---------------------------------|---------------------------------|
A|---------------------------------|-----------------1---------------|---------0---------------0-------|
F|---------------------------------|---------2---4-------4---2-------|-----5-------5-------5-------5---|
C|-0---------------7---------------|-----2-----------------------2---|-4---------------3---------------|
G|-------------6-------------------|-0-------------------------------|---------------------------------|
D|-----3---7-----------7---8---7---|---------------------------------|---------------------------------|


D|---------------------------------|---------1--0----------------------|---------------------------------|
A|-----------------1---------------|---------------3-------------------|-5-----------------------1-------|
F|---------2---4-------4---2-------|-----2---------------------4-------|-----4-----------2---4-------4---|
C|-----2-----------------------2---|-0---------------------2-------2---|-------------2-------------------|
G|-0-------------------------------|-----------------------------------|---------0-----------------------|
D|---------------------------------|-------------------4---------------|---------------------------------|


D|---------------------------------|---------------------------------|---------------------------------|
A|-----------------0---------------|-------------------------1-------|---------------------------------|
F|-2-----------5-------5-----------|-0---------------2---4-------4---|-2-------------------------------|
C|-----2---4-------------------0---|-----0-------2-------------------|-----2-----------0---------------|
G|---------------------------------|---------0-----------------------|-------------0-------0-------3---|
D|-------------------------3-------|---------------------------------|---------2---------------1-------|


D|---------------------------|----------------|--------|--------|--------|--------|
A|---------------------------|----------------|--------|--------|--------|--------|
F|--------------0------------|-0--------------|--------|--------|--------|--------|
C|-0--------2------------7---|-----7----------|--------|--------|--------|--------|
G|------3------------5-------|----------------|--------|--------|--------|--------|
D|---------------------------|----------------|--------|--------|--------|--------|


D|--------|--------|--------|--------|--------|--------|--------|--------|--------|
A|--------|--------|--------|--------|--------|--------|--------|--------|--------|
F|--------|--------|--------|--------|--------|--------|--------|--------|--------|
C|--------|--------|--------|--------|--------|--------|--------|--------|--------|
G|--------|--------|--------|--------|--------|--------|--------|--------|--------|
D|--------|--------|--------|--------|--------|--------|--------|--------|--------|


D|--------|--------|------------------------------|---------------------------------|
A|--------|--------|------------------------------|---------------------------------|
F|--------|--------|----------------------0-------|-----------------0---------------|
C|--------|--------|--------------2---4-------4---|-2-----------2-------2-------2---|
G|--------|--------|----------2-------------------|-----2---3---------------4-------|
D|--------|--------|------0-----------------------|---------------------------------|


D|---------------------------------|---------------------------------|---------------------------------|
A|---------------------------------|---------------------------------|---------------------------------|
F|-------------------------0-------|-----------------0---------------|---------------------------------|
C|-----4-----------2---4-------4---|-2-----------2-------2-----------|-0-------------------------------|
G|-2-----------2-------------------|-----2---3-------------------2---|-----2-------5---3---2-------2---|
D|---------0-----------------------|-------------------------3-------|---------2---------------0-------|


D|---------------------------------|---------------------------------|---------------------------------|
A|---------------------------------|---------------------------------|---------------------------------|
F|---------0-----------------------|-0---------------0---------------|---------0-----------------------|
C|-2---4-------4---2-----------2---|-----2-------4-------4-----------|-2---4-------4---2-----------2---|
G|---------------------2---3-------|---------5-------------------2---|---------------------2---3-------|
D|---------------------------------|-------------------------0-------|---------------------------------|


D|---------------------------------|---------------------------------|---------------------------------|
A|---------------------------------|---------------------------------|---------------------------------|
F|-0-------------------------------|---------------------------------|-0-----------------------0-------|
C|-----2-----------0---------------|-7-----------------------2---4---|-----4---2-----------2-------2---|
G|-------------2---------------6---|---------------------2-----------|-------------2---3---------------|
D|---------3-----------3---7-------|-----7---8---7---0---------------|---------------------------------|


D|---------------------------------|---------------------------------|---------------------------------|
A|---------------------------------|---------------------------------|---------------------------------|
F|---------------------------------|-0-----------------------0-------|---------------------------------|
C|-----2-------4-----------2---4---|-----4---2-----------2-------2---|---------0-----------------------|
G|-4-------2-----------2-----------|-------------2---3---------------|-----2-------2-------5---3---2---|
D|-----------------0---------------|---------------------------------|-3---------------2---------------|


D|---------------------------------|---------------------------------|---------------------------------|
A|---------------------------------|---------------------------------|---------------------------------|
F|-----------------0---------------|---------0---------------0-------|-----------------0---------------|
C|---------2---4-------4---2-------|-----2-------2-------4-------4---|---------2---4-------4---2-------|
G|-----2-----------------------2---|-3---------------5---------------|-----2-----------------------2---|
D|-0-------------------------------|---------------------------------|-0-------------------------------|


D|---------------------------------|---------------------------------|---------------------------------|
A|---------------------------------|---------------------------------|---------1-----------------------|
F|---------0-----------------------|---------------------------------|-2---4-------4---2-----------5---|
C|-----2-------2-----------0-------|---------7-------------------2---|---------------------2---4-------|
G|-3-------------------2-----------|-----6-------------------0-------|---------------------------------|
D|-----------------3-----------3---|-7-----------7---8---7-----------|---------------------------------|


D|---------------------------------|---------------------------------|-1--0------------------------------|
A|-0---------------0---------------|---------1-----------------------|-------3-------------------5-------|
F|-----5-------5-------5-----------|-2---4-------4---2-----------2---|-------------------4-----------4---|
C|---------3-------------------2---|---------------------2---0-------|---------------2-------2-----------|
G|-------------------------0-------|---------------------------------|-----------------------------------|
D|---------------------------------|---------------------------------|-----------4-----------------------|


D|---------------------------------|---------------------------------|---------------------------------|
A|-----------------1---------------|---------0-----------------------|-----------------1---------------|
F|---------2---4-------4---2-------|-----5-------5-----------0-------|---------2---4-------4---2-------|
C|-----2-----------------------2---|-4-------------------0-------0---|-----2-----------------------2---|
G|-0-------------------------------|---------------------------------|-0-------------------------------|
D|---------------------------------|-----------------3---------------|---------------------------------|


D|------------------------------|------------------------------|--------|--------|
A|------------------------------|------------------------------|--------|--------|
F|------------------------------|---------0------------0-------|--------|--------|
C|---------0---------------0----|-----2------------7-------7---|--------|--------|
G|-----0-------0-------3--------|-3------------5---------------|--------|--------|
D|-2---------------1------------|------------------------------|--------|--------|


D|--------|--------|--------|--------|--------|--------|--------|--------|--------|
A|--------|--------|--------|--------|--------|--------|--------|--------|--------|
F|--------|--------|--------|--------|--------|--------|--------|--------|--------|
C|--------|--------|--------|--------|--------|--------|--------|--------|--------|
G|--------|--------|--------|--------|--------|--------|--------|--------|--------|
D|--------|--------|--------|--------|--------|--------|--------|--------|--------|


D|--------|--------|--------|--------|--------|--------|--------|--------|--------|
A|--------|--------|--------|--------|--------|--------|--------|--------|--------|
F|--------|--------|--------|--------|--------|--------|--------|--------|--------|
C|--------|--------|--------|--------|--------|--------|--------|--------|--------|
G|--------|--------|--------|--------|--------|--------|--------|--------|--------|
D|--------|--------|--------|--------|--------|--------|--------|--------|--------|


D|--------|--------|--------|--------|--------|--------|--------|--------|--------|
A|--------|--------|--------|--------|--------|--------|--------|--------|--------|
F|--------|--------|--------|--------|--------|--------|--------|--------|--------|
C|--------|--------|--------|--------|--------|--------|--------|--------|--------|
G|--------|--------|--------|--------|--------|--------|--------|--------|--------|
D|--------|--------|--------|--------|--------|--------|--------|--------|--------|


D|--------|--------|--------|--------|--------|--------|--------|--------|--------|
A|--------|--------|--------|--------|--------|--------|--------|--------|--------|
F|--------|--------|--------|--------|--------|--------|--------|--------|--------|
C|--------|--------|--------|--------|--------|--------|--------|--------|--------|
G|--------|--------|--------|--------|--------|--------|--------|--------|--------|
D|--------|--------|--------|--------|--------|--------|--------|--------|--------|


D|--------|--------|--------|--------|--------|--------|--------|--------|--------|
A|--------|--------|--------|--------|--------|--------|--------|--------|--------|
F|--------|--------|--------|--------|--------|--------|--------|--------|--------|
C|--------|--------|--------|--------|--------|--------|--------|--------|--------|
G|--------|--------|--------|--------|--------|--------|--------|--------|--------|
D|--------|--------|--------|--------|--------|--------|--------|--------|--------|


D|--------|--------|--------|--------|--------|--------|--------|--------|--------|
A|--------|--------|--------|--------|--------|--------|--------|--------|--------|
F|--------|--------|--------|--------|--------|--------|--------|--------|--------|
C|--------|--------|--------|--------|--------|--------|--------|--------|--------|
G|--------|--------|--------|--------|--------|--------|--------|--------|--------|
D|--------|--------|--------|--------|--------|--------|--------|--------|--------|


D|--------|--------|--------|--------|--------|--------|--------|--------|--------|
A|--------|--------|--------|--------|--------|--------|--------|--------|--------|
F|--------|--------|--------|--------|--------|--------|--------|--------|--------|
C|--------|--------|--------|--------|--------|--------|--------|--------|--------|
G|--------|--------|--------|--------|--------|--------|--------|--------|--------|
D|--------|--------|--------|--------|--------|--------|--------|--------|--------|


D|--------|--------|--------|--------|--------|--------|--------|--------|--------|
A|--------|--------|--------|--------|--------|--------|--------|--------|--------|
F|--------|--------|--------|--------|--------|--------|--------|--------|--------|
C|--------|--------|--------|--------|--------|--------|--------|--------|--------|
G|--------|--------|--------|--------|--------|--------|--------|--------|--------|
D|--------|--------|--------|--------|--------|--------|--------|--------|--------|


D|--------|--------|--------|--------|--------|---------------------------|--------|
A|--------|--------|--------|--------|--------|-----10--10--10--10--------|--------|
F|--------|--------|--------|--------|--------|-----11--11--11--11--------|--------|
C|--------|--------|--------|--------|--------|-----11--11--11--11--------|--------|
G|--------|--------|--------|--------|--------|---------------------------|--------|
D|--------|--------|--------|--------|--------|---------------------------|--------|


D|--------|--------|--------|--------|--------|--------|--------|--------|--------|
A|--------|--------|--------|--------|--------|--------|--------|--------|--------|
F|--------|--------|--------|--------|--------|--------|--------|--------|--------|
C|--------|--------|--------|--------|--------|--------|--------|--------|--------|
G|--------|--------|--------|--------|--------|--------|--------|--------|--------|
D|--------|--------|--------|--------|--------|--------|--------|--------|--------|


D|--------|--------|--------|--------|--------|--------|--------|--------|--------|
A|--------|--------|--------|--------|--------|--------|--------|--------|--------|
F|--------|--------|--------|--------|--------|--------|--------|--------|--------|
C|--------|--------|--------|--------|--------|--------|--------|--------|--------|
G|--------|--------|--------|--------|--------|--------|--------|--------|--------|
D|--------|--------|--------|--------|--------|--------|--------|--------|--------|


D|--------|--------|--------|--------|--------|--------|--------|--------|--------|
A|--------|--------|--------|--------|--------|--------|--------|--------|--------|
F|--------|--------|--------|--------|--------|--------|--------|--------|--------|
C|--------|--------|--------|--------|--------|--------|--------|--------|--------|
G|--------|--------|--------|--------|--------|--------|--------|--------|--------|
D|--------|--------|--------|--------|--------|--------|--------|--------|--------|


D|--------|--------|--------|--------|--------|--------|--------|--------|--------|
A|--------|--------|--------|--------|--------|--------|--------|--------|--------|
F|--------|--------|--------|--------|--------|--------|--------|--------|--------|
C|--------|--------|--------|--------|--------|--------|--------|--------|--------|
G|--------|--------|--------|--------|--------|--------|--------|--------|--------|
D|--------|--------|--------|--------|--------|--------|--------|--------|--------|


D|--------|--------|--------|--------|--------|--------|--------|--------|--------|
A|--------|--------|--------|--------|--------|--------|--------|--------|--------|
F|--------|--------|--------|--------|--------|--------|--------|--------|--------|
C|--------|--------|--------|--------|--------|--------|--------|--------|--------|
G|--------|--------|--------|--------|--------|--------|--------|--------|--------|
D|--------|--------|--------|--------|--------|--------|--------|--------|--------|


D|--------|--------|--------|--------|--------|--------|--------|--------|--------|
A|--------|--------|--------|--------|--------|--------|--------|--------|--------|
F|--------|--------|--------|--------|--------|--------|--------|--------|--------|
C|--------|--------|--------|--------|--------|--------|--------|--------|--------|
G|--------|--------|--------|--------|--------|--------|--------|--------|--------|
D|--------|--------|--------|--------|--------|--------|--------|--------|--------|


D|--------|--------|--------|--------|--------|--------|--------|--------|--------|
A|--------|--------|--------|--------|--------|--------|--------|--------|--------|
F|--------|--------|--------|--------|--------|--------|--------|--------|--------|
C|--------|--------|--------|--------|--------|--------|--------|--------|--------|
G|--------|--------|--------|--------|--------|--------|--------|--------|--------|
D|--------|--------|--------|--------|--------|--------|--------|--------|--------|


D|--------|--------|--------|--------|--------|--------|--------|--------|--------|
A|--------|--------|--------|--------|--------|--------|--------|--------|--------|
F|--------|--------|--------|--------|--------|--------|--------|--------|--------|
C|--------|--------|--------|--------|--------|--------|--------|--------|--------|
G|--------|--------|--------|--------|--------|--------|--------|--------|--------|
D|--------|--------|--------|--------|--------|--------|--------|--------|--------|


D|--------|--------|--------|--------|--------|--------|--------|--------|--------|
A|--------|--------|--------|--------|--------|--------|--------|--------|--------|
F|--------|--------|--------|--------|--------|--------|--------|--------|--------|
C|--------|--------|--------|--------|--------|--------|--------|--------|--------|
G|--------|--------|--------|--------|--------|--------|--------|--------|--------|
D|--------|--------|--------|--------|--------|--------|--------|--------|--------|


D|--------|--------|--------|--------|--------|--------|--------|--------|--------|
A|--------|--------|--------|--------|--------|--------|--------|--------|--------|
F|--------|--------|--------|--------|--------|--------|--------|--------|--------|
C|--------|--------|--------|--------|--------|--------|--------|--------|--------|
G|--------|--------|--------|--------|--------|--------|--------|--------|--------|
D|--------|--------|--------|--------|--------|--------|--------|--------|--------|


D|--------|--------|--------|--------|--------|--------|--------|--------|--------|
A|--------|--------|--------|--------|--------|--------|--------|--------|--------|
F|--------|--------|--------|--------|--------|--------|--------|--------|--------|
C|--------|--------|--------|--------|--------|--------|--------|--------|--------|
G|--------|--------|--------|--------|--------|--------|--------|--------|--------|
D|--------|--------|--------|--------|--------|--------|--------|--------|--------|


D|--------|--------|--------|--------|--------|--------|--------|--------|--------|
A|--------|--------|--------|--------|--------|--------|--------|--------|--------|
F|--------|--------|--------|--------|--------|--------|--------|--------|--------|
C|--------|--------|--------|--------|--------|--------|--------|--------|--------|
G|--------|--------|--------|--------|--------|--------|--------|--------|--------|
D|--------|--------|--------|--------|--------|--------|--------|--------|--------|


D|--------|--------|--------|--------|--------|--------|--------|--------|--------|
A|--------|--------|--------|--------|--------|--------|--------|--------|--------|
F|--------|--------|--------|--------|--------|--------|--------|--------|--------|
C|--------|--------|--------|--------|--------|--------|--------|--------|--------|
G|--------|--------|--------|--------|--------|--------|--------|--------|--------|
D|--------|--------|--------|--------|--------|--------|--------|--------|--------|


D|--------|--------|--------|--------|--------|--------|--------|--------|--------|
A|--------|--------|--------|--------|--------|--------|--------|--------|--------|
F|--------|--------|--------|--------|--------|--------|--------|--------|--------|
C|--------|--------|--------|--------|--------|--------|--------|--------|--------|
G|--------|--------|--------|--------|--------|--------|--------|--------|--------|
D|--------|--------|--------|--------|--------|--------|--------|--------|--------|


D|--------|--------|--------|--------|--------|--------|--------|--------|--------|
A|--------|--------|--------|--------|--------|--------|--------|--------|--------|
F|--------|--------|--------|--------|--------|--------|--------|--------|--------|
C|--------|--------|--------|--------|--------|--------|--------|--------|--------|
G|--------|--------|--------|--------|--------|--------|--------|--------|--------|
D|--------|--------|--------|--------|--------|--------|--------|--------|--------|


D|--------|--------|--------|--------|--------|--------|--------|--------|--------|
A|--------|--------|--------|--------|--------|--------|--------|--------|--------|
F|--------|--------|--------|--------|--------|--------|--------|--------|--------|
C|--------|--------|--------|--------|--------|--------|--------|--------|--------|
G|--------|--------|--------|--------|--------|--------|--------|--------|--------|
D|--------|--------|--------|--------|--------|--------|--------|--------|--------|


D|--------|--------|--------|--------|--------|--------|--------|--------|--------|
A|--------|--------|--------|--------|--------|--------|--------|--------|--------|
F|--------|--------|--------|--------|--------|--------|--------|--------|--------|
C|--------|--------|--------|--------|--------|--------|--------|--------|--------|
G|--------|--------|--------|--------|--------|--------|--------|--------|--------|
D|--------|--------|--------|--------|--------|--------|--------|--------|--------|


D|--------|--------|--------|--------|--------|--------|--------|--------|--------|
A|--------|--------|--------|--------|--------|--------|--------|--------|--------|
F|--------|--------|--------|--------|--------|--------|--------|--------|--------|
C|--------|--------|--------|--------|--------|--------|--------|--------|--------|
G|--------|--------|--------|--------|--------|--------|--------|--------|--------|
D|--------|--------|--------|--------|--------|--------|--------|--------|--------|


D|--------|--------|--------|--------|--------|--------|--------|--------|--------|
A|--------|--------|--------|--------|--------|--------|--------|--------|--------|
F|--------|--------|--------|--------|--------|--------|--------|--------|--------|
C|--------|--------|--------|--------|--------|--------|--------|--------|--------|
G|--------|--------|--------|--------|--------|--------|--------|--------|--------|
D|--------|--------|--------|--------|--------|--------|--------|--------|--------|


D|--------|--------|--------|--------|--------|--------|--------|--------|--------|
A|--------|--------|--------|--------|--------|--------|--------|--------|--------|
F|--------|--------|--------|--------|--------|--------|--------|--------|--------|
C|--------|--------|--------|--------|--------|--------|--------|--------|--------|
G|--------|--------|--------|--------|--------|--------|--------|--------|--------|
D|--------|--------|--------|--------|--------|--------|--------|--------|--------|


D|--------|--------|--------|--------|--------|--------|--------|--------|--------|
A|--------|--------|--------|--------|--------|--------|--------|--------|--------|
F|--------|--------|--------|--------|--------|--------|--------|--------|--------|
C|--------|--------|--------|--------|--------|--------|--------|--------|--------|
G|--------|--------|--------|--------|--------|--------|--------|--------|--------|
D|--------|--------|--------|--------|--------|--------|--------|--------|--------|


D|--------|--------|--------|--------|--------|--------|--------|--------|--------|
A|--------|--------|--------|--------|--------|--------|--------|--------|--------|
F|--------|--------|--------|--------|--------|--------|--------|--------|--------|
C|--------|--------|--------|--------|--------|--------|--------|--------|--------|
G|--------|--------|--------|--------|--------|--------|--------|--------|--------|
D|--------|--------|--------|--------|--------|--------|--------|--------|--------|


D|--------|--------|--------|--------|--------|--------|--------|--------|--------|
A|--------|--------|--------|--------|--------|--------|--------|--------|--------|
F|--------|--------|--------|--------|--------|--------|--------|--------|--------|
C|--------|--------|--------|--------|--------|--------|--------|--------|--------|
G|--------|--------|--------|--------|--------|--------|--------|--------|--------|
D|--------|--------|--------|--------|--------|--------|--------|--------|--------|


D|--------|
A|--------|
F|--------|
C|--------|
G|--------|
D|--------|





Track 2: synth. arr. for guitar

D|--------|--------|--------|--------|--------|--------|--------|--------|--------|
A|--------|--------|--------|--------|--------|--------|--------|--------|--------|
F|--------|--------|--------|--------|--------|--------|--------|--------|--------|
C|--------|--------|--------|--------|--------|--------|--------|--------|--------|
G|--------|--------|--------|--------|--------|--------|--------|--------|--------|
D|--------|--------|--------|--------|--------|--------|--------|--------|--------|


D|-------------|--------------10--12-------|---------------------------|--------------10--12--15---|
A|------12-----|-10--12--13-----------12---|-10--12--12----12----------|-----12--13----------------|
F|-------------|---------------------------|-------------------9---11--|-12------------------------|
C|-------------|---------------------------|---------------------------|---------------------------|
G|-------------|---------------------------|---------------------------|---------------------------|
D|-------------|---------------------------|---------------------------|---------------------------|


D|-----14--14---12-----------|-----------------------|--------------10---12--12--|
A|------------------15--12---|-------12------13--12--|-10------10----------------|
F|---------------------------|-----------------------|-----12--------------------|
C|---------------------------|-----------------------|---------------------------|
G|---------------------------|-----------------------|---------------------------|
D|---------------------------|-----------------------|---------------------------|


D|-------10---------------|-12--14--15---17--19----------|-----------------------|
A|-----------13--12--13---|----------------------19--19--|-17--15--17--19--17----|
F|------------------------|------------------------------|-----------------------|
C|------------------------|------------------------------|-----------------------|
G|------------------------|------------------------------|-----------------------|
D|------------------------|------------------------------|-----------------------|


D|-------------|-------------|-------------|--------|--------|--------|--------|--------|
A|-------17----|-------------|-------------|--------|--------|--------|--------|--------|
F|-------------|-------------|-------------|--------|--------|--------|--------|--------|
C|-------------|-------------|-------------|--------|--------|--------|--------|--------|
G|-------------|-------------|-------------|--------|--------|--------|--------|--------|
D|-------------|-------------|-------------|--------|--------|--------|--------|--------|


D|--------|--------|--------|--------|--------|--------|--------|--------|--------|
A|--------|--------|--------|--------|--------|--------|--------|--------|--------|
F|--------|--------|--------|--------|--------|--------|--------|--------|--------|
C|--------|--------|--------|--------|--------|--------|--------|--------|--------|
G|--------|--------|--------|--------|--------|--------|--------|--------|--------|
D|--------|--------|--------|--------|--------|--------|--------|--------|--------|


D|--------|--------|--------|--------|--------|--------|--------|--------|--------|
A|--------|--------|--------|--------|--------|--------|--------|--------|--------|
F|--------|--------|--------|--------|--------|--------|--------|--------|--------|
C|--------|--------|--------|--------|--------|--------|--------|--------|--------|
G|--------|--------|--------|--------|--------|--------|--------|--------|--------|
D|--------|--------|--------|--------|--------|--------|--------|--------|--------|


D|--------|--------|--------|--------|--------|--------|--------|--------|--------|
A|--------|--------|--------|--------|--------|--------|--------|--------|--------|
F|--------|--------|--------|--------|--------|--------|--------|--------|--------|
C|--------|--------|--------|--------|--------|--------|--------|--------|--------|
G|--------|--------|--------|--------|--------|--------|--------|--------|--------|
D|--------|--------|--------|--------|--------|--------|--------|--------|--------|


D|--------|--------|--------|--------|--------|--------|--------|--------|--------|
A|--------|--------|--------|--------|--------|--------|--------|--------|--------|
F|--------|--------|--------|--------|--------|--------|--------|--------|--------|
C|--------|--------|--------|--------|--------|--------|--------|--------|--------|
G|--------|--------|--------|--------|--------|--------|--------|--------|--------|
D|--------|--------|--------|--------|--------|--------|--------|--------|--------|


D|--------|--------|--------|--------|--------|--------|--------|--------|--------|
A|--------|--------|--------|--------|--------|--------|--------|--------|--------|
F|--------|--------|--------|--------|--------|--------|--------|--------|--------|
C|--------|--------|--------|--------|--------|--------|--------|--------|--------|
G|--------|--------|--------|--------|--------|--------|--------|--------|--------|
D|--------|--------|--------|--------|--------|--------|--------|--------|--------|


D|--------|--------|--------|--------|--------|--------|--------|--------|--------|
A|--------|--------|--------|--------|--------|--------|--------|--------|--------|
F|--------|--------|--------|--------|--------|--------|--------|--------|--------|
C|--------|--------|--------|--------|--------|--------|--------|--------|--------|
G|--------|--------|--------|--------|--------|--------|--------|--------|--------|
D|--------|--------|--------|--------|--------|--------|--------|--------|--------|


D|--------|--------|--------|--------|--------|--------|--------|--------|--------|
A|--------|--------|--------|--------|--------|--------|--------|--------|--------|
F|--------|--------|--------|--------|--------|--------|--------|--------|--------|
C|--------|--------|--------|--------|--------|--------|--------|--------|--------|
G|--------|--------|--------|--------|--------|--------|--------|--------|--------|
D|--------|--------|--------|--------|--------|--------|--------|--------|--------|


D|--------|--------|--------|--------|--------|--------|--------|--------|--------|
A|--------|--------|--------|--------|--------|--------|--------|--------|--------|
F|--------|--------|--------|--------|--------|--------|--------|--------|--------|
C|--------|--------|--------|--------|--------|--------|--------|--------|--------|
G|--------|--------|--------|--------|--------|--------|--------|--------|--------|
D|--------|--------|--------|--------|--------|--------|--------|--------|--------|


D|--------|--------|--------|--------|--------|--------|--------|--------|--------|
A|--------|--------|--------|--------|--------|--------|--------|--------|--------|
F|--------|--------|--------|--------|--------|--------|--------|--------|--------|
C|--------|--------|--------|--------|--------|--------|--------|--------|--------|
G|--------|--------|--------|--------|--------|--------|--------|--------|--------|
D|--------|--------|--------|--------|--------|--------|--------|--------|--------|


D|--------|--------|--------|--------|--------|--------|--------|--------|--------|
A|--------|--------|--------|--------|--------|--------|--------|--------|--------|
F|--------|--------|--------|--------|--------|--------|--------|--------|--------|
C|--------|--------|--------|--------|--------|--------|--------|--------|--------|
G|--------|--------|--------|--------|--------|--------|--------|--------|--------|
D|--------|--------|--------|--------|--------|--------|--------|--------|--------|


D|--------|--------|--------|--------|--------|--------|--------|--------|--------|
A|--------|--------|--------|--------|--------|--------|--------|--------|--------|
F|--------|--------|--------|--------|--------|--------|--------|--------|--------|
C|--------|--------|--------|--------|--------|--------|--------|--------|--------|
G|--------|--------|--------|--------|--------|--------|--------|--------|--------|
D|--------|--------|--------|--------|--------|--------|--------|--------|--------|


D|--------|--------|--------|--------|--------|--------|--------|--------|--------|
A|--------|--------|--------|--------|--------|--------|--------|--------|--------|
F|--------|--------|--------|--------|--------|--------|--------|--------|--------|
C|--------|--------|--------|--------|--------|--------|--------|--------|--------|
G|--------|--------|--------|--------|--------|--------|--------|--------|--------|
D|--------|--------|--------|--------|--------|--------|--------|--------|--------|


D|--------|--------|--------|--------|--------|--------|--------|--------|--------|
A|--------|--------|--------|--------|--------|--------|--------|--------|--------|
F|--------|--------|--------|--------|--------|--------|--------|--------|--------|
C|--------|--------|--------|--------|--------|--------|--------|--------|--------|
G|--------|--------|--------|--------|--------|--------|--------|--------|--------|
D|--------|--------|--------|--------|--------|--------|--------|--------|--------|


D|--------|--------|--------|--------|--------|--------|--------|--------|--------|
A|--------|--------|--------|--------|--------|--------|--------|--------|--------|
F|--------|--------|--------|--------|--------|--------|--------|--------|--------|
C|--------|--------|--------|--------|--------|--------|--------|--------|--------|
G|--------|--------|--------|--------|--------|--------|--------|--------|--------|
D|--------|--------|--------|--------|--------|--------|--------|--------|--------|


D|--------|--------|--------|--------|--------|--------|--------|--------|--------|
A|--------|--------|--------|--------|--------|--------|--------|--------|--------|
F|--------|--------|--------|--------|--------|--------|--------|--------|--------|
C|--------|--------|--------|--------|--------|--------|--------|--------|--------|
G|--------|--------|--------|--------|--------|--------|--------|--------|--------|
D|--------|--------|--------|--------|--------|--------|--------|--------|--------|


D|--------|--------|--------|--------|--------|--------|--------|-----------------------------|
A|--------|--------|--------|--------|--------|--------|--------|-----7---7---10-9--7---------|
F|--------|--------|--------|--------|--------|--------|--------|-----------------------------|
C|--------|--------|--------|--------|--------|--------|--------|-----------------------------|
G|--------|--------|--------|--------|--------|--------|--------|-----------------------------|
D|--------|--------|--------|--------|--------|--------|--------|-----------------------------|


D|---------------------------|----------------------17-16-|-14-------------|-----------------------|
A|--------------12-13--------|-------10-9--7--------------|----------------|-------------------8---|
F|-----11-13-14--------------|----------------------------|------------8---|-----8---9---9---------|
C|---------------------------|----------------------------|----------------|-----------------------|
G|---------------------------|----------------------------|----------------|-----------------------|
D|---------------------------|----------------------------|----------------|-----------------------|


D|-----------------------|---------------------------------|----------------|---------------------------------|
A|-----------8---7---7---|----7--5--7--5---5---------------|----------------|---------12--10---10-10--8---22--|
F|-----------------------|-----------------------7--7--7---|-----7----------|---------------------------------|
C|-----------------------|---------------------------------|------------5---|-7---9---------------------------|
G|-----------------------|---------------------------------|----------------|---------------------------------|
D|-----------------------|---------------------------------|----------------|---------------------------------|


D|---------------------------22-22-|-21--21----21--21--24-24-|-----18-19-22-19-18----------------------|
A|-----22-22-20-22-20--------------|-------------------------|--------------------22-20------------19--|
F|-----------------------21--------|-------------------------|--------------------------21-21--21------|
C|---------------------------------|-------------------------|-----------------------------------------|
G|---------------------------------|-------------------------|-----------------------------------------|
D|---------------------------------|-------------------------|-----------------------------------------|


D|---------------------------------|-------------------------------19-21-24--24---------|
A|-19--19--------------------------|-------------------------19-22----------------19----|
F|---------------------------14----|-------------14-16-18-21-------------------------18-|
C|----------16---------14-16----16-|----16-14-16----------------------------------------|
G|---------------14-16-------------|----------------------------------------------------|
D|---------------------------------|----------------------------------------------------|


D|---------------------------------------------|------------------------------------17--|
A|----19---------------------------------------|----------------------------------------|
F|-17----16--------11-------11-----------------|-11-------------------------------------|
C|----------19-16-----11-10----9---------10-11-|----11-10-9-----------------------------|
G|--------------------------------12-9---------|-------------12-10----------------------|
D|---------------------------------------------|-------------------8--9--8--7--6--------|


D|-----------17---19--|------19--21----21--17--|-----------17--17-16-15-16-15-14-|
A|--------------------|------------------------|---------------------------------|
F|--------------------|------------------------|---------------------------------|
C|--------------------|------------------------|---------------------------------|
G|--------------------|------------------------|---------------------------------|
D|--------------------|------------------------|---------------------------------|


D|-15-14-13-14-13-12-13-12-11-12-11-10-11-10-9--10-9--8--9--8--7------|--------|--------|
A|--------------------------------------------------------------------|--------|--------|
F|--------------------------------------------------------------------|--------|--------|
C|--------------------------------------------------------------------|--------|--------|
G|--------------------------------------------------------------------|--------|--------|
D|--------------------------------------------------------------------|--------|--------|


D|--------|--------|--------|--------|--------|--------|--------|--------|--------|
A|--------|--------|--------|--------|--------|--------|--------|--------|--------|
F|--------|--------|--------|--------|--------|--------|--------|--------|--------|
C|--------|--------|--------|--------|--------|--------|--------|--------|--------|
G|--------|--------|--------|--------|--------|--------|--------|--------|--------|
D|--------|--------|--------|--------|--------|--------|--------|--------|--------|


D|--------|--------|--------|--------|----------------|-----------------------------------|
A|--------|--------|--------|--------|----------------|-----17--15------15----------------|
F|--------|--------|--------|--------|----------------|-------------14------14--12--11-12-|
C|--------|--------|--------|--------|------------12--|-14--------------------------------|
G|--------|--------|--------|--------|----------------|-----------------------------------|
D|--------|--------|--------|--------|----------------|-----------------------------------|


D|-14--14--12--------17--17---17-14-|-15-17-15-14--------------------------------------|
A|-------------15-------------------|-------------17-15----17-------17-----------------|
F|----------------14----------------|-------------------16----14-15----14--------------|
C|----------------------------------|-------------------------------------17-16-14-16--|
G|----------------------------------|--------------------------------------------------|
D|----------------------------------|--------------------------------------------------|


D|----------------------|----------------------------------------15-17-19-18-19-|-15----------------------18---21-18-21|
A|----------------15-17-|----15-------------15-17----15----15-17----------------|----17-15----15--15---17--------------|
F|----------------------|-16----14-16----14-------16----16----------------------|----------16--------------------------|
C|-16--16----16---------|-------------17----------------------------------------|--------------------------------------|
G|----------------------|-------------------------------------------------------|--------------------------------------|
D|----------------------|-------------------------------------------------------|--------------------------------------|


D|---18-21-18-21-18-21-18-17---17-17-15-14------------|--------------------------------------------------|
A|-----------------------------------------15-12----15|---12---------------------------------------------|
F|-----------------------------------------------14---|------14-12---------------------------------------|
C|----------------------------------------------------|------------14-12---------------------------------|
G|----------------------------------------------------|------------------14-12-10------------------------|
D|----------------------------------------------------|---------------------------12-12--12--12--10------|


D|--------|--------|--------|--------|--------|--------|--------|------------7-----|
A|--------|--------|--------|--------|--------|--------|--------|---------------8--|
F|--------|--------|--------|--------|--------|--------|--------|------------------|
C|--------|--------|--------|--------|--------|--------|--------|------------------|
G|--------|--------|--------|--------|--------|--------|--------|------------------|
D|--------|--------|--------|--------|--------|--------|--------|------------------|


D|----7--8-----7--8--7--------7--------------7-----|----7--8-----7--8--7--------7--------------6-----|
A|-10-------10----------8--10----10-8--7--------8--|-10-------10----------8--10----10-8--7--------8--|
F|----------------------------------------9--------|----------------------------------------9--------|
C|-------------------------------------------------|-------------------------------------------------|
G|-------------------------------------------------|-------------------------------------------------|
D|-------------------------------------------------|-------------------------------------------------|


D|----6--8-----6--8--6--------6--------------6-----|----6--8-----6--8--6--------6--------------9-----|
A|-10-------10----------8--10----10-8--6--------8--|-10-------10----------8--10----10-8--6--------10-|
F|----------------------------------------9--------|----------------------------------------9--------|
C|-------------------------------------------------|-------------------------------------------------|
G|-------------------------------------------------|-------------------------------------------------|
D|-------------------------------------------------|-------------------------------------------------|


D|----9--10----9--10-12-9--10-12-14-10-12-14-12-10-|-9--10-9-----9-----------------------------8-----|
A|-12-------12-------------------------------------|----------12----12-10-12-10-9--10-9-----------10-|
F|-------------------------------------------------|-------------------------------------11-9--------|
C|-------------------------------------------------|-------------------------------------------------|
G|-------------------------------------------------|-------------------------------------------------|
D|-------------------------------------------------|-------------------------------------------------|


D|----8--10----8--10-12-8--10-12-13-10-12-13-12-10-|-8--10-8-----8-----------------------------------|
A|-12-------12-------------------------------------|----------12----12-10-12-10-9--10-9--------------|
F|-------------------------------------------------|-------------------------------------10-9--16-14-|
C|-------------------------------------------------|-------------------------------------------------|
G|-------------------------------------------------|-------------------------------------------------|
D|-------------------------------------------------|-------------------------------------------------|


D|-------------------------------------15-19-------|----------20-22-26-24-22-20-19-----------------|
A|-------------15-19-17-15----15-17-19-------24-22-|-20-22-24----------------------22-20-19--------|
F|----14-16-17-------------17----------------------|----------------------------------------21-20--|
C|-17----------------------------------------------|-----------------------------------------------|
G|-------------------------------------------------|-----------------------------------------------|
D|-------------------------------------------------|-----------------------------------------------|


D|--------------------|--------|--------|--------|--------|--------|--------|--------|
A|--------------------|--------|--------|--------|--------|--------|--------|--------|
F|-----------20-------|--------|--------|--------|--------|--------|--------|--------|
C|--------------------|--------|--------|--------|--------|--------|--------|--------|
G|--------------------|--------|--------|--------|--------|--------|--------|--------|
D|--------------------|--------|--------|--------|--------|--------|--------|--------|


D|--------|--------|--------|--------|--------|--------|--------|--------|--------|
A|--------|--------|--------|--------|--------|--------|--------|--------|--------|
F|--------|--------|--------|--------|--------|--------|--------|--------|--------|
C|--------|--------|--------|--------|--------|--------|--------|--------|--------|
G|--------|--------|--------|--------|--------|--------|--------|--------|--------|
D|--------|--------|--------|--------|--------|--------|--------|--------|--------|


D|--------|----------------|---------------------------------|---------------------------------|
A|--------|----------------|---------------------------------|---------------------------------|
F|--------|--------12--11--|-----12------12--11------12--11--|-----11--12--11--12--14--12--11--|
C|--------|----------------|-14------------------14----------|-14------------------------------|
G|--------|----------------|---------------------------------|---------------------------------|
D|--------|----------------|---------------------------------|---------------------------------|


D|---------------------------------|---------------------------------|---------------------------------|
A|---------------------------------|-------------------------13--12--|-----13------13--12------13--12--|
F|-----12------12--11------12--11--|-----11--12--11--12--14----------|-14------------------14----------|
C|-14------------------14----------|-14------------------------------|---------------------------------|
G|---------------------------------|---------------------------------|---------------------------------|
D|---------------------------------|---------------------------------|---------------------------------|


D|---------------------------------|-----------------------------------|---------------------------------|
A|-----12--13--12--13--15--13--12--|-----13------13--12------12--13-12-|---------------------------------|
F|-14------------------------------|-14------------------14------------|-14--12--11----------11--12--11--|
C|---------------------------------|-----------------------------------|-------------14--13--------------|
G|---------------------------------|-----------------------------------|---------------------------------|
D|---------------------------------|-----------------------------------|---------------------------------|


D|---------------------------------|---------------------------------|---------------------------------|
A|---------------------------------|---------------------------------|---------------------------------|
F|-----12------12--11------12--11--|-----11--12--11--12--14--12--11--|-----12------12--11------12--11--|
C|-14------------------14----------|-14------------------------------|-14------------------14----------|
G|---------------------------------|---------------------------------|---------------------------------|
D|---------------------------------|---------------------------------|---------------------------------|


D|---------------------------------|---------------------------------|---------------------------------|
A|-------------------------13--12--|-----13------13--12------13--12--|-----12--13--12--13--15--13--12--|
F|-----11--12--11--12--14----------|-14------------------14----------|-14------------------------------|
C|-14------------------------------|---------------------------------|---------------------------------|
G|---------------------------------|---------------------------------|---------------------------------|
D|---------------------------------|---------------------------------|---------------------------------|


D|-----------------------------------|------------------------------|--------|--------|
A|-----13------13--12------12--13-12-|------------------------------|--------|--------|
F|-14------------------14------------|-14--12--11----------11-------|--------|--------|
C|-----------------------------------|-------------14--13-----------|--------|--------|
G|-----------------------------------|------------------------------|--------|--------|
D|-----------------------------------|------------------------------|--------|--------|


D|--------|--------|--------|--------|--------|----------------|---------------------------------|
A|--------|--------|--------|--------|--------|--------12--10--|-----12------12--10------12--10--|
F|--------|--------|--------|--------|--------|----------------|-12------------------12----------|
C|--------|--------|--------|--------|--------|----------------|---------------------------------|
G|--------|--------|--------|--------|--------|----------------|---------------------------------|
D|--------|--------|--------|--------|--------|----------------|---------------------------------|


D|---------------------------------|---------------------------------|---------------------------------|
A|-----10--12--10--12--13--12--10--|-----12------12--10------12--10--|-----10--12--10--12--13--17--15--|
F|-12------------------------------|-12------------------12----------|-12------------------------------|
C|---------------------------------|---------------------------------|---------------------------------|
G|---------------------------------|---------------------------------|---------------------------------|
D|---------------------------------|---------------------------------|---------------------------------|


D|---------------------------------|---------------------------------|-------------------------------------|
A|-----17------17--15------17--15--|-----15--17--15--17--19--17--15--|-----17------17--15------17--15------|
F|-17------------------17----------|-17------------------------------|-17------------------17----------17--|
C|---------------------------------|---------------------------------|-------------------------------------|
G|---------------------------------|---------------------------------|-------------------------------------|
D|---------------------------------|---------------------------------|-------------------------------------|


D|---------------------------------------------|---------------------------------|
A|-------------------------------------12--10--|-----12------12--10------12--10--|
F|-16--14--------------14--16--17--14----------|-12------------------12----------|
C|---------17--16--17--------------------------|---------------------------------|
G|---------------------------------------------|---------------------------------|
D|---------------------------------------------|---------------------------------|


D|---------------------------------|---------------------------------|---------------------------------|
A|-----10--12--10--12--13--12--10--|-----12------12--10------12--10--|-----10--12--10--12--13--17--15--|
F|-12------------------------------|-12------------------12----------|-12------------------------------|
C|---------------------------------|---------------------------------|---------------------------------|
G|---------------------------------|---------------------------------|---------------------------------|
D|---------------------------------|---------------------------------|---------------------------------|


D|---------------------------------|---------------------------------|-------------------------------------|
A|-----17------17--15------17--15--|-----15--17--15--17--19--17--15--|-----17------17--15------10-12-10----|
F|-17------------------17----------|-17------------------------------|-17------------------17-----------12-|
C|---------------------------------|---------------------------------|-------------------------------------|
G|---------------------------------|---------------------------------|-------------------------------------|
D|---------------------------------|---------------------------------|-------------------------------------|


D|----------------------------------------|--------|--------|--------|--------|--------|
A|-------10-------------------------------|--------|--------|--------|--------|--------|
F|-11-12----12-11-------------------------|--------|--------|--------|--------|--------|
C|----------------13-12-11-10-------------|--------|--------|--------|--------|--------|
G|----------------------------14-12-------|--------|--------|--------|--------|--------|
D|----------------------------------------|--------|--------|--------|--------|--------|


D|--------|--------|--------|--------|--------|--------|--------|--------|--------|
A|--------|--------|--------|--------|--------|--------|--------|--------|--------|
F|--------|--------|--------|--------|--------|--------|--------|--------|--------|
C|--------|--------|--------|--------|--------|--------|--------|--------|--------|
G|--------|--------|--------|--------|--------|--------|--------|--------|--------|
D|--------|--------|--------|--------|--------|--------|--------|--------|--------|


D|--------|--------|--------|--------|--------|--------|--------|--------|--------|
A|--------|--------|--------|--------|--------|--------|--------|--------|--------|
F|--------|--------|--------|--------|--------|--------|--------|--------|--------|
C|--------|--------|--------|--------|--------|--------|--------|--------|--------|
G|--------|--------|--------|--------|--------|--------|--------|--------|--------|
D|--------|--------|--------|--------|--------|--------|--------|--------|--------|


D|--------|--------|--------|--------|--------|--------|--------|--------|--------|
A|--------|--------|--------|--------|--------|--------|--------|--------|--------|
F|--------|--------|--------|--------|--------|--------|--------|--------|--------|
C|--------|--------|--------|--------|--------|--------|--------|--------|--------|
G|--------|--------|--------|--------|--------|--------|--------|--------|--------|
D|--------|--------|--------|--------|--------|--------|--------|--------|--------|


D|--------|--------|--------|--------|--------|--------|--------|--------|--------|
A|--------|--------|--------|--------|--------|--------|--------|--------|--------|
F|--------|--------|--------|--------|--------|--------|--------|--------|--------|
C|--------|--------|--------|--------|--------|--------|--------|--------|--------|
G|--------|--------|--------|--------|--------|--------|--------|--------|--------|
D|--------|--------|--------|--------|--------|--------|--------|--------|--------|


D|--------|--------|--------|--------|--------|--------|--------|--------|--------|
A|--------|--------|--------|--------|--------|--------|--------|--------|--------|
F|--------|--------|--------|--------|--------|--------|--------|--------|--------|
C|--------|--------|--------|--------|--------|--------|--------|--------|--------|
G|--------|--------|--------|--------|--------|--------|--------|--------|--------|
D|--------|--------|--------|--------|--------|--------|--------|--------|--------|


D|--------|--------|--------|--------|--------|--------|--------|--------|--------|
A|--------|--------|--------|--------|--------|--------|--------|--------|--------|
F|--------|--------|--------|--------|--------|--------|--------|--------|--------|
C|--------|--------|--------|--------|--------|--------|--------|--------|--------|
G|--------|--------|--------|--------|--------|--------|--------|--------|--------|
D|--------|--------|--------|--------|--------|--------|--------|--------|--------|


D|--------|--------|--------|--------|--------|--------|--------|--------|--------|
A|--------|--------|--------|--------|--------|--------|--------|--------|--------|
F|--------|--------|--------|--------|--------|--------|--------|--------|--------|
C|--------|--------|--------|--------|--------|--------|--------|--------|--------|
G|--------|--------|--------|--------|--------|--------|--------|--------|--------|
D|--------|--------|--------|--------|--------|--------|--------|--------|--------|


D|--------|--------|--------|--------|--------|--------|--------|--------|--------|
A|--------|--------|--------|--------|--------|--------|--------|--------|--------|
F|--------|--------|--------|--------|--------|--------|--------|--------|--------|
C|--------|--------|--------|--------|--------|--------|--------|--------|--------|
G|--------|--------|--------|--------|--------|--------|--------|--------|--------|
D|--------|--------|--------|--------|--------|--------|--------|--------|--------|


D|--------|--------|--------|--------|--------|--------|--------|--------|--------|
A|--------|--------|--------|--------|--------|--------|--------|--------|--------|
F|--------|--------|--------|--------|--------|--------|--------|--------|--------|
C|--------|--------|--------|--------|--------|--------|--------|--------|--------|
G|--------|--------|--------|--------|--------|--------|--------|--------|--------|
D|--------|--------|--------|--------|--------|--------|--------|--------|--------|


D|--------|--------|--------|
A|--------|--------|--------|
F|--------|--------|--------|
C|--------|--------|--------|
G|--------|--------|--------|
D|--------|--------|--------|





Track 3: dist.

D|--------|--------|--------|--------|--------|--------|--------|--------|--------|
A|--------|--------|--------|--------|--------|--------|--------|--------|--------|
F|--------|--------|--------|--------|--------|--------|--------|--------|--------|
C|--------|--------|--------|--------|--------|--------|--------|--------|--------|
G|--------|--------|--------|--------|--------|--------|--------|--------|--------|
D|--------|--------|--------|--------|--------|--------|--------|--------|--------|


D|--------|--------|--------|--------|--------|--------|--------|--------|--------|
A|--------|--------|--------|--------|--------|--------|--------|--------|--------|
F|--------|--------|--------|--------|--------|--------|--------|--------|--------|
C|--------|--------|--------|--------|--------|--------|--------|--------|--------|
G|--------|--------|--------|--------|--------|--------|--------|--------|--------|
D|--------|--------|--------|--------|--------|--------|--------|--------|--------|


D|--------|--------|--------|--------|--------|--------|--------|--------|--------|
A|--------|--------|--------|--------|--------|--------|--------|--------|--------|
F|--------|--------|--------|--------|--------|--------|--------|--------|--------|
C|--------|--------|--------|--------|--------|--------|--------|--------|--------|
G|--------|--------|--------|--------|--------|--------|--------|--------|--------|
D|--------|--------|--------|--------|--------|--------|--------|--------|--------|


D|--------|--------|--------|--------|--------|--------|--------|--------|--------|
A|--------|--------|--------|--------|--------|--------|--------|--------|--------|
F|--------|--------|--------|--------|--------|--------|--------|--------|--------|
C|--------|--------|--------|--------|--------|--------|--------|--------|--------|
G|--------|--------|--------|--------|--------|--------|--------|--------|--------|
D|--------|--------|--------|--------|--------|--------|--------|--------|--------|


D|--------|--------|--------|--------|--------|--------|--------|--------|--------|
A|--------|--------|--------|--------|--------|--------|--------|--------|--------|
F|--------|--------|--------|--------|--------|--------|--------|--------|--------|
C|--------|--------|--------|--------|--------|--------|--------|--------|--------|
G|--------|--------|--------|--------|--------|--------|--------|--------|--------|
D|--------|--------|--------|--------|--------|--------|--------|--------|--------|


D|--------|------------------------------------|---------------------------------------|
A|--------|------------------------------------|---------------------------------------|
F|--------|------------------------------------|---------------------------------4--5--|
C|--------|------2-------5--7--2---2-----5--7--|-2-------2-------5--7--2---2-----4--5--|
G|--------|------2----2--5--7--2---2--2--5--7--|-2---2---2----2--5--7--2---2--2--2--3--|
D|--------|------0----0--3--5--0---0--0--3--5--|-0-------0----0--3--5--0---0--0--------|


D|---------------------------------------|---------------------------------------|
A|---------------------------------------|---------------------------------------|
F|-4-------------------------------------|---------------------------------------|
C|-4---4---2-------5--7--2---2-----5--7--|-2-------2-------5--7--2---------------|
G|-2---4---2----2--5--7--2---2--2--5--7--|-2---2---2----2--5--7--2---3--3--3--3--|
D|-----2---0----0--3--5--0---0--0--3--5--|-0-------0----0--3--5--0---------------|


D|-------------------------------------------|---------------------------------------|
A|-------------------------------------------|---------------------------------------|
F|-------------------------------------------|---------------------------------4--5--|
C|-------------2-------5--7--2---2-----5--7--|-2-------2-------5--7--2---2-----4--5--|
G|-5--5--5--5--2----2--5--7--2---2--2--5--7--|-2---2---2----2--5--7--2---2--2--2--3--|
D|-------------0----0--3--5--0---0--0--3--5--|-0-------0----0--3--5--0---0--0--------|


D|---------------------------------------|---------------------------------------|
A|---------------------------------------|---------------------------------------|
F|-4-------------------------------------|---------------------------------------|
C|-4---4---2-------5--7--2---2-----5--7--|-2-------2-------5--7--2---------------|
G|-2---4---2----2--5--7--2---2--2--5--7--|-2---2---2----2--5--7--2---3--3--3--3--|
D|-----2---0----0--3--5--0---0--0--3--5--|-0-------0----0--3--5--0---------------|


D|-------------------0----|-------------|-------------|--------------------|------------0----|
A|-------------------0----|-------------|-------------|--------------------|------------0----|
F|-------------4-----4----|-------------|------2------|-2-------5----------|------4-----4----|
C|-------------2-----2----|-------------|------2------|-2---4---5-----7----|------2-----2----|
G|-5--5--5--5--2-----2----|------4------|------0------|-0---2---3-----6----|------2-----2----|
D|-------------0-----0----|------2------|-------------|--------------------|------0-----0----|


D|-------------|-------------|--------------------|--------|--------|--------|--------|
A|-------------|-------------|--------------------|--------|--------|--------|--------|
F|-------------|------2------|-2-------5----------|--------|--------|--------|--------|
C|-------------|------2------|-2---4---5-----7----|--------|--------|--------|--------|
G|------4------|------0------|-0---2---3-----6----|--------|--------|--------|--------|
D|------2------|-------------|--------------------|--------|--------|--------|--------|


D|--------|--------|--------|--------|--------|-----------------------|---------------------------------|
A|--------|--------|--------|--------|--------|-----------------------|---------------------------------|
F|--------|--------|--------|--------|--------|-----------------------|-0-----------------------0-------|
C|--------|--------|--------|--------|--------|---------------2---4---|-----4---2-----------2-------2---|
G|--------|--------|--------|--------|--------|-----------2-----------|-------------2---3---------------|
D|--------|--------|--------|--------|--------|-------0---------------|---------------------------------|


D|---------------------------------|---------------------------------|---------------------------------|
A|---------------------------------|---------------------------------|---------------------------------|
F|---------------------------------|-0-----------------------0-------|---------------------------------|
C|-----2-------4-----------2---4---|-----4---2-----------2-------2---|---------0-----------------------|
G|-4-------2-----------2-----------|-------------2---3---------------|-----2-------2-------5---3---2---|
D|-----------------0---------------|---------------------------------|-3---------------2---------------|


D|---------------------------------|---------------------------------|---------------------------------|
A|---------------------------------|---------------------------------|---------------------------------|
F|-----------------0---------------|---------0---------------0-------|-----------------0---------------|
C|---------2---4-------4---2-------|-----2-------2-------4-------4---|---------2---4-------4---2-------|
G|-----2-----------------------2---|-3---------------5---------------|-----2-----------------------2---|
D|-0-------------------------------|---------------------------------|-0-------------------------------|


D|---------------------------------|---------------------------------|---------------------------------|
A|---------------------------------|---------------------------------|---------1-----------------------|
F|---------0-----------------------|---------------------------------|-2---4-------4---2-----------5---|
C|-----2-------2-----------0-------|---------7-------------------2---|---------------------2---4-------|
G|-3-------------------2-----------|-----6-------------------0-------|---------------------------------|
D|-----------------3-----------3---|-7-----------7---8---7-----------|---------------------------------|


D|---------------------------------|---------------------------------|-1--0------------------------------|
A|-0---------------0---------------|---------1-----------------------|-------3-------------------5-------|
F|-----5-------5-------5-----------|-2---4-------4---2-----------2---|-------------------4-----------4---|
C|---------3-------------------2---|---------------------2---0-------|---------------2-------2-----------|
G|-------------------------0-------|---------------------------------|-----------------------------------|
D|---------------------------------|---------------------------------|-----------4-----------------------|


D|---------------------------------|---------------------------------|---------------------------------|
A|-----------------1---------------|---------0-----------------------|-----------------1---------------|
F|---------2---4-------4---2-------|-----5-------5-----------0-------|---------2---4-------4---2-------|
C|-----2-----------------------2---|-4-------------------0-------0---|-----2-----------------------2---|
G|-0-------------------------------|---------------------------------|-0-------------------------------|
D|---------------------------------|-----------------3---------------|---------------------------------|


D|------------------------------|---------------------------|---------------------------------------|
A|------------------------------|---------------------------|---------------------------------------|
F|------------------------------|---------0------------0----|---------------------------------------|
C|---------0---------------0----|-----2------------7--------|-2-------5--7--2---2-----5--7--2-------|
G|-----0-------0-------3--------|-3------------5------------|-2----2--5--7--2---2--2--5--7--2---2---|
D|-2---------------1------------|---------------------------|-0----0--3--5--0---0--0--3--5--0-------|


D|---------------------------------------|---------------------------------------|
A|---------------------------------------|---------------------------------------|
F|-------------------------4--5--4-------|---------------------------------------|
C|-2-------5--7--2---2-----4--5--4---4---|-2-------5--7--2---2-----5--7--2-------|
G|-2----2--5--7--2---2--2--2--3--2---4---|-2----2--5--7--2---2--2--5--7--2---2---|
D|-0----0--3--5--0---0--0------------2---|-0----0--3--5--0---0--0--3--5--0-------|


D|-------------------------------------------|---------------------------------------|
A|-------------------------------------------|---------------------------------------|
F|-------------------------------------------|---------------------------------------|
C|-2-------5--7--2---------------------------|-2-------5--7--2---2-----5--7--2-------|
G|-2----2--5--7--2---3--3--3--3--5--5--5--5--|-2----2--5--7--2---2--2--5--7--2---2---|
D|-0----0--3--5--0---------------------------|-0----0--3--5--0---0--0--3--5--0-------|


D|---------------------------------------|---------------------------------------|
A|---------------------------------------|---------------------------------------|
F|-------------------------4--5--4-------|---------------------------------------|
C|-2-------5--7--2---2-----4--5--4---4---|-2-------5--7--2---2-----5--7--2-------|
G|-2----2--5--7--2---2--2--2--3--2---4---|-2----2--5--7--2---2--2--5--7--2---2---|
D|-0----0--3--5--0---0--0------------2---|-0----0--3--5--0---0--0--3--5--0-------|


D|-------------------------------------------|---------------------------------------|
A|-------------------------------------------|---------------------------------------|
F|-------------------------------------------|---------------------------------------|
C|-2-------5--7--2---------------------------|-2----2--5--7--2---2--2--5--7--2-------|
G|-2----2--5--7--2---3--3--3--3--5--5--5--5--|-2----2--5--7--2---2--2--5--7--2---2---|
D|-0----0--3--5--0---------------------------|-0----0--3--5--0---0--0--3--5--0-------|


D|---------------------------------------|---------------------------------------|
A|---------------------------------------|---------------------------------------|
F|-------------------------4--5--4-------|---------------------------------------|
C|-2----2--5--7--2---2--2--4--5--4---4---|-2----2--5--7--2---2--2--5--7--2-------|
G|-2----2--5--7--2---2--2--2--3--2---4---|-2----2--5--7--2---2--2--5--7--2---2---|
D|-0----0--3--5--0---0--0------------2---|-0----0--3--5--0---0--0--3--5--0-------|


D|-------------------------------------------|---------------------------------------|
A|-------------------------------------------|---------------------------------------|
F|-------------------------------------------|---------------------------------------|
C|-2-------5--7--2---5--5--5--5--7--7--7--7--|-2----2--5--7--2---2--2--5--7--2-------|
G|-2----2--5--7--2---3--3--3--3--5--5--5--5--|-2----2--5--7--2---2--2--5--7--2---2---|
D|-0----0--3--5--0---------------------------|-0----0--3--5--0---0--0--3--5--0-------|


D|---------------------------------------|---------------------------------------|
A|---------------------------------------|---------------------------------------|
F|-------------------------4--5--4-------|---------------------------------------|
C|-2----2--5--7--2---2--2--4--5--4---4---|-2----2--5--7--2---2--2--5--7--2-------|
G|-2----2--5--7--2---2--2--2--3--2---4---|-2----2--5--7--2---2--2--5--7--2---2---|
D|-0----0--3--5--0---0--0------------2---|-0----0--3--5--0---0--0--3--5--0-------|


D|-------------------------------------------|--------|--------|--------|--------|
A|-------------------------------------------|--------|--------|--------|--------|
F|-------------------5-----------7---7---7---|-4------|-4------|-4------|-4------|
C|-2-------5--7--2---5---5-5--5--7---7---7---|-2------|-2------|-2------|-2------|
G|-2----2--5--7--2---3---3-3--3--5---5---5---|-2------|-2------|-2------|-2------|
D|-0----0--3--5--0---------------------------|-0------|-0------|-0------|-0------|


D|-----------------|--------|----------------------------------|----------------------------------|
A|-----------------|--------|----------------------------------|----------------------------------|
F|-4---------------|--------|-------------------5--------------|----------------------------------|
C|-2---------------|--------|-------------------4--------------|-----------------------------1----|
G|-2---------------|--------|----------------------------------|-----------------------------1----|
D|-----------------|--------|-3--2--0---0---0--------3--2--0---|-3--2--0---0---0---3--2--0--------|


D|----------------------------------|----------------------------------|----------------------------------|
A|----------------------------------|----------------------------------|----------------------------------|
F|-------------------5--------------|----------------------------------|-------------------5--------------|
C|-------------------4--------------|-----------------------------1----|-------------------4--------------|
G|----------------------------------|-----------------------------1----|----------------------------------|
D|-3--2--0---0---0--------3--2--0---|-3--2--0---0---0---3--2--0--------|-3--2--0---0---0--------3--2--0---|


D|----------------------------------|----------------------------------|----------------------------------|
A|----------------------------------|----------------------------------|----------------------------------|
F|----------------------------------|-------------------5--------------|----------------------------------|
C|-----------------------------1----|-------------------4--------------|-----------------------------1----|
G|-----------------------------1----|----------------------------------|-----------------------------1----|
D|-3--2--0---0---0---3--2--0--------|-3--2--0---0---0--------3--2--0---|-3--2--0---0---0---3--2--0--------|


D|----------------------------------|----------------------------------|----------------------------------|
A|----------------------------------|----------------------------------|----------------------------------|
F|-------------------5--------------|----------------------------------|-------------------5--------------|
C|-------------------4--------------|-----------------------------1----|-------------------4--------------|
G|----------------------------------|-----------------------------1----|----------------------------------|
D|-3--2--0---0---0--------3--2--0---|-3--2--0---0---0---3--2--0--------|-3--2--0---0---0--------3--2--0---|


D|----------------------------------|----------------------------------|----------------------------------|
A|----------------------------------|----------------------------------|----------------------------------|
F|----------------------------------|-------------------5--------------|----------------------------------|
C|-----------------------------1----|-------------------4--------------|-----------------------------1----|
G|-----------------------------1----|----------------------------------|-----------------------------1----|
D|-3--2--0---0---0---3--2--0--------|-3--2--0---0---0--------3--2--0---|-3--2--0---0---0---3--2--0--------|


D|----------------------------------|----------------------------------|----------------------------------|
A|----------------------------------|----------------------------------|----------------------------------|
F|-------------------5--------------|----------------------------------|-------------------5--------------|
C|-------------------4--------------|-----------------------------1----|-------------------4--------------|
G|----------------------------------|-----------------------------1----|----------------------------------|
D|-3--2--0---0---0--------3--2--0---|-3--2--0---0---0---3--2--0--------|-3--2--0---0---0--------3--2--0---|


D|----------------------------------|----------------------------------|----------------------------------|
A|----------------------------------|----------------------------------|----------------------------------|
F|----------------------------------|-------------------5--------------|----------------------------------|
C|-----------------------------1----|-------------------4--------------|-----------------------------1----|
G|-----------------------------1----|----------------------------------|-----------------------------1----|
D|-3--2--0---0---0---3--2--0--------|-3--2--0---0---0--------3--2--0---|-3--2--0---0---0---3--2--0--------|


D|--------------------------------|------------------------------------|--------------------------------|
A|--------------------------------|------------------------------------|--------------------------------|
F|---------------------------5----|---------------------5---------3----|---------------------------5----|
C|---------------------------5----|---------------------5---------3----|---------------------------5----|
G|---------------------------3----|---------------------3---------1----|---------------------------3----|
D|-2---2---5--3--2---2---2--------|-2---2---5--4--3--2------2--2-------|-2---2---5--3--2---2---2--------|


D|----------------------------------|--------------------------------|------------------------------------|
A|----------------------------------|--------------------------------|------------------------------------|
F|---------------------5---4---3----|---------------------------5----|---------------------5---------3----|
C|---------------------5---4---3----|---------------------------5----|---------------------5---------3----|
G|---------------------3---2---1----|---------------------------3----|---------------------3---------1----|
D|-2---2---5--4--3--2---------------|-2---2---5--3--2---2---2--------|-2---2---5--4--3--2------2--2-------|


D|--------------------------------|----------------------------------|---------------------------------|
A|--------------------------------|----------------------------------|---------------------------------|
F|---------------------------5----|---------------------5---4---3----|---------------------------------|
C|---------------------------5----|---------------------5---4---3----|-----2---------------------------|
G|---------------------------3----|---------------------3---2---1----|---------------------5-----------|
D|-2---2---5--3--2---2---2--------|-2---2---5--4--3--2---------------|-5-------5---3---2-------2---1---|


D|------------------------------|---------------------------------|---------------------------------|
A|------------------------------|---------------------------------|---------------------------------|
F|------------------------------|-----9---------------7-----------|-----8-------9-------------------|
C|------------------------------|-7-------7-----------------------|-7-------9-----------------------|
G|-3-------5---6---7-------3----|-------------10--9-------5---6---|-------------------------2-------|
D|-----1---------------3--------|---------------------------------|-----------------0---1-------5---|


D|---------------------------------|------------------------------|---------------------------------|
A|---------------------------------|------------------------------|---------------------------------|
F|---------------------------------|------------------------------|-9---------------7---------------|
C|-2-------------------------------|--------------------------7---|-----7-----------------------7---|
G|-----------------5-----------3---|-----5---6---7-------3--------|---------10--9-------5---6-------|
D|-----5---3---2-------2---1-------|-1---------------3------------|---------------------------------|


D|---------------------------------|---------------------------------|-----------------------------------|
A|---------------------------------|---------------------------------|-----------------------------------|
F|-8-------9-----------------------|---------------------------------|----------------11--11-------------|
C|-----9---------------------------|-5---4-----------7-----------9---|-7-----------10----------------12--|
G|---------------------2---0---2---|---------0---3-------0-----------|-----0---7-------------0---9-------|
D|-------------0---1---------------|-------------------------8-------|-----------------------------------|


D|---------------------------------|-----------------------------------|---------------------------------|
A|---------------------------------|------------13--13-----------------|---------------------------------|
F|-------------------------11--9---|---------11------------------------|---------------------------------|
C|-10----------14------7-----------|-----10--------------------5---4---|---------7-----------9---7-------|
G|-----0---10------0---------------|-0-----------------0---2-----------|-0---3-------0---------------0---|
D|---------------------------------|-----------------------------------|-----------------8---------------|


D|-----------------------------------|---------------------------------|-----------------------------------|
A|-----------------------------------|---------------------------------|----13--13-------------------------|
F|--------11--11---------------------|-----------------11--9-----------|-11--------------------------------|
C|-----10----------------12--10------|-----14------7---------------10--|-------------------5---------------|
G|-7-------------0---9-----------0---|-10------0---------------0-------|-----------3---4-------4---5---6---|
D|-----------------------------------|---------------------------------|-----------------------------------|


D|---------------------------------|-----------------------------------|-6-------------------10----------|
A|---------------------------------|----------------14-----9-----------|-----7---13--------------11--13--|
F|-----8-----------9---------------|-11----------12------------7-------|-------------11------------------|
C|-7-----------8---------------10--|-----10--11--------------------6---|-----------------10--------------|
G|---------7-----------8---9-------|-----------------------------------|---------------------------------|
D|---------------------------------|-----------------------------------|---------------------------------|


D|---------------------------------|--------------------------------------------|--------------------------------------|
A|---------------------10----------|--------------------------------------------|--------------------------------------|
F|-9---10--11--------------6---7---|-8-----------10------------------9---8------|----------------------------------5---|
C|-------------12------------------|-----9-----------11----------10----------9--|--------4---4---7--5--4---4---4-------|
G|-----------------13--------------|---------10----------12--11-----------------|----10--------------------------------|
D|---------------------------------|--------------------------------------------|--------------------------------------|


D|-------------------------------------|-----------------------------------|-------------------------------------|
A|-------------------------------------|-----------------------------------|-------------------------------------|
F|-----------------------5---------3---|-------------------------------5---|-------------------------5---4---3---|
C|-----4---4---7--5--4-------4--4------|-----4---4---7--5--4---4---4-------|-----4---4---7--6--5--4--------------|
G|-------------------------------------|-----------------------------------|-------------------------------------|
D|-------------------------------------|-----------------------------------|-------------------------------------|


D|-----------------------------------|---------------------------------------|-----------------------------------|
A|-----------------------------------|---------------------------------------|-----------------------------------|
F|-------------------------------5---|-------------------------5---------3---|-------------------------------5---|
C|-------------------------------5---|-------------------------5---------3---|-------------------------------5---|
G|-------------------------------3---|-------------------------3---------1---|-------------------------------3---|
D|-----2---2---5--3--2---2---2-------|-----2---2---5--4--3--2------2--2------|-----2---2---5--3--2---2---2-------|


D|-------------------------------------|--------|--------|--------|------------------|
A|-------------------------------------|--------|--------|--------|------------------|
F|---------------------------------3---|--------|--------|--------|------------------|
C|-------------------------5---4---3---|--------|--------|--------|------------------|
G|-------------------------3---2---1---|--------|--------|--------|------------------|
D|-----2---2---5--4--3--2--------------|--------|--------|--------|------------3--2--|


D|----------------------------------|----------------------------------|----------------------------------|
A|----------------------------------|----------------------------------|----------------------------------|
F|-------------5--------------------|----------------------------------|-------------5--------------------|
C|-------------4--------------------|-----------------------1----------|-------------4--------------------|
G|----------------------------------|-----------------------1----------|----------------------------------|
D|-0---0---0--------3--2--0---3--2--|-0---0---0---3--2--0--------3--2--|-0---0---0--------3--2--0---3--2--|


D|----------------------------------|----------------------------------|----------------------------------|
A|----------------------------------|----------------------------------|----------------------------------|
F|----------------------------------|-------------5--------------------|----------------------------------|
C|-----------------------1----------|-------------4--------------------|-----------------------1----------|
G|-----------------------1----------|----------------------------------|-----------------------1----------|
D|-0---0---0---3--2--0--------3--2--|-0---0---0--------3--2--0---3--2--|-0---0---0---3--2--0--------3--2--|


D|----------------------------------|--------------------------------|--------------------------------|
A|----------------------------------|--------------------------------|--------------------------------|
F|-------------5--------------------|--------------------------------|-----------------------5--------|
C|-------------4--------------------|-----------------------1--------|-----------------------5--------|
G|----------------------------------|-----------------------1--------|-----------------------3--------|
D|-0---0---0--------3--2--0---3--2--|-0---0---0---3--2--0--------2---|-2---5--3--2---2---2--------2---|


D|------------------------------------|--------------------------------|----------------------------------|
A|------------------------------------|--------------------------------|----------------------------------|
F|-----------------5---------3--------|-----------------------5--------|-----------------5---4---3--------|
C|-----------------5---------3--------|-----------------------5--------|-----------------5---4---3--------|
G|-----------------3---------1--------|-----------------------3--------|-----------------3---2---1--------|
D|-2---5--4--3--2------2--2-------2---|-2---5--3--2---2---2--------2---|-2---5--4--3--2---------------2---|


D|--------------------------------|------------------------------------|--------------------------------|
A|--------------------------------|------------------------------------|--------------------------------|
F|-----------------------5--------|-----------------5---------3--------|-----------------------5--------|
C|-----------------------5--------|-----------------5---------3--------|-----------------------5--------|
G|-----------------------3--------|-----------------3---------1--------|-----------------------3--------|
D|-2---5--3--2---2---2--------2---|-2---5--4--3--2------2--2-------2---|-2---5--3--2---2---2--------2---|


D|------------------------------------|----------------------------------|----------------------------------|
A|------------------------------------|----------------------------------|----------------------------------|
F|-----------------5---4---3----------|-------------5--------------------|----------------------------------|
C|-----------------5---4---3----------|-------------4--------------------|-----------------------1----------|
G|-----------------3---2---1----------|----------------------------------|-----------------------1----------|
D|-2---5--4--3--2---------------3--2--|-0---0---0--------3--2--0---3--2--|-0---0---0---3--2--0--------3--2--|


D|----------------------------------|----------------------------------|----------------------------------|
A|----------------------------------|----------------------------------|----------------------------------|
F|-------------5--------------------|----------------------------------|-------------5--------------------|
C|-------------4--------------------|-----------------------1----------|-------------4--------------------|
G|----------------------------------|-----------------------1----------|----------------------------------|
D|-0---0---0--------3--2--0---3--2--|-0---0---0---3--2--0--------3--2--|-0---0---0--------3--2--0---3--2--|


D|----------------------------------|----------------------------------|--------------------------------|
A|----------------------------------|----------------------------------|--------------------------------|
F|----------------------------------|-------------5--------------------|--------------------------------|
C|-----------------------1----------|-------------4--------------------|-----------------------1--------|
G|-----------------------1----------|----------------------------------|-----------------------1--------|
D|-0---0---0---3--2--0--------3--2--|-0---0---0--------3--2--0---3--2--|-0---0---0---3--2--0--------2---|


D|--------------------------------|------------------------------------|--------------------------------|
A|--------------------------------|------------------------------------|--------------------------------|
F|-----------------------5--------|-----------------5---------3--------|-----------------------5--------|
C|-----------------------5--------|-----------------5---------3--------|-----------------------5--------|
G|-----------------------3--------|-----------------3---------1--------|-----------------------3--------|
D|-2---5--3--2---2---2--------2---|-2---5--4--3--2------2--2-------2---|-2---5--3--2---2---2--------2---|


D|----------------------------------|--------------------------------|------------------------------------|
A|----------------------------------|--------------------------------|------------------------------------|
F|-----------------5---4---3--------|-----------------------5--------|-----------------5---------3--------|
C|-----------------5---4---3--------|-----------------------5--------|-----------------5---------3--------|
G|-----------------3---2---1--------|-----------------------3--------|-----------------3---------1--------|
D|-2---5--4--3--2---------------2---|-2---5--3--2---2---2--------2---|-2---5--4--3--2------2--2-------2---|


D|--------------------------------|------------------------------------|----------------------------------|
A|--------------------------------|------------------------------------|----------------------------------|
F|-----------------------5--------|-----------------5---4---3----------|-------------5--------------------|
C|-----------------------5--------|-----------------5---4---3----------|-------------4--------------------|
G|-----------------------3--------|-----------------3---2---1----------|----------------------------------|
D|-2---5--3--2---2---2--------2---|-2---5--4--3--2---------------3--2--|-0---0---0--------3--2--0---3--2--|


D|----------------------------------|----------------------------------|----------------------------------|
A|----------------------------------|----------------------------------|----------------------------------|
F|----------------------------------|-------------5--------------------|----------------------------------|
C|-----------------------1----------|-------------4--------------------|-----------------------1----------|
G|-----------------------1----------|----------------------------------|-----------------------1----------|
D|-0---0---0---3--2--0--------3--2--|-0---0---0--------3--2--0---3--2--|-0---0---0---3--2--0--------3--2--|


D|----------------------------------|----------------------------------|----------------------------------|
A|----------------------------------|----------------------------------|----------------------------------|
F|-------------5--------------------|----------------------------------|-------------5--------------------|
C|-------------4--------------------|-----------------------1----------|-------------4--------------------|
G|----------------------------------|-----------------------1----------|----------------------------------|
D|-0---0---0--------3--2--0---3--2--|-0---0---0---3--2--0--------3--2--|-0---0---0--------3--2--0---3--2--|


D|--------------------------------|--------------------------------|------------------------------------|
A|--------------------------------|--------------------------------|------------------------------------|
F|--------------------------------|-----------------------5--------|-----------------5---------3--------|
C|-----------------------1--------|-----------------------5--------|-----------------5---------3--------|
G|-----------------------1--------|-----------------------3--------|-----------------3---------1--------|
D|-0---0---0---3--2--0--------2---|-2---5--3--2---2---2--------2---|-2---5--4--3--2------2--2-------2---|


D|--------------------------------|----------------------------------|--------------------------------|
A|--------------------------------|----------------------------------|--------------------------------|
F|-----------------------5--------|-----------------5---4---3--------|-----------------------5--------|
C|-----------------------5--------|-----------------5---4---3--------|-----------------------5--------|
G|-----------------------3--------|-----------------3---2---1--------|-----------------------3--------|
D|-2---5--3--2---2---2--------2---|-2---5--4--3--2---------------2---|-2---5--3--2---2---2--------2---|


D|------------------------------------|--------------------------------|----------------------------------|
A|------------------------------------|--------------------------------|----------------------------------|
F|-----------------5---------3--------|-----------------------5--------|-----------------5---4---3--------|
C|-----------------5---------3--------|-----------------------5--------|-----------------5---4---3--------|
G|-----------------3---------1--------|-----------------------3--------|-----------------3---2---1--------|
D|-2---5--4--3--2------2--2-------2---|-2---5--3--2---2---2--------2---|-2---5--4--3--2-------------------|


D|--------|--------|--------|--------|--------|--------|--------|--------|--------|
A|--------|--------|--------|--------|--------|--------|--------|--------|--------|
F|--------|--------|--------|--------|--------|--------|--------|--------|--------|
C|--------|--------|--------|--------|--------|--------|--------|--------|--------|
G|--------|--------|--------|--------|--------|--------|--------|--------|--------|
D|--------|--------|--------|--------|--------|--------|--------|--------|--------|


D|--------|--------|--------|----------------|---------------------------------|---------------------------|
A|--------|--------|--------|----------------|---------------------------------|---------------------------|
F|--------|--------|--------|----------------|---------------------------------|---------------------------|
C|--------|--------|--------|--------0---2---|-----2---2-------0---2-------2---|-2-----------------0---2---|
G|--------|--------|--------|--------0---2---|-----2---2-------0---2-------2---|-2-----------------0---2---|
D|--------|--------|--------|----------------|-0---0---0---0-----------0---0---|-0---0---6----6------------|


D|----------------------------------|---------------------------------------------|
A|----------------------------------|---------------------------------------------|
F|----------------------------------|---------------------------------------------|
C|-----2---2-------2----------------|-------------------------------------0---2---|
G|-----2---2-------2----------------|-2---3---5---2---3-------2-----------0---2---|
D|-0---0---0---0---0----2---3---5---|---------------------5-------3---5-----------|


D|---------------------------------|---------------------------|----------------------------------|
A|---------------------------------|---------------------------|----------------------------------|
F|---------------------------------|---------------------------|----------------------------------|
C|-----2---2-------0---2-------2---|-2-----------------0---2---|-----2---2-------2----------------|
G|-----2---2-------0---2-------2---|-2-----------------0---2---|-----2---2-------2----2--5--3--2--|
D|-0---0---0---0-----------0---0---|-0---0---6----6------------|-0---0---0---0---0----------------|


D|---------------------------------------------|---------------------------------|
A|---------------------------------------------|---------------------------------|
F|---------------------------------------------|---------------------------------|
C|-------------------------------------0---2---|-----2---2-------0---2-------2---|
G|----3--2--------2--------------------0---2---|-----2---2-------0---2-------2---|
D|-5--------5--3-----5--3--2--5--3--2----------|-0---0---0---0-----------0---0---|


D|---------------------------|----------------------------------|---------------------------------------------|
A|---------------------------|----------------------------------|---------------------------------------------|
F|---------------------------|----------------------------------|---------------------------------------------|
C|-2-----------------0---2---|-----2---2-------2----------------|-------------------------------------0---2---|
G|-2-----------------0---2---|-----2---2-------2----------------|-2---3---5---2---3-------2-----------0---2---|
D|-0---0---6----6------------|-0---0---0---0---0----2---3---5---|---------------------5-------3---5-----------|


D|---------------------------------|---------------------------|----------------------------------|
A|---------------------------------|---------------------------|----------------------------------|
F|---------------------------------|---------------------------|----------------------------------|
C|-----2---2-------0---2-------2---|-2-----------------0---2---|-----2---2-------2----------------|
G|-----2---2-------0---2-------2---|-2-----------------0---2---|-----2---2-------2----2--5--3--2--|
D|-0---0---0---0-----------0---0---|-0---0---6----6------------|-0---0---0---0---0----------------|


D|---------------------------------------------|---------------------------------|
A|---------------------------------------------|---------------------------------|
F|---------------------------------------------|---------------------------------|
C|-------------------------------------5---4---|-----5-------5---4-------5---4---|
G|----3--2--------2----------------------------|-7-------------------7-----------|
D|-5--------5--3-----5--3--2--5--3--2----------|---------------------------------|


D|---------------------------------|---------------------------------|---------------------------------|
A|---------------------------------|---------------------------------|---------------------------------|
F|---------------------------------|---------------------------------|-------------------------5---4---|
C|-----4---5---4---5---7---5---4---|-----5-------5---4-------5---4---|-----4---5---4---5---7-----------|
G|-7-------------------------------|-7-------------------7-----------|-7-------------------------------|
D|---------------------------------|---------------------------------|---------------------------------|


D|---------------------------------|---------------------------------|-----------------------------------|
A|---------------------------------|---------------------------------|-----------------------------------|
F|-----5-------5---4-------5---4---|-----4---5---4---5---7---5---4---|-----5-------5---4-------4---5--4--|
C|-7-------------------7-----------|-7-------------------------------|-7-------------------7-------------|
G|---------------------------------|---------------------------------|-----------------------------------|
D|---------------------------------|---------------------------------|-----------------------------------|


D|---------------------------------|---------------------------------|---------------------------------|
A|---------------------------------|---------------------------------|---------------------------------|
F|---------------------------------|---------------------------------|---------------------------------|
C|-7---5---4-----------4---5---4---|-----5-------5---4-------5---4---|-----4---5---4---5---7---5---4---|
G|-------------7---6---------------|-7-------------------7-----------|-7-------------------------------|
D|---------------------------------|---------------------------------|---------------------------------|


D|---------------------------------|---------------------------------|---------------------------------|
A|---------------------------------|---------------------------------|---------------------------------|
F|---------------------------------|-------------------------5---4---|-----5-------5---4-------5---4---|
C|-----5-------5---4-------5---4---|-----4---5---4---5---7-----------|-7-------------------7-----------|
G|-7-------------------7-----------|-7-------------------------------|---------------------------------|
D|---------------------------------|---------------------------------|---------------------------------|


D|---------------------------------|-----------------------------------|---------------------------------|
A|---------------------------------|-----------------------------------|---------------------------------|
F|-----4---5---4---5---7---5---4---|-----5-------5---4-------4---5--4--|---------------------------------|
C|-7-------------------------------|-7-------------------7-------------|-7---5---4-----------4---0---2---|
G|---------------------------------|-----------------------------------|-------------7---6-------0---2---|
D|---------------------------------|-----------------------------------|---------------------------------|


D|---------------------------------|---------------------------|----------------------------------|
A|---------------------------------|---------------------------|----------------------------------|
F|---------------------------------|---------------------------|----------------------------------|
C|-----2---2-------0---2-------2---|-2-----------------0---2---|-----2---2-------2----------------|
G|-----2---2-------0---2-------2---|-2-----------------0---2---|-----2---2-------2----------------|
D|-0---0---0---0-----------0---0---|-0---0---6----6------------|-0---0---0---0---0----2---3---5---|


D|---------------------------------------------|---------------------------------|
A|---------------------------------------------|---------------------------------|
F|---------------------------------------------|---------------------------------|
C|-------------------------------------0---2---|-----2---2-------0---2-------2---|
G|-2---3---5---2---3-------2-----------0---2---|-----2---2-------0---2-------2---|
D|---------------------5-------3---5-----------|-0---0---0---0-----------0---0---|


D|---------------------------|----------------------------------|---------------------------------------------|
A|---------------------------|----------------------------------|---------------------------------------------|
F|---------------------------|----------------------------------|---------------------------------------------|
C|-2-----------------0---2---|-----2---2-------2----------------|-------------------------------------5---4---|
G|-2-----------------0---2---|-----2---2-------2----2--5--3--2--|----3--2--------2----------------------------|
D|-0---0---6----6------------|-0---0---0---0---0----------------|-5--------5--3-----5--3--2--5--3--2----------|


D|---------------------------------|---------------------------------|---------------------------------|
A|---------------------------------|---------------------------------|---------------------------------|
F|---------------------------------|---------------------------------|---------------------------------|
C|-----5-------5---4-------5---4---|-----4---5---4---5---7---5---4---|-----5-------5---4-------5---4---|
G|-7-------------------7-----------|-7-------------------------------|-7-------------------7-----------|
D|---------------------------------|---------------------------------|---------------------------------|


D|---------------------------------|---------------------------------|---------------------------------|
A|---------------------------------|---------------------------------|---------------------------------|
F|-------------------------5---4---|-----5-------5---4-------5---4---|-----4---5---4---5---7---5---4---|
C|-----4---5---4---5---7-----------|-7-------------------7-----------|-7-------------------------------|
G|-7-------------------------------|---------------------------------|---------------------------------|
D|---------------------------------|---------------------------------|---------------------------------|


D|-------------------------------------|---------------------------------------------|
A|-------------------------------------|---------------------------------------------|
F|-----5-------5---4-------5---4-------|---------------------------------------------|
C|-7-------------------7-----------7---|-5---4---------------4---5---7---4---5---4---|
G|-------------------------------------|---------7---6---7---------------------------|
D|-------------------------------------|---------------------------------------------|


D|---------------------------------|---------------------------------|---------------------------------|
A|---------------------------------|---------------------------------|---------------------------------|
F|---------------------------------|---------------------------------|---------------------------------|
C|-----5-------5---4-------5---4---|-----4---5---4---5---7---5---4---|-----5-------5---4-------5---4---|
G|-7-------------------7-----------|-7-------------------------------|-7-------------------7-----------|
D|---------------------------------|---------------------------------|---------------------------------|


D|---------------------------------|---------------------------------|---------------------------------|
A|---------------------------------|---------------------------------|---------------------------------|
F|-------------------------5---4---|-----5-------5---4-------5---4---|-----4---5---4---5---7---5---4---|
C|-----4---5---4---5---7-----------|-7-------------------7-----------|-7-------------------------------|
G|-7-------------------------------|---------------------------------|---------------------------------|
D|---------------------------------|---------------------------------|---------------------------------|


D|-------------------------------------|----------------------------------------|-----0---0-----0----|
A|-------------------------7--8--7-----|-------7--------------------------------|-----0---0-----0----|
F|-----5-------5---4----------------9--|-8--9-----9--8---------------------4----|-----4---4-----4----|
C|-7-------------------7---------------|----------------10-9--8--7---------2----|-----2---2-----2----|
G|-------------------------------------|----------------------------10-9---2----|-----2---2-----2----|
D|-------------------------------------|-----------------------------------0----|-----0---0-----0----|


D|-------------|-------------|-------------|-------------|-------------|-------------|
A|-------------|-------------|-------------|-------------|-------------|-------------|
F|-------------|-------------|--------2----|--------2----|--------5----|-------------|
C|-------------|-------------|--------2----|--------2----|--------5----|--------7----|
G|--------4----|--------4----|--------0----|--------0----|--------3----|--------6----|
D|--------2----|--------2----|-------------|-------------|-------------|-------------|


D|-------------|-----0---0-----0----|-------------|-------------|-------------|-------------|
A|-------------|-----0---0-----0----|-------------|-------------|-------------|-------------|
F|--------4----|-----4---4-----4----|-------------|-------------|--------2----|--------2----|
C|--------2----|-----2---2-----2----|-------------|-------------|--------2----|--------2----|
G|--------2----|-----2---2-----2----|--------4----|--------4----|--------0----|--------0----|
D|--------0----|-----0---0-----0----|--------2----|--------2----|-------------|-------------|


D|-------------|-------------|-------------|------------------------------|------------------------|
A|-------------|-------------|-------------|------------------------------|------------------------|
F|--------5----|-------------|-------------|------------------------------|------------------------|
C|--------5----|--------7----|--------2----|---------5---7---2----2-------|-5---7---2---------2----|
G|--------3----|--------6----|--------2----|-----2---5---7---2----2---2---|-5---7---2----2----2----|
D|-------------|-------------|--------0----|-----0---3---5---0----0---0---|-3---5---0---------0----|


D|------------------------------|------------------------|------------------------------|
A|------------------------------|------------------------|------------------------------|
F|------------------------------|-4---5---4--------------|------------------------------|
C|---------5---7---2----2-------|-4---5---4----4----2----|---------5---7---2----2-------|
G|-----2---5---7---2----2---2---|-2---3---2----4----2----|-----2---5---7---2----2---2---|
D|-----0---3---5---0----0---0---|--------------2----0----|-----0---3---5---0----0---0---|


D|------------------------|------------------------------|------------------------------|
A|------------------------|------------------------------|------------------------------|
F|------------------------|------------------------------|-------------------------4----|
C|-5---7---2---------2----|---------5---7---2----5---5---|-5---5---7---7---7---7---2----|
G|-5---7---2----2----2----|-----2---5---7---2----3---3---|-3---3---5---5---5---5---2----|
D|-3---5---0---------0----|-----0---3---5---0------------|-------------------------0----|


D|-----0---0-----0----|-------------|-------------|-------------|-------------|-------------|
A|-----0---0-----0----|-------------|-------------|-------------|-------------|-------------|
F|-----4---4-----4----|-------------|-------------|--------2----|--------2----|--------5----|
C|-----2---2-----2----|-------------|-------------|--------2----|--------2----|--------5----|
G|-----2---2-----2----|--------4----|--------4----|--------0----|--------0----|--------3----|
D|-----0---0-----0----|--------2----|--------2----|-------------|-------------|-------------|


D|-------------|-------------|-----0---0-----0----|-------------|-------------|-------------|
A|-------------|-------------|-----0---0-----0----|-------------|-------------|-------------|
F|-------------|--------4----|-----4---4-----4----|-------------|-------------|--------2----|
C|--------7----|--------2----|-----2---2-----2----|-------------|-------------|--------2----|
G|--------6----|--------2----|-----2---2-----2----|--------4----|--------4----|--------0----|
D|-------------|--------0----|-----0---0-----0----|--------2----|--------2----|-------------|


D|-------------|-------------|-------------|-------------|------------------------------|
A|-------------|-------------|-------------|-------------|------------------------------|
F|--------2----|--------5----|-------------|-------------|------------------------------|
C|--------2----|--------5----|--------7----|--------2----|---------5---7---2----2-------|
G|--------0----|--------3----|--------6----|--------2----|-----2---5---7---2----2---2---|
D|-------------|-------------|-------------|--------0----|-----0---3---5---0----0---0---|


D|------------------------|------------------------------|------------------------|
A|------------------------|------------------------------|------------------------|
F|------------------------|------------------------------|-4---5---4--------------|
C|-5---7---2---------2----|---------5---7---2----2-------|-4---5---4----4----2----|
G|-5---7---2----2----2----|-----2---5---7---2----2---2---|-2---3---2----4----2----|
D|-3---5---0---------0----|-----0---3---5---0----0---0---|--------------2----0----|


D|------------------------------|------------------------|------------------------------|
A|------------------------------|------------------------|------------------------------|
F|------------------------------|------------------------|------------------------------|
C|---------5---7---2----2-------|-5---7---2---------2----|---------5---7---2----5---5---|
G|-----2---5---7---2----2---2---|-5---7---2----2----2----|-----2---5---7---2----3---3---|
D|-----0---3---5---0----0---0---|-3---5---0---------0----|-----0---3---5---0------------|


D|------------------------------|------------------------------|------------------------|
A|------------------------------|------------------------------|------------------------|
F|------------------------------|------------------------------|------------------------|
C|-5---5---7---7---7---7---2----|---------5---7---2----2-------|-5---7---2---------2----|
G|-3---3---5---5---5---5---2----|-----2---5---7---2----2---2---|-5---7---2----2----2----|
D|-------------------------0----|-----0---3---5---0----0---0---|-3---5---0---------0----|


D|------------------------------|------------------------|------------------------------|
A|------------------------------|------------------------|------------------------------|
F|------------------------------|-4---5---4--------------|------------------------------|
C|---------5---7---2----2-------|-4---5---4----4----2----|---------5---7---2----2-------|
G|-----2---5---7---2----2---2---|-2---3---2----4----2----|-----2---5---7---2----2---2---|
D|-----0---3---5---0----0---0---|--------------2----0----|-----0---3---5---0----0---0---|


D|------------------------|--------------------------------|------------------------------|
A|------------------------|--------------------------------|------------------------------|
F|------------------------|--------------------------------|------------------------------|
C|-5---7---2---------2----|---------5---7---2----5---------|---------7---7---7---7---2----|
G|-5---7---2----2----2----|-----2---5---7---2----3---3--3--|-3---3---5---5---5---5---2----|
D|-3---5---0---------0----|-----0---3---5---0--------------|-------------------------0----|


D|------------------------------|------------------------|------------------------------|
A|------------------------------|------------------------|------------------------------|
F|------------------------------|------------------------|------------------------------|
C|---------5---7---2----2-------|-5---7---2---------2----|---------5---7---2----2-------|
G|-----2---5---7---2----2---2---|-5---7---2----2----2----|-----2---5---7---2----2---2---|
D|-----0---3---5---0----0---0---|-3---5---0---------0----|-----0---3---5---0----0---0---|


D|------------------------|------------------------------|------------------------|
A|------------------------|------------------------------|------------------------|
F|-4---5---4--------------|------------------------------|------------------------|
C|-4---5---4----4----2----|---------5---7---2----2-------|-5---7---2---------2----|
G|-2---3---2----4----2----|-----2---5---7---2----2---2---|-5---7---2----2----2----|
D|--------------2----0----|-----0---3---5---0----0---0---|-3---5---0---------0----|


D|------------------------------|---------------------------------|---------------------------------|
A|------------------------------|---------------------------------|---------------------------------|
F|------------------------------|---------------------------------|---------------------------------|
C|---------5---7---2----5---5---|-5---5---7---7---7---7---0---2---|-----2---2-------0---2-------2---|
G|-----2---5---7---2----3---3---|-3---3---5---5---5---5---0---2---|-----2---2-------0---2-------2---|
D|-----0---3---5---0------------|---------------------------------|-0---0---0---0-----------0---0---|


D|---------------------------|----------------------------------|---------------------------------------------|
A|---------------------------|----------------------------------|---------------------------------------------|
F|---------------------------|----------------------------------|---------------------------------------------|
C|-2-----------------0---2---|-----2---2-------2----------------|-------------------------------------0---2---|
G|-2-----------------0---2---|-----2---2-------2----------------|-2---3---5---2---3-------2-----------0---2---|
D|-0---0---6----6------------|-0---0---0---0---0----2---3---5---|---------------------5-------3---5-----------|


D|---------------------------------|---------------------------|----------------------------------|
A|---------------------------------|---------------------------|----------------------------------|
F|---------------------------------|---------------------------|----------------------------------|
C|-----2---2-------0---2-------2---|-2-----------------0---2---|-----2---2-------2----------------|
G|-----2---2-------0---2-------2---|-2-----------------0---2---|-----2---2-------2----2--5--3--2--|
D|-0---0---0---0-----------0---0---|-0---0---6----6------------|-0---0---0---0---0----------------|


D|---------------------------------------------|---------------------------------|
A|---------------------------------------------|---------------------------------|
F|---------------------------------------------|---------------------------------|
C|-------------------------------------0---2---|-----2---2-------0---2-------2---|
G|----3--2--------2--------------------0---2---|-----2---2-------0---2-------2---|
D|-5--------5--3-----5--3--2--5--3--2----------|-0---0---0---0-----------0---0---|


D|---------------------------|----------------------------------|---------------------------------------------|
A|---------------------------|----------------------------------|---------------------------------------------|
F|---------------------------|----------------------------------|---------------------------------------------|
C|-2-----------------0---2---|-----2---2-------2----------------|-------------------------------------0---2---|
G|-2-----------------0---2---|-----2---2-------2----------------|-2---3---5---2---3-------2-----------0---2---|
D|-0---0---6----6------------|-0---0---0---0---0----2---3---5---|---------------------5-------3---5-----------|


D|---------------------------------|---------------------------|----------------------------------|
A|---------------------------------|---------------------------|----------------------------------|
F|---------------------------------|---------------------------|----------------------------------|
C|-----2---2-------0---2-------2---|-2-----------------0---2---|-----2---2-------2----------------|
G|-----2---2-------0---2-------2---|-2-----------------0---2---|-----2---2-------2----3--5--3--2--|
D|-0---0---0---0-----------0---0---|-0---0---6----6------------|-0---0---0---0---0----------------|


D|-------------------------------------------------|-------------------------------------------------|
A|-------------------------------------------------|-------------------------------------------------|
F|-------------------------------------------------|-------------------------------------------------|
C|----------------------------------------2--------|-------------------------------------2--5--4--2--|
G|----3--2--------2--------------------5-----5--3--|-2--3--2--------2--------------------------------|
D|-5--------5--3-----5--3--2--5--3--2--------------|----------5--3-----5--3--2--5--3--2--------------|


D|-------------------------------------------------|-------------------------|------------------|
A|-------------------------------------------------|-------------------------|------------------|
F|-------------------------------------------------|-------------4-----------|------------------|
C|----4--2--------2--------------------------------|-------------4-----------|------------------|
G|-5--------5--3-----5--3--2--5--3--2-----3--2-----|----2--------2-----3-----|-3-----3----------|
D|-------------------------------------5--------5--|-3-----5--3--------1-----|-1-----1----------|


D|--------|-------------|-------------|-------------|---------------------|
A|--------|-------------|-------------|-------------|---------------------|
F|--------|--------4----|--------4----|--------4----|------4----4---------|
C|--------|--------2----|--------2----|--------2----|------2----2---------|
G|--------|--------2----|--------2----|--------2----|------2----2---------|
D|--------|-------------|-------------|-------------|---------------------|





Track 4: dist.

D|--------|--------|--------|--------|--------|--------|--------|--------|--------|
A|--------|--------|--------|--------|--------|--------|--------|--------|--------|
F|--------|--------|--------|--------|--------|--------|--------|--------|--------|
C|--------|--------|--------|--------|--------|--------|--------|--------|--------|
G|--------|--------|--------|--------|--------|--------|--------|--------|--------|
D|--------|--------|--------|--------|--------|--------|--------|--------|--------|


D|--------|--------|--------|--------|--------|--------|--------|--------|--------|
A|--------|--------|--------|--------|--------|--------|--------|--------|--------|
F|--------|--------|--------|--------|--------|--------|--------|--------|--------|
C|--------|--------|--------|--------|--------|--------|--------|--------|--------|
G|--------|--------|--------|--------|--------|--------|--------|--------|--------|
D|--------|--------|--------|--------|--------|--------|--------|--------|--------|


D|--------|--------|--------|--------|--------|--------|--------|--------|--------|
A|--------|--------|--------|--------|--------|--------|--------|--------|--------|
F|--------|--------|--------|--------|--------|--------|--------|--------|--------|
C|--------|--------|--------|--------|--------|--------|--------|--------|--------|
G|--------|--------|--------|--------|--------|--------|--------|--------|--------|
D|--------|--------|--------|--------|--------|--------|--------|--------|--------|


D|--------|--------|--------|--------|--------|--------|--------|--------|--------|
A|--------|--------|--------|--------|--------|--------|--------|--------|--------|
F|--------|--------|--------|--------|--------|--------|--------|--------|--------|
C|--------|--------|--------|--------|--------|--------|--------|--------|--------|
G|--------|--------|--------|--------|--------|--------|--------|--------|--------|
D|--------|--------|--------|--------|--------|--------|--------|--------|--------|


D|--------|--------|--------|--------|--------|--------|--------|--------|--------|
A|--------|--------|--------|--------|--------|--------|--------|--------|--------|
F|--------|--------|--------|--------|--------|--------|--------|--------|--------|
C|--------|--------|--------|--------|--------|--------|--------|--------|--------|
G|--------|--------|--------|--------|--------|--------|--------|--------|--------|
D|--------|--------|--------|--------|--------|--------|--------|--------|--------|


D|--------|--------|--------|--------|--------|--------|--------|--------|--------|
A|--------|--------|--------|--------|--------|--------|--------|--------|--------|
F|--------|--------|--------|--------|--------|--------|--------|--------|--------|
C|--------|--------|--------|--------|--------|--------|--------|--------|--------|
G|--------|--------|--------|--------|--------|--------|--------|--------|--------|
D|--------|--------|--------|--------|--------|--------|--------|--------|--------|


D|--------|--------|--------|--------|--------|--------|--------|--------|--------|
A|--------|--------|--------|--------|--------|--------|--------|--------|--------|
F|--------|--------|--------|--------|--------|--------|--------|--------|--------|
C|--------|--------|--------|--------|--------|--------|--------|--------|--------|
G|--------|--------|--------|--------|--------|--------|--------|--------|--------|
D|--------|--------|--------|--------|--------|--------|--------|--------|--------|


D|--------|--------|--------|--------|--------|--------|--------|--------|--------|
A|--------|--------|--------|--------|--------|--------|--------|--------|--------|
F|--------|--------|--------|--------|--------|--------|--------|--------|--------|
C|--------|--------|--------|--------|--------|--------|--------|--------|--------|
G|--------|--------|--------|--------|--------|--------|--------|--------|--------|
D|--------|--------|--------|--------|--------|--------|--------|--------|--------|


D|--------|--------|--------|--------|--------|--------|--------|--------|--------|
A|--------|--------|--------|--------|--------|--------|--------|--------|--------|
F|--------|--------|--------|--------|--------|--------|--------|--------|--------|
C|--------|--------|--------|--------|--------|--------|--------|--------|--------|
G|--------|--------|--------|--------|--------|--------|--------|--------|--------|
D|--------|--------|--------|--------|--------|--------|--------|--------|--------|


D|--------|--------|--------|--------|--------|--------|--------|--------|--------|
A|--------|--------|--------|--------|--------|--------|--------|--------|--------|
F|--------|--------|--------|--------|--------|--------|--------|--------|--------|
C|--------|--------|--------|--------|--------|--------|--------|--------|--------|
G|--------|--------|--------|--------|--------|--------|--------|--------|--------|
D|--------|--------|--------|--------|--------|--------|--------|--------|--------|


D|--------|--------|--------|--------|--------|--------|--------|--------|--------|
A|--------|--------|--------|--------|--------|--------|--------|--------|--------|
F|--------|--------|--------|--------|--------|--------|--------|--------|--------|
C|--------|--------|--------|--------|--------|--------|--------|--------|--------|
G|--------|--------|--------|--------|--------|--------|--------|--------|--------|
D|--------|--------|--------|--------|--------|--------|--------|--------|--------|


D|--------|--------|--------|--------|--------|--------|--------|--------|-------------|
A|--------|--------|--------|--------|--------|--------|--------|--------|-------------|
F|--------|--------|--------|--------|--------|--------|--------|--------|-------------|
C|--------|--------|--------|--------|--------|--------|--------|--------|-------------|
G|--------|--------|--------|--------|--------|--------|--------|--------|-------------|
D|--------|--------|--------|--------|--------|--------|--------|--------|--------12---|


D|----------------------------------|----------------------------------|----------------------------------|
A|----------------------------------|----------------------------------|----------------------------------|
F|-------------------5--------------|----------------------------------|-------------------5--------------|
C|-------------------4--------------|-----------------------------1----|-------------------4--------------|
G|----------------------------------|-----------------------------1----|----------------------------------|
D|-3--2--0---0---0--------3--2--0---|-3--2--0---0---0---3--2--0--------|-3--2--0---0---0--------3--2--0---|


D|-----------------------------|--------|--------|--------|--------|--------|--------|
A|-----------------------------|--------|--------|--------|--------|--------|--------|
F|-----------------------------|--------|--------|--------|--------|--------|--------|
C|-----------------------------|--------|--------|--------|--------|--------|--------|
G|-----------------------------|--------|--------|--------|--------|--------|--------|
D|-3--2--0---0---0---0---------|--------|--------|--------|--------|--------|--------|


D|--------|--------|--------|--------|--------|--------|--------|--------|--------|
A|--------|--------|--------|--------|--------|--------|--------|--------|--------|
F|--------|--------|--------|--------|--------|--------|--------|--------|--------|
C|--------|--------|--------|--------|--------|--------|--------|--------|--------|
G|--------|--------|--------|--------|--------|--------|--------|--------|--------|
D|--------|--------|--------|--------|--------|--------|--------|--------|--------|


D|--------|--------|--------|--------|--------|--------|--------|--------|--------|
A|--------|--------|--------|--------|--------|--------|--------|--------|--------|
F|--------|--------|--------|--------|--------|--------|--------|--------|--------|
C|--------|--------|--------|--------|--------|--------|--------|--------|--------|
G|--------|--------|--------|--------|--------|--------|--------|--------|--------|
D|--------|--------|--------|--------|--------|--------|--------|--------|--------|


D|--------|--------|--------|--------|--------|--------|--------|--------|--------|
A|--------|--------|--------|--------|--------|--------|--------|--------|--------|
F|--------|--------|--------|--------|--------|--------|--------|--------|--------|
C|--------|--------|--------|--------|--------|--------|--------|--------|--------|
G|--------|--------|--------|--------|--------|--------|--------|--------|--------|
D|--------|--------|--------|--------|--------|--------|--------|--------|--------|


D|--------|--------|--------|--------|--------|--------|--------|--------|--------|
A|--------|--------|--------|--------|--------|--------|--------|--------|--------|
F|--------|--------|--------|--------|--------|--------|--------|--------|--------|
C|--------|--------|--------|--------|--------|--------|--------|--------|--------|
G|--------|--------|--------|--------|--------|--------|--------|--------|--------|
D|--------|--------|--------|--------|--------|--------|--------|--------|--------|


D|--------|--------|--------|--------|--------|--------|--------|--------|--------|
A|--------|--------|--------|--------|--------|--------|--------|--------|--------|
F|--------|--------|--------|--------|--------|--------|--------|--------|--------|
C|--------|--------|--------|--------|--------|--------|--------|--------|--------|
G|--------|--------|--------|--------|--------|--------|--------|--------|--------|
D|--------|--------|--------|--------|--------|--------|--------|--------|--------|


D|--------|--------|--------|--------|--------|--------|-------------------------|
A|--------|--------|--------|--------|--------|--------|-------------------------|
F|--------|--------|--------|--------|--------|--------|-------------------------|
C|--------|--------|--------|--------|--------|--------|-------------------------|
G|--------|--------|--------|--------|--------|--------|-------------------------|
D|--------|--------|--------|--------|--------|--------|-----------2---2---5--4--|


D|-------------------------------|----------------------------------|--------|--------|
A|-------------------------------|----------------------------------|--------|--------|
F|-------------------------------|----------------------------------|--------|--------|
C|-----------10-9----------------|-----7--6--4----------------------|--------|--------|
G|-----------------12-11-9-------|----------------------------------|--------|--------|
D|-2-----------------------------|--------------------5--4--2-------|--------|--------|


D|--------|--------|--------|--------|--------|--------|--------|--------|--------|
A|--------|--------|--------|--------|--------|--------|--------|--------|--------|
F|--------|--------|--------|--------|--------|--------|--------|--------|--------|
C|--------|--------|--------|--------|--------|--------|--------|--------|--------|
G|--------|--------|--------|--------|--------|--------|--------|--------|--------|
D|--------|--------|--------|--------|--------|--------|--------|--------|--------|


D|--------|--------|--------|--------|--------|------------------|-------------------------------------------------|
A|--------|--------|--------|--------|--------|------------------|-12-15----12-------12-15----12-------12-15----12-|
F|--------|--------|--------|--------|--------|------------12-15-|-------15-------15-------15----12-15-------15----|
C|--------|--------|--------|--------|--------|------------------|-------------14----------------------------------|
G|--------|--------|--------|--------|--------|------------------|-------------------------------------------------|
D|--------|--------|--------|--------|--------|------------------|-------------------------------------------------|


D|----------------------------------12-------12-15-|----12-------------------------------------------|
A|-------12-15----12-------12-15-15----15-16-------|-15----15-15-12-15----12-------------------------|
F|----15-------15----14-15-------------------------|-------------------15----14-15-11-12----11-------|
C|-14----------------------------------------------|-------------------------------------14----12-14-|
G|-------------------------------------------------|-------------------------------------------------|
D|-------------------------------------------------|-------------------------------------------------|


D|----------------------------------------------|-------------------------------------------------------19-20-22-22--|
A|----------------------------------------------|-------------------------------------12-13-15-19-20-22--------------|
F|----------------------------------------------|-------------------11-12-14-11-12-14--------------------------------|
C|-10-12----10----------------------------------|-9--10-12-9--10-12--------------------------------------------------|
G|-------14----12-14-10-12-9---9---9---9--10-12-|--------------------------------------------------------------------|
D|----------------------------------------------|--------------------------------------------------------------------|


D|-22--22----22---24-22-|-19-18-19-22-19-18-19-18-17-16-15-16-17-18-19-18-17-|-16-------------19-18-17-16--------------------------------|
A|----------------------|----------------------------------------------------|----20-19-18-17-------------20-19-18-17--------------------|
F|----------------------|----------------------------------------------------|----------------------------------------17-16-15-----------|
C|----------------------|----------------------------------------------------|---------------------------------------------------19-17-16|
G|----------------------|----------------------------------------------------|-----------------------------------------------------------|
D|----------------------|----------------------------------------------------|-----------------------------------------------------------|


D|---------------------------------------15-17-18-17-15-20-18-17|---18-20-18-20-22-20-18-24-22-20-22-24-18-20-22-20-18-17-15-14|
A|------------------------19-17-15-17-19------------------------|--------------------------------------------------------------|
F|---------15-17-19-17-15---------------------------------------|--------------------------------------------------------------|
C|---17-19------------------------------------------------------|--------------------------------------------------------------|
G|--------------------------------------------------------------|--------------------------------------------------------------|
D|--------------------------------------------------------------|--------------------------------------------------------------|


D|---15-17-15---------------------------------------------------|------------------------------------------------10-----|
A|------------17-15-13------------------------------------------|---------------------------------------10-11-13----17--|
F|---------------------15-13-11-9-------------------------------|------------------------------7--11-12-----------------|
C|---------------------------------12-10-12-10-8--------10-8--6-|------------------------8--10--------------------------|
G|------------------------------------------------11-9----------|---9--7--9--7--5---------------------------------------|
D|--------------------------------------------------------------|------------------8--6---------------------------------|


D|----------14----------------------16--|-16--16---18-17-15-14----14-15-17-18--|-18--18---22-20-18----18-20-22-20-18----18-20-22--|
A|-17--17------17-14----14--------------|----------------------17--------------|-------------------22----------------22-----------|
F|-------------------17----17-16-14-----|--------------------------------------|--------------------------------------------------|
C|--------------------------------------|--------------------------------------|--------------------------------------------------|
G|--------------------------------------|--------------------------------------|--------------------------------------------------|
D|--------------------------------------|--------------------------------------|--------------------------------------------------|


D|-22--22---24--24---24--24--|-----24--24------------|--------|--------|--------|--------|
A|---------------------------|-----------------------|--------|--------|--------|--------|
F|---------------------------|-----------------------|--------|--------|--------|--------|
C|---------------------------|-----------------------|--------|--------|--------|--------|
G|---------------------------|-----------------------|--------|--------|--------|--------|
D|---------------------------|-----------------------|--------|--------|--------|--------|


D|--------|--------|------------------10|---14-10-14-10-------------------14-18-----------------------14|
A|--------|--------|---------------11---|---------------11-------------15-------19-----------------15---|
F|--------|--------|------------11------|------------------11-------15-------------19-15--------15------|
C|--------|--------|--------------------|---------------------12-------------------------16-------------|
G|--------|--------|--------------------|------------------------13-------------------------17----------|
D|--------|--------|--------------------|---------------------------------------------------------------|


D|---18-14-18-14-------------------18-22-18----------------------18|---22-18-22-18----------------14-18-14-18-14----------------------14|
A|---------------15-------------19----------19----------------19---|---------------19----------15----------------15----------------15---|
F|------------------15-------19----------------19-11-------19------|------------------19----15----------------------15----------15------|
C|---------------------16----------------------------12------------|---------------------20----------------------------16----16---------|
G|------------------------17----------------------------13---------|------------------------------------------------------17------------|
D|-----------------------------------------------------------------|--------------------------------------------------------------------|


D|---18-14-18-14----------------10-14-10-14-10-------------------------|----------------------------------------------------------------14-15-17-|
A|---------------15----------11----------------11----------------------|----------------------------8--10-8--7--8--10-13-11-10-11-13-11----------|
F|------------------15----11----------------------11-------------------|-------------------------------------------------------------------------|
C|---------------------16----------------------------12----12----------|----------8--7--8--10-8--7-----------------------------------------------|
G|------------------------------------------------------13----10-12-10-|-9--10-12----------------------------------------------------------------|
D|---------------------------------------------------------------------|-------------------------------------------------------------------------|


D|-15-14-15-17-18-17-18-20-20------17-------|---------------------15-18-15----15-20-|
A|-----------------------------19-------20--|-----20--20--20--20-----------18-------|
F|------------------------------------------|---------------------------------------|
C|------------------------------------------|---------------------------------------|
G|------------------------------------------|---------------------------------------|
D|------------------------------------------|---------------------------------------|


D|-15----15-22-15----18-15------------------------|-------------------------------------------------|
A|----18----------18-------18-15------------8-----|-7--8--10-7--8--10-8-----7--8--7-----------8-----|
F|-------------------------------17-15---------9--|----------------------9-----------9--8--------9--|
C|-------------------------------------17---------|----------------------------------------9--------|
G|------------------------------------------------|-------------------------------------------------|
D|------------------------------------------------|-------------------------------------------------|


D|-------------------------------------------------|-------------------------------------------------|
A|-7--8--10-7--8--10-8-----7--8--7-----------8-----|-6--8--10-6--8--10-8-----6--8--6-----------8-----|
F|----------------------9-----------9--8--------9--|----------------------9-----------9--7--------9--|
C|----------------------------------------9--------|----------------------------------------10-------|
G|-------------------------------------------------|-------------------------------------------------|
D|-------------------------------------------------|-------------------------------------------------|


D|-------------------------------------------------|-------------------------------------------------|
A|-6--8--10-6--8--10-8-----6--8--6-----------10----|----10-12----10-12-14-10-12-14-15-12-14-15-14-12-|
F|----------------------9-----------9--7--------11-|-13-------13-------------------------------------|
C|----------------------------------------10-------|-------------------------------------------------|
G|-------------------------------------------------|-------------------------------------------------|
D|-------------------------------------------------|-------------------------------------------------|


D|-------------------------------------------------|-------------------------------------------------|
A|-10-12-10----10----------------------------10----|----10-12----10-12-13-10-12-13-15-12-13-15-13-12-|
F|----------13----13-11-13-11-10-11-10----------10-|-12-------12-------------------------------------|
C|-------------------------------------12-11-------|-------------------------------------------------|
G|-------------------------------------------------|-------------------------------------------------|
D|-------------------------------------------------|-------------------------------------------------|


D|-------------------------------------------------|-------------------------------------12-15-------|
A|-10-12-10----10----------------------------------|-------------12-15-13-12----12-13-15-------20-19-|
F|----------12----12-10-12-10-9--10-9--------12-11-|----11-12-14-------------14----------------------|
C|-------------------------------------12-10-------|-14----------------------------------------------|
G|-------------------------------------------------|-------------------------------------------------|
D|-------------------------------------------------|-------------------------------------------------|


D|-------------19-22-20-19-----------------------|--------------------|--------|--------|
A|----19-20-22-------------22-20-19--------------|--------------------|--------|--------|
F|-21-------------------------------21-20--------|--------------------|--------|--------|
C|----------------------------------------22-21--|-----------21-------|--------|--------|
G|-----------------------------------------------|--------------------|--------|--------|
D|-----------------------------------------------|--------------------|--------|--------|


D|--------|--------|--------|--------|--------|--------|--------|--------|--------|
A|--------|--------|--------|--------|--------|--------|--------|--------|--------|
F|--------|--------|--------|--------|--------|--------|--------|--------|--------|
C|--------|--------|--------|--------|--------|--------|--------|--------|--------|
G|--------|--------|--------|--------|--------|--------|--------|--------|--------|
D|--------|--------|--------|--------|--------|--------|--------|--------|--------|


D|--------|--------|--------|--------|--------|--------|--------|--------|--------|
A|--------|--------|--------|--------|--------|--------|--------|--------|--------|
F|--------|--------|--------|--------|--------|--------|--------|--------|--------|
C|--------|--------|--------|--------|--------|--------|--------|--------|--------|
G|--------|--------|--------|--------|--------|--------|--------|--------|--------|
D|--------|--------|--------|--------|--------|--------|--------|--------|--------|


D|--------|--------|--------|--------|--------|--------|--------|--------|--------|
A|--------|--------|--------|--------|--------|--------|--------|--------|--------|
F|--------|--------|--------|--------|--------|--------|--------|--------|--------|
C|--------|--------|--------|--------|--------|--------|--------|--------|--------|
G|--------|--------|--------|--------|--------|--------|--------|--------|--------|
D|--------|--------|--------|--------|--------|--------|--------|--------|--------|


D|--------|--------|--------|--------|--------|--------|--------|--------|--------|
A|--------|--------|--------|--------|--------|--------|--------|--------|--------|
F|--------|--------|--------|--------|--------|--------|--------|--------|--------|
C|--------|--------|--------|--------|--------|--------|--------|--------|--------|
G|--------|--------|--------|--------|--------|--------|--------|--------|--------|
D|--------|--------|--------|--------|--------|--------|--------|--------|--------|


D|--------|--------|--------|--------|--------|--------|--------|--------|--------|
A|--------|--------|--------|--------|--------|--------|--------|--------|--------|
F|--------|--------|--------|--------|--------|--------|--------|--------|--------|
C|--------|--------|--------|--------|--------|--------|--------|--------|--------|
G|--------|--------|--------|--------|--------|--------|--------|--------|--------|
D|--------|--------|--------|--------|--------|--------|--------|--------|--------|


D|--------|--------|--------|--------|--------|--------|--------|--------|--------|
A|--------|--------|--------|--------|--------|--------|--------|--------|--------|
F|--------|--------|--------|--------|--------|--------|--------|--------|--------|
C|--------|--------|--------|--------|--------|--------|--------|--------|--------|
G|--------|--------|--------|--------|--------|--------|--------|--------|--------|
D|--------|--------|--------|--------|--------|--------|--------|--------|--------|


D|--------|--------|--------|--------|--------|--------|--------|--------|--------|
A|--------|--------|--------|--------|--------|--------|--------|--------|--------|
F|--------|--------|--------|--------|--------|--------|--------|--------|--------|
C|--------|--------|--------|--------|--------|--------|--------|--------|--------|
G|--------|--------|--------|--------|--------|--------|--------|--------|--------|
D|--------|--------|--------|--------|--------|--------|--------|--------|--------|


D|--------|--------|--------|--------|--------|--------|--------|--------|--------|
A|--------|--------|--------|--------|--------|--------|--------|--------|--------|
F|--------|--------|--------|--------|--------|--------|--------|--------|--------|
C|--------|--------|--------|--------|--------|--------|--------|--------|--------|
G|--------|--------|--------|--------|--------|--------|--------|--------|--------|
D|--------|--------|--------|--------|--------|--------|--------|--------|--------|


D|--------|--------|--------|--------|--------|--------|--------|--------|--------|
A|--------|--------|--------|--------|--------|--------|--------|--------|--------|
F|--------|--------|--------|--------|--------|--------|--------|--------|--------|
C|--------|--------|--------|--------|--------|--------|--------|--------|--------|
G|--------|--------|--------|--------|--------|--------|--------|--------|--------|
D|--------|--------|--------|--------|--------|--------|--------|--------|--------|


D|--------|--------|--------|--------|--------|--------|--------|--------|--------|
A|--------|--------|--------|--------|--------|--------|--------|--------|--------|
F|--------|--------|--------|--------|--------|--------|--------|--------|--------|
C|--------|--------|--------|--------|--------|--------|--------|--------|--------|
G|--------|--------|--------|--------|--------|--------|--------|--------|--------|
D|--------|--------|--------|--------|--------|--------|--------|--------|--------|


D|--------|--------|--------|--------|--------|--------|--------|--------|--------|
A|--------|--------|--------|--------|--------|--------|--------|--------|--------|
F|--------|--------|--------|--------|--------|--------|--------|--------|--------|
C|--------|--------|--------|--------|--------|--------|--------|--------|--------|
G|--------|--------|--------|--------|--------|--------|--------|--------|--------|
D|--------|--------|--------|--------|--------|--------|--------|--------|--------|


D|--------|--------|--------|--------|--------|--------|--------|--------|--------|
A|--------|--------|--------|--------|--------|--------|--------|--------|--------|
F|--------|--------|--------|--------|--------|--------|--------|--------|--------|
C|--------|--------|--------|--------|--------|--------|--------|--------|--------|
G|--------|--------|--------|--------|--------|--------|--------|--------|--------|
D|--------|--------|--------|--------|--------|--------|--------|--------|--------|


D|--------|--------|--------|--------|--------|--------|--------|--------|--------|
A|--------|--------|--------|--------|--------|--------|--------|--------|--------|
F|--------|--------|--------|--------|--------|--------|--------|--------|--------|
C|--------|--------|--------|--------|--------|--------|--------|--------|--------|
G|--------|--------|--------|--------|--------|--------|--------|--------|--------|
D|--------|--------|--------|--------|--------|--------|--------|--------|--------|


D|--------|--------|--------|--------|--------|--------|--------|--------|--------|
A|--------|--------|--------|--------|--------|--------|--------|--------|--------|
F|--------|--------|--------|--------|--------|--------|--------|--------|--------|
C|--------|--------|--------|--------|--------|--------|--------|--------|--------|
G|--------|--------|--------|--------|--------|--------|--------|--------|--------|
D|--------|--------|--------|--------|--------|--------|--------|--------|--------|


D|--------|--------|--------|--------|--------|--------|--------|--------|--------|
A|--------|--------|--------|--------|--------|--------|--------|--------|--------|
F|--------|--------|--------|--------|--------|--------|--------|--------|--------|
C|--------|--------|--------|--------|--------|--------|--------|--------|--------|
G|--------|--------|--------|--------|--------|--------|--------|--------|--------|
D|--------|--------|--------|--------|--------|--------|--------|--------|--------|


D|--------|--------|--------|--------|--------|--------|--------|--------|--------|
A|--------|--------|--------|--------|--------|--------|--------|--------|--------|
F|--------|--------|--------|--------|--------|--------|--------|--------|--------|
C|--------|--------|--------|--------|--------|--------|--------|--------|--------|
G|--------|--------|--------|--------|--------|--------|--------|--------|--------|
D|--------|--------|--------|--------|--------|--------|--------|--------|--------|


D|--------|
A|--------|
F|--------|
C|--------|
G|--------|
D|--------|





Track 5: acoustic

D|--------|--------|--------|--------|--------|--------|--------|--------|--------|
A|--------|--------|--------|--------|--------|--------|--------|--------|--------|
F|--------|--------|--------|--------|--------|--------|--------|--------|--------|
C|--------|--------|--------|--------|--------|--------|--------|--------|--------|
G|--------|--------|--------|--------|--------|--------|--------|--------|--------|
D|--------|--------|--------|--------|--------|--------|--------|--------|--------|


D|--------|--------|--------|--------|--------|--------|--------|--------|--------|
A|--------|--------|--------|--------|--------|--------|--------|--------|--------|
F|--------|--------|--------|--------|--------|--------|--------|--------|--------|
C|--------|--------|--------|--------|--------|--------|--------|--------|--------|
G|--------|--------|--------|--------|--------|--------|--------|--------|--------|
D|--------|--------|--------|--------|--------|--------|--------|--------|--------|


D|--------|--------|--------|--------|--------|--------|--------|--------|--------|
A|--------|--------|--------|--------|--------|--------|--------|--------|--------|
F|--------|--------|--------|--------|--------|--------|--------|--------|--------|
C|--------|--------|--------|--------|--------|--------|--------|--------|--------|
G|--------|--------|--------|--------|--------|--------|--------|--------|--------|
D|--------|--------|--------|--------|--------|--------|--------|--------|--------|


D|--------|--------|--------|--------|--------|--------|--------|--------|--------|
A|--------|--------|--------|--------|--------|--------|--------|--------|--------|
F|--------|--------|--------|--------|--------|--------|--------|--------|--------|
C|--------|--------|--------|--------|--------|--------|--------|--------|--------|
G|--------|--------|--------|--------|--------|--------|--------|--------|--------|
D|--------|--------|--------|--------|--------|--------|--------|--------|--------|


D|--------|--------|--------|--------|--------|--------|--------|--------|--------|
A|--------|--------|--------|--------|--------|--------|--------|--------|--------|
F|--------|--------|--------|--------|--------|--------|--------|--------|--------|
C|--------|--------|--------|--------|--------|--------|--------|--------|--------|
G|--------|--------|--------|--------|--------|--------|--------|--------|--------|
D|--------|--------|--------|--------|--------|--------|--------|--------|--------|


D|--------|--------|--------|--------|--------|--------|--------|--------|--------|
A|--------|--------|--------|--------|--------|--------|--------|--------|--------|
F|--------|--------|--------|--------|--------|--------|--------|--------|--------|
C|--------|--------|--------|--------|--------|--------|--------|--------|--------|
G|--------|--------|--------|--------|--------|--------|--------|--------|--------|
D|--------|--------|--------|--------|--------|--------|--------|--------|--------|


D|--------|--------|--------|--------|--------|--------|--------|--------|--------|
A|--------|--------|--------|--------|--------|--------|--------|--------|--------|
F|--------|--------|--------|--------|--------|--------|--------|--------|--------|
C|--------|--------|--------|--------|--------|--------|--------|--------|--------|
G|--------|--------|--------|--------|--------|--------|--------|--------|--------|
D|--------|--------|--------|--------|--------|--------|--------|--------|--------|


D|--------|--------|--------|--------|--------|--------|--------|--------|--------|
A|--------|--------|--------|--------|--------|--------|--------|--------|--------|
F|--------|--------|--------|--------|--------|--------|--------|--------|--------|
C|--------|--------|--------|--------|--------|--------|--------|--------|--------|
G|--------|--------|--------|--------|--------|--------|--------|--------|--------|
D|--------|--------|--------|--------|--------|--------|--------|--------|--------|


D|--------|--------|--------|--------|--------|--------|--------|--------|--------|
A|--------|--------|--------|--------|--------|--------|--------|--------|--------|
F|--------|--------|--------|--------|--------|--------|--------|--------|--------|
C|--------|--------|--------|--------|--------|--------|--------|--------|--------|
G|--------|--------|--------|--------|--------|--------|--------|--------|--------|
D|--------|--------|--------|--------|--------|--------|--------|--------|--------|


D|--------|--------|--------|--------|--------|--------|--------|--------|--------|
A|--------|--------|--------|--------|--------|--------|--------|--------|--------|
F|--------|--------|--------|--------|--------|--------|--------|--------|--------|
C|--------|--------|--------|--------|--------|--------|--------|--------|--------|
G|--------|--------|--------|--------|--------|--------|--------|--------|--------|
D|--------|--------|--------|--------|--------|--------|--------|--------|--------|


D|--------|--------|--------|--------|--------|--------|--------|--------|--------|
A|--------|--------|--------|--------|--------|--------|--------|--------|--------|
F|--------|--------|--------|--------|--------|--------|--------|--------|--------|
C|--------|--------|--------|--------|--------|--------|--------|--------|--------|
G|--------|--------|--------|--------|--------|--------|--------|--------|--------|
D|--------|--------|--------|--------|--------|--------|--------|--------|--------|


D|--------|--------|--------|--------|--------|--------|--------|--------|--------|
A|--------|--------|--------|--------|--------|--------|--------|--------|--------|
F|--------|--------|--------|--------|--------|--------|--------|--------|--------|
C|--------|--------|--------|--------|--------|--------|--------|--------|--------|
G|--------|--------|--------|--------|--------|--------|--------|--------|--------|
D|--------|--------|--------|--------|--------|--------|--------|--------|--------|


D|--------|--------|--------|--------|--------|--------|--------|--------|--------|
A|--------|--------|--------|--------|--------|--------|--------|--------|--------|
F|--------|--------|--------|--------|--------|--------|--------|--------|--------|
C|--------|--------|--------|--------|--------|--------|--------|--------|--------|
G|--------|--------|--------|--------|--------|--------|--------|--------|--------|
D|--------|--------|--------|--------|--------|--------|--------|--------|--------|


D|--------|--------|--------|--------|--------|--------|--------|--------|--------|
A|--------|--------|--------|--------|--------|--------|--------|--------|--------|
F|--------|--------|--------|--------|--------|--------|--------|--------|--------|
C|--------|--------|--------|--------|--------|--------|--------|--------|--------|
G|--------|--------|--------|--------|--------|--------|--------|--------|--------|
D|--------|--------|--------|--------|--------|--------|--------|--------|--------|


D|--------|--------|--------|--------|--------|--------|--------|--------|--------|
A|--------|--------|--------|--------|--------|--------|--------|--------|--------|
F|--------|--------|--------|--------|--------|--------|--------|--------|--------|
C|--------|--------|--------|--------|--------|--------|--------|--------|--------|
G|--------|--------|--------|--------|--------|--------|--------|--------|--------|
D|--------|--------|--------|--------|--------|--------|--------|--------|--------|


D|--------|--------|--------|--------|--------|--------|--------|--------|--------|
A|--------|--------|--------|--------|--------|--------|--------|--------|--------|
F|--------|--------|--------|--------|--------|--------|--------|--------|--------|
C|--------|--------|--------|--------|--------|--------|--------|--------|--------|
G|--------|--------|--------|--------|--------|--------|--------|--------|--------|
D|--------|--------|--------|--------|--------|--------|--------|--------|--------|


D|--------|--------|--------|--------|--------|--------|--------|--------|--------|
A|--------|--------|--------|--------|--------|--------|--------|--------|--------|
F|--------|--------|--------|--------|--------|--------|--------|--------|--------|
C|--------|--------|--------|--------|--------|--------|--------|--------|--------|
G|--------|--------|--------|--------|--------|--------|--------|--------|--------|
D|--------|--------|--------|--------|--------|--------|--------|--------|--------|


D|--------|--------|--------|--------|--------|--------|--------|--------|--------|
A|--------|--------|--------|--------|--------|--------|--------|--------|--------|
F|--------|--------|--------|--------|--------|--------|--------|--------|--------|
C|--------|--------|--------|--------|--------|--------|--------|--------|--------|
G|--------|--------|--------|--------|--------|--------|--------|--------|--------|
D|--------|--------|--------|--------|--------|--------|--------|--------|--------|


D|--------|--------|--------|--------|--------|--------|--------|-----------------------|
A|--------|--------|--------|--------|--------|--------|--------|-----------10--10--10--|
F|--------|--------|--------|--------|--------|--------|--------|-----------11--11--11--|
C|--------|--------|--------|--------|--------|--------|--------|-----------11--11--11--|
G|--------|--------|--------|--------|--------|--------|--------|-----------------------|
D|--------|--------|--------|--------|--------|--------|--------|-----------------------|


D|----------------|--------|--------|--------|--------|--------|--------|--------|
A|-10-------------|--------|--------|--------|--------|--------|--------|--------|
F|-11-------------|--------|--------|--------|--------|--------|--------|--------|
C|-11-------------|--------|--------|--------|--------|--------|--------|--------|
G|----------------|--------|--------|--------|--------|--------|--------|--------|
D|----------------|--------|--------|--------|--------|--------|--------|--------|


D|--------|--------|--------|--------|--------|--------|--------|--------|--------|
A|--------|--------|--------|--------|--------|--------|--------|--------|--------|
F|--------|--------|--------|--------|--------|--------|--------|--------|--------|
C|--------|--------|--------|--------|--------|--------|--------|--------|--------|
G|--------|--------|--------|--------|--------|--------|--------|--------|--------|
D|--------|--------|--------|--------|--------|--------|--------|--------|--------|


D|--------|--------|--------|--------|--------|--------|--------|--------|--------|
A|--------|--------|--------|--------|--------|--------|--------|--------|--------|
F|--------|--------|--------|--------|--------|--------|--------|--------|--------|
C|--------|--------|--------|--------|--------|--------|--------|--------|--------|
G|--------|--------|--------|--------|--------|--------|--------|--------|--------|
D|--------|--------|--------|--------|--------|--------|--------|--------|--------|


D|--------|--------|--------|--------|--------|--------|--------|--------|--------|
A|--------|--------|--------|--------|--------|--------|--------|--------|--------|
F|--------|--------|--------|--------|--------|--------|--------|--------|--------|
C|--------|--------|--------|--------|--------|--------|--------|--------|--------|
G|--------|--------|--------|--------|--------|--------|--------|--------|--------|
D|--------|--------|--------|--------|--------|--------|--------|--------|--------|


D|--------|--------|--------|--------|--------|--------|--------|--------|--------|
A|--------|--------|--------|--------|--------|--------|--------|--------|--------|
F|--------|--------|--------|--------|--------|--------|--------|--------|--------|
C|--------|--------|--------|--------|--------|--------|--------|--------|--------|
G|--------|--------|--------|--------|--------|--------|--------|--------|--------|
D|--------|--------|--------|--------|--------|--------|--------|--------|--------|


D|--------|--------|--------|--------|--------|--------|--------|--------|--------|
A|--------|--------|--------|--------|--------|--------|--------|--------|--------|
F|--------|--------|--------|--------|--------|--------|--------|--------|--------|
C|--------|--------|--------|--------|--------|--------|--------|--------|--------|
G|--------|--------|--------|--------|--------|--------|--------|--------|--------|
D|--------|--------|--------|--------|--------|--------|--------|--------|--------|


D|--------|--------|--------|--------|--------|--------|--------|--------|--------|
A|--------|--------|--------|--------|--------|--------|--------|--------|--------|
F|--------|--------|--------|--------|--------|--------|--------|--------|--------|
C|--------|--------|--------|--------|--------|--------|--------|--------|--------|
G|--------|--------|--------|--------|--------|--------|--------|--------|--------|
D|--------|--------|--------|--------|--------|--------|--------|--------|--------|


D|--------|--------|--------|--------|--------|--------|--------|--------|--------|
A|--------|--------|--------|--------|--------|--------|--------|--------|--------|
F|--------|--------|--------|--------|--------|--------|--------|--------|--------|
C|--------|--------|--------|--------|--------|--------|--------|--------|--------|
G|--------|--------|--------|--------|--------|--------|--------|--------|--------|
D|--------|--------|--------|--------|--------|--------|--------|--------|--------|


D|--------|--------|--------|--------|--------|--------|--------|--------|--------|
A|--------|--------|--------|--------|--------|--------|--------|--------|--------|
F|--------|--------|--------|--------|--------|--------|--------|--------|--------|
C|--------|--------|--------|--------|--------|--------|--------|--------|--------|
G|--------|--------|--------|--------|--------|--------|--------|--------|--------|
D|--------|--------|--------|--------|--------|--------|--------|--------|--------|


D|--------|--------|--------|--------|--------|--------|--------|--------|--------|
A|--------|--------|--------|--------|--------|--------|--------|--------|--------|
F|--------|--------|--------|--------|--------|--------|--------|--------|--------|
C|--------|--------|--------|--------|--------|--------|--------|--------|--------|
G|--------|--------|--------|--------|--------|--------|--------|--------|--------|
D|--------|--------|--------|--------|--------|--------|--------|--------|--------|


D|--------|--------|--------|--------|--------|--------|--------|--------|--------|
A|--------|--------|--------|--------|--------|--------|--------|--------|--------|
F|--------|--------|--------|--------|--------|--------|--------|--------|--------|
C|--------|--------|--------|--------|--------|--------|--------|--------|--------|
G|--------|--------|--------|--------|--------|--------|--------|--------|--------|
D|--------|--------|--------|--------|--------|--------|--------|--------|--------|


D|--------|--------|--------|--------|--------|--------|--------|--------|--------|
A|--------|--------|--------|--------|--------|--------|--------|--------|--------|
F|--------|--------|--------|--------|--------|--------|--------|--------|--------|
C|--------|--------|--------|--------|--------|--------|--------|--------|--------|
G|--------|--------|--------|--------|--------|--------|--------|--------|--------|
D|--------|--------|--------|--------|--------|--------|--------|--------|--------|


D|--------|--------|--------|--------|--------|--------|--------|--------|--------|
A|--------|--------|--------|--------|--------|--------|--------|--------|--------|
F|--------|--------|--------|--------|--------|--------|--------|--------|--------|
C|--------|--------|--------|--------|--------|--------|--------|--------|--------|
G|--------|--------|--------|--------|--------|--------|--------|--------|--------|
D|--------|--------|--------|--------|--------|--------|--------|--------|--------|


D|--------|--------|--------|--------|--------|--------|--------|--------|--------|
A|--------|--------|--------|--------|--------|--------|--------|--------|--------|
F|--------|--------|--------|--------|--------|--------|--------|--------|--------|
C|--------|--------|--------|--------|--------|--------|--------|--------|--------|
G|--------|--------|--------|--------|--------|--------|--------|--------|--------|
D|--------|--------|--------|--------|--------|--------|--------|--------|--------|


D|--------|--------|--------|--------|--------|--------|--------|--------|--------|
A|--------|--------|--------|--------|--------|--------|--------|--------|--------|
F|--------|--------|--------|--------|--------|--------|--------|--------|--------|
C|--------|--------|--------|--------|--------|--------|--------|--------|--------|
G|--------|--------|--------|--------|--------|--------|--------|--------|--------|
D|--------|--------|--------|--------|--------|--------|--------|--------|--------|


D|--------|--------|--------|--------|--------|--------|--------|--------|--------|
A|--------|--------|--------|--------|--------|--------|--------|--------|--------|
F|--------|--------|--------|--------|--------|--------|--------|--------|--------|
C|--------|--------|--------|--------|--------|--------|--------|--------|--------|
G|--------|--------|--------|--------|--------|--------|--------|--------|--------|
D|--------|--------|--------|--------|--------|--------|--------|--------|--------|


D|--------|--------|--------|--------|--------|--------|--------|--------|--------|
A|--------|--------|--------|--------|--------|--------|--------|--------|--------|
F|--------|--------|--------|--------|--------|--------|--------|--------|--------|
C|--------|--------|--------|--------|--------|--------|--------|--------|--------|
G|--------|--------|--------|--------|--------|--------|--------|--------|--------|
D|--------|--------|--------|--------|--------|--------|--------|--------|--------|


D|--------|--------|--------|--------|--------|--------|--------|--------|--------|
A|--------|--------|--------|--------|--------|--------|--------|--------|--------|
F|--------|--------|--------|--------|--------|--------|--------|--------|--------|
C|--------|--------|--------|--------|--------|--------|--------|--------|--------|
G|--------|--------|--------|--------|--------|--------|--------|--------|--------|
D|--------|--------|--------|--------|--------|--------|--------|--------|--------|


D|--------|--------|--------|--------|--------|--------|--------|--------|--------|
A|--------|--------|--------|--------|--------|--------|--------|--------|--------|
F|--------|--------|--------|--------|--------|--------|--------|--------|--------|
C|--------|--------|--------|--------|--------|--------|--------|--------|--------|
G|--------|--------|--------|--------|--------|--------|--------|--------|--------|
D|--------|--------|--------|--------|--------|--------|--------|--------|--------|


D|--------|--------|--------|--------|--------|--------|--------|--------|--------|
A|--------|--------|--------|--------|--------|--------|--------|--------|--------|
F|--------|--------|--------|--------|--------|--------|--------|--------|--------|
C|--------|--------|--------|--------|--------|--------|--------|--------|--------|
G|--------|--------|--------|--------|--------|--------|--------|--------|--------|
D|--------|--------|--------|--------|--------|--------|--------|--------|--------|


D|--------|--------|--------|--------|--------|--------|--------|--------|--------|
A|--------|--------|--------|--------|--------|--------|--------|--------|--------|
F|--------|--------|--------|--------|--------|--------|--------|--------|--------|
C|--------|--------|--------|--------|--------|--------|--------|--------|--------|
G|--------|--------|--------|--------|--------|--------|--------|--------|--------|
D|--------|--------|--------|--------|--------|--------|--------|--------|--------|


D|--------|--------|--------|--------|--------|--------|--------|--------|--------|
A|--------|--------|--------|--------|--------|--------|--------|--------|--------|
F|--------|--------|--------|--------|--------|--------|--------|--------|--------|
C|--------|--------|--------|--------|--------|--------|--------|--------|--------|
G|--------|--------|--------|--------|--------|--------|--------|--------|--------|
D|--------|--------|--------|--------|--------|--------|--------|--------|--------|


D|--------|--------|--------|--------|--------|--------|--------|--------|--------|
A|--------|--------|--------|--------|--------|--------|--------|--------|--------|
F|--------|--------|--------|--------|--------|--------|--------|--------|--------|
C|--------|--------|--------|--------|--------|--------|--------|--------|--------|
G|--------|--------|--------|--------|--------|--------|--------|--------|--------|
D|--------|--------|--------|--------|--------|--------|--------|--------|--------|


D|--------|--------|--------|
A|--------|--------|--------|
F|--------|--------|--------|
C|--------|--------|--------|
G|--------|--------|--------|
D|--------|--------|--------|





Track 6: acoustic

D|--------|--------|--------|--------|--------|--------|--------|--------|--------|
A|--------|--------|--------|--------|--------|--------|--------|--------|--------|
F|--------|--------|--------|--------|--------|--------|--------|--------|--------|
C|--------|--------|--------|--------|--------|--------|--------|--------|--------|
G|--------|--------|--------|--------|--------|--------|--------|--------|--------|
D|--------|--------|--------|--------|--------|--------|--------|--------|--------|


D|--------|--------|--------|--------|--------|--------|--------|--------|--------|
A|--------|--------|--------|--------|--------|--------|--------|--------|--------|
F|--------|--------|--------|--------|--------|--------|--------|--------|--------|
C|--------|--------|--------|--------|--------|--------|--------|--------|--------|
G|--------|--------|--------|--------|--------|--------|--------|--------|--------|
D|--------|--------|--------|--------|--------|--------|--------|--------|--------|


D|--------|--------|--------|--------|--------|--------|--------|--------|--------|
A|--------|--------|--------|--------|--------|--------|--------|--------|--------|
F|--------|--------|--------|--------|--------|--------|--------|--------|--------|
C|--------|--------|--------|--------|--------|--------|--------|--------|--------|
G|--------|--------|--------|--------|--------|--------|--------|--------|--------|
D|--------|--------|--------|--------|--------|--------|--------|--------|--------|


D|--------|--------|--------|--------|--------|--------|--------|--------|--------|
A|--------|--------|--------|--------|--------|--------|--------|--------|--------|
F|--------|--------|--------|--------|--------|--------|--------|--------|--------|
C|--------|--------|--------|--------|--------|--------|--------|--------|--------|
G|--------|--------|--------|--------|--------|--------|--------|--------|--------|
D|--------|--------|--------|--------|--------|--------|--------|--------|--------|


D|--------|--------|--------|--------|--------|--------|--------|--------|--------|
A|--------|--------|--------|--------|--------|--------|--------|--------|--------|
F|--------|--------|--------|--------|--------|--------|--------|--------|--------|
C|--------|--------|--------|--------|--------|--------|--------|--------|--------|
G|--------|--------|--------|--------|--------|--------|--------|--------|--------|
D|--------|--------|--------|--------|--------|--------|--------|--------|--------|


D|--------|--------|--------|--------|--------|--------|--------|--------|--------|
A|--------|--------|--------|--------|--------|--------|--------|--------|--------|
F|--------|--------|--------|--------|--------|--------|--------|--------|--------|
C|--------|--------|--------|--------|--------|--------|--------|--------|--------|
G|--------|--------|--------|--------|--------|--------|--------|--------|--------|
D|--------|--------|--------|--------|--------|--------|--------|--------|--------|


D|--------|--------|--------|--------|--------|--------|--------|--------|--------|
A|--------|--------|--------|--------|--------|--------|--------|--------|--------|
F|--------|--------|--------|--------|--------|--------|--------|--------|--------|
C|--------|--------|--------|--------|--------|--------|--------|--------|--------|
G|--------|--------|--------|--------|--------|--------|--------|--------|--------|
D|--------|--------|--------|--------|--------|--------|--------|--------|--------|


D|--------|--------|--------|--------|--------|--------|--------|--------|--------|
A|--------|--------|--------|--------|--------|--------|--------|--------|--------|
F|--------|--------|--------|--------|--------|--------|--------|--------|--------|
C|--------|--------|--------|--------|--------|--------|--------|--------|--------|
G|--------|--------|--------|--------|--------|--------|--------|--------|--------|
D|--------|--------|--------|--------|--------|--------|--------|--------|--------|


D|--------|--------|--------|--------|--------|--------|--------|--------|--------|
A|--------|--------|--------|--------|--------|--------|--------|--------|--------|
F|--------|--------|--------|--------|--------|--------|--------|--------|--------|
C|--------|--------|--------|--------|--------|--------|--------|--------|--------|
G|--------|--------|--------|--------|--------|--------|--------|--------|--------|
D|--------|--------|--------|--------|--------|--------|--------|--------|--------|


D|--------|--------|--------|--------|--------|--------|--------|--------|--------|
A|--------|--------|--------|--------|--------|--------|--------|--------|--------|
F|--------|--------|--------|--------|--------|--------|--------|--------|--------|
C|--------|--------|--------|--------|--------|--------|--------|--------|--------|
G|--------|--------|--------|--------|--------|--------|--------|--------|--------|
D|--------|--------|--------|--------|--------|--------|--------|--------|--------|


D|--------|--------|--------|--------|--------|--------|--------|--------|--------|
A|--------|--------|--------|--------|--------|--------|--------|--------|--------|
F|--------|--------|--------|--------|--------|--------|--------|--------|--------|
C|--------|--------|--------|--------|--------|--------|--------|--------|--------|
G|--------|--------|--------|--------|--------|--------|--------|--------|--------|
D|--------|--------|--------|--------|--------|--------|--------|--------|--------|


D|--------|--------|--------|--------|--------|--------|--------|--------|--------|
A|--------|--------|--------|--------|--------|--------|--------|--------|--------|
F|--------|--------|--------|--------|--------|--------|--------|--------|--------|
C|--------|--------|--------|--------|--------|--------|--------|--------|--------|
G|--------|--------|--------|--------|--------|--------|--------|--------|--------|
D|--------|--------|--------|--------|--------|--------|--------|--------|--------|


D|--------|--------|--------|--------|--------|--------|--------|--------|--------|
A|--------|--------|--------|--------|--------|--------|--------|--------|--------|
F|--------|--------|--------|--------|--------|--------|--------|--------|--------|
C|--------|--------|--------|--------|--------|--------|--------|--------|--------|
G|--------|--------|--------|--------|--------|--------|--------|--------|--------|
D|--------|--------|--------|--------|--------|--------|--------|--------|--------|


D|--------|--------|--------|--------|--------|--------|--------|--------|--------|
A|--------|--------|--------|--------|--------|--------|--------|--------|--------|
F|--------|--------|--------|--------|--------|--------|--------|--------|--------|
C|--------|--------|--------|--------|--------|--------|--------|--------|--------|
G|--------|--------|--------|--------|--------|--------|--------|--------|--------|
D|--------|--------|--------|--------|--------|--------|--------|--------|--------|


D|--------|--------|--------|--------|--------|--------|--------|--------|--------|
A|--------|--------|--------|--------|--------|--------|--------|--------|--------|
F|--------|--------|--------|--------|--------|--------|--------|--------|--------|
C|--------|--------|--------|--------|--------|--------|--------|--------|--------|
G|--------|--------|--------|--------|--------|--------|--------|--------|--------|
D|--------|--------|--------|--------|--------|--------|--------|--------|--------|


D|--------|--------|--------|--------|--------|--------|--------|--------|--------|
A|--------|--------|--------|--------|--------|--------|--------|--------|--------|
F|--------|--------|--------|--------|--------|--------|--------|--------|--------|
C|--------|--------|--------|--------|--------|--------|--------|--------|--------|
G|--------|--------|--------|--------|--------|--------|--------|--------|--------|
D|--------|--------|--------|--------|--------|--------|--------|--------|--------|


D|--------|--------|--------|--------|--------|--------|--------|--------|--------|
A|--------|--------|--------|--------|--------|--------|--------|--------|--------|
F|--------|--------|--------|--------|--------|--------|--------|--------|--------|
C|--------|--------|--------|--------|--------|--------|--------|--------|--------|
G|--------|--------|--------|--------|--------|--------|--------|--------|--------|
D|--------|--------|--------|--------|--------|--------|--------|--------|--------|


D|--------|--------|--------|--------|--------|--------|--------|--------|--------|
A|--------|--------|--------|--------|--------|--------|--------|--------|--------|
F|--------|--------|--------|--------|--------|--------|--------|--------|--------|
C|--------|--------|--------|--------|--------|--------|--------|--------|--------|
G|--------|--------|--------|--------|--------|--------|--------|--------|--------|
D|--------|--------|--------|--------|--------|--------|--------|--------|--------|


D|--------|--------|--------|--------|--------|--------|--------|--------|-----------------------|
A|--------|--------|--------|--------|--------|--------|--------|--------|-----10--10--10--------|
F|--------|--------|--------|--------|--------|--------|--------|--------|-----11--11--11--------|
C|--------|--------|--------|--------|--------|--------|--------|--------|-----13--13--13--------|
G|--------|--------|--------|--------|--------|--------|--------|--------|-----------------------|
D|--------|--------|--------|--------|--------|--------|--------|--------|-----------------------|


D|--------|--------|--------|--------|--------|--------|--------|--------|--------|
A|--------|--------|--------|--------|--------|--------|--------|--------|--------|
F|--------|--------|--------|--------|--------|--------|--------|--------|--------|
C|--------|--------|--------|--------|--------|--------|--------|--------|--------|
G|--------|--------|--------|--------|--------|--------|--------|--------|--------|
D|--------|--------|--------|--------|--------|--------|--------|--------|--------|


D|--------|--------|--------|--------|--------|--------|--------|--------|--------|
A|--------|--------|--------|--------|--------|--------|--------|--------|--------|
F|--------|--------|--------|--------|--------|--------|--------|--------|--------|
C|--------|--------|--------|--------|--------|--------|--------|--------|--------|
G|--------|--------|--------|--------|--------|--------|--------|--------|--------|
D|--------|--------|--------|--------|--------|--------|--------|--------|--------|


D|--------|--------|--------|--------|--------|--------|--------|--------|--------|
A|--------|--------|--------|--------|--------|--------|--------|--------|--------|
F|--------|--------|--------|--------|--------|--------|--------|--------|--------|
C|--------|--------|--------|--------|--------|--------|--------|--------|--------|
G|--------|--------|--------|--------|--------|--------|--------|--------|--------|
D|--------|--------|--------|--------|--------|--------|--------|--------|--------|


D|--------|--------|--------|--------|--------|--------|--------|--------|--------|
A|--------|--------|--------|--------|--------|--------|--------|--------|--------|
F|--------|--------|--------|--------|--------|--------|--------|--------|--------|
C|--------|--------|--------|--------|--------|--------|--------|--------|--------|
G|--------|--------|--------|--------|--------|--------|--------|--------|--------|
D|--------|--------|--------|--------|--------|--------|--------|--------|--------|


D|--------|--------|--------|--------|--------|--------|--------|--------|--------|
A|--------|--------|--------|--------|--------|--------|--------|--------|--------|
F|--------|--------|--------|--------|--------|--------|--------|--------|--------|
C|--------|--------|--------|--------|--------|--------|--------|--------|--------|
G|--------|--------|--------|--------|--------|--------|--------|--------|--------|
D|--------|--------|--------|--------|--------|--------|--------|--------|--------|


D|--------|--------|--------|--------|--------|--------|--------|--------|--------|
A|--------|--------|--------|--------|--------|--------|--------|--------|--------|
F|--------|--------|--------|--------|--------|--------|--------|--------|--------|
C|--------|--------|--------|--------|--------|--------|--------|--------|--------|
G|--------|--------|--------|--------|--------|--------|--------|--------|--------|
D|--------|--------|--------|--------|--------|--------|--------|--------|--------|


D|--------|--------|--------|--------|--------|--------|--------|--------|--------|
A|--------|--------|--------|--------|--------|--------|--------|--------|--------|
F|--------|--------|--------|--------|--------|--------|--------|--------|--------|
C|--------|--------|--------|--------|--------|--------|--------|--------|--------|
G|--------|--------|--------|--------|--------|--------|--------|--------|--------|
D|--------|--------|--------|--------|--------|--------|--------|--------|--------|


D|--------|--------|--------|--------|--------|--------|--------|--------|--------|
A|--------|--------|--------|--------|--------|--------|--------|--------|--------|
F|--------|--------|--------|--------|--------|--------|--------|--------|--------|
C|--------|--------|--------|--------|--------|--------|--------|--------|--------|
G|--------|--------|--------|--------|--------|--------|--------|--------|--------|
D|--------|--------|--------|--------|--------|--------|--------|--------|--------|


D|--------|--------|--------|--------|--------|--------|--------|--------|--------|
A|--------|--------|--------|--------|--------|--------|--------|--------|--------|
F|--------|--------|--------|--------|--------|--------|--------|--------|--------|
C|--------|--------|--------|--------|--------|--------|--------|--------|--------|
G|--------|--------|--------|--------|--------|--------|--------|--------|--------|
D|--------|--------|--------|--------|--------|--------|--------|--------|--------|


D|--------|--------|--------|--------|--------|--------|--------|--------|--------|
A|--------|--------|--------|--------|--------|--------|--------|--------|--------|
F|--------|--------|--------|--------|--------|--------|--------|--------|--------|
C|--------|--------|--------|--------|--------|--------|--------|--------|--------|
G|--------|--------|--------|--------|--------|--------|--------|--------|--------|
D|--------|--------|--------|--------|--------|--------|--------|--------|--------|


D|--------|--------|--------|--------|--------|--------|--------|--------|--------|
A|--------|--------|--------|--------|--------|--------|--------|--------|--------|
F|--------|--------|--------|--------|--------|--------|--------|--------|--------|
C|--------|--------|--------|--------|--------|--------|--------|--------|--------|
G|--------|--------|--------|--------|--------|--------|--------|--------|--------|
D|--------|--------|--------|--------|--------|--------|--------|--------|--------|


D|--------|--------|--------|--------|--------|--------|--------|--------|--------|
A|--------|--------|--------|--------|--------|--------|--------|--------|--------|
F|--------|--------|--------|--------|--------|--------|--------|--------|--------|
C|--------|--------|--------|--------|--------|--------|--------|--------|--------|
G|--------|--------|--------|--------|--------|--------|--------|--------|--------|
D|--------|--------|--------|--------|--------|--------|--------|--------|--------|


D|--------|--------|--------|--------|--------|--------|--------|--------|--------|
A|--------|--------|--------|--------|--------|--------|--------|--------|--------|
F|--------|--------|--------|--------|--------|--------|--------|--------|--------|
C|--------|--------|--------|--------|--------|--------|--------|--------|--------|
G|--------|--------|--------|--------|--------|--------|--------|--------|--------|
D|--------|--------|--------|--------|--------|--------|--------|--------|--------|


D|--------|--------|--------|--------|--------|--------|--------|--------|--------|
A|--------|--------|--------|--------|--------|--------|--------|--------|--------|
F|--------|--------|--------|--------|--------|--------|--------|--------|--------|
C|--------|--------|--------|--------|--------|--------|--------|--------|--------|
G|--------|--------|--------|--------|--------|--------|--------|--------|--------|
D|--------|--------|--------|--------|--------|--------|--------|--------|--------|


D|--------|--------|--------|--------|--------|--------|--------|--------|--------|
A|--------|--------|--------|--------|--------|--------|--------|--------|--------|
F|--------|--------|--------|--------|--------|--------|--------|--------|--------|
C|--------|--------|--------|--------|--------|--------|--------|--------|--------|
G|--------|--------|--------|--------|--------|--------|--------|--------|--------|
D|--------|--------|--------|--------|--------|--------|--------|--------|--------|


D|--------|--------|--------|--------|--------|--------|--------|--------|--------|
A|--------|--------|--------|--------|--------|--------|--------|--------|--------|
F|--------|--------|--------|--------|--------|--------|--------|--------|--------|
C|--------|--------|--------|--------|--------|--------|--------|--------|--------|
G|--------|--------|--------|--------|--------|--------|--------|--------|--------|
D|--------|--------|--------|--------|--------|--------|--------|--------|--------|


D|--------|--------|--------|--------|--------|--------|--------|--------|--------|
A|--------|--------|--------|--------|--------|--------|--------|--------|--------|
F|--------|--------|--------|--------|--------|--------|--------|--------|--------|
C|--------|--------|--------|--------|--------|--------|--------|--------|--------|
G|--------|--------|--------|--------|--------|--------|--------|--------|--------|
D|--------|--------|--------|--------|--------|--------|--------|--------|--------|


D|--------|--------|--------|--------|--------|--------|--------|--------|--------|
A|--------|--------|--------|--------|--------|--------|--------|--------|--------|
F|--------|--------|--------|--------|--------|--------|--------|--------|--------|
C|--------|--------|--------|--------|--------|--------|--------|--------|--------|
G|--------|--------|--------|--------|--------|--------|--------|--------|--------|
D|--------|--------|--------|--------|--------|--------|--------|--------|--------|


D|--------|--------|--------|--------|--------|--------|--------|--------|--------|
A|--------|--------|--------|--------|--------|--------|--------|--------|--------|
F|--------|--------|--------|--------|--------|--------|--------|--------|--------|
C|--------|--------|--------|--------|--------|--------|--------|--------|--------|
G|--------|--------|--------|--------|--------|--------|--------|--------|--------|
D|--------|--------|--------|--------|--------|--------|--------|--------|--------|


D|--------|--------|--------|--------|--------|--------|--------|--------|--------|
A|--------|--------|--------|--------|--------|--------|--------|--------|--------|
F|--------|--------|--------|--------|--------|--------|--------|--------|--------|
C|--------|--------|--------|--------|--------|--------|--------|--------|--------|
G|--------|--------|--------|--------|--------|--------|--------|--------|--------|
D|--------|--------|--------|--------|--------|--------|--------|--------|--------|


D|--------|--------|--------|--------|--------|--------|--------|--------|--------|
A|--------|--------|--------|--------|--------|--------|--------|--------|--------|
F|--------|--------|--------|--------|--------|--------|--------|--------|--------|
C|--------|--------|--------|--------|--------|--------|--------|--------|--------|
G|--------|--------|--------|--------|--------|--------|--------|--------|--------|
D|--------|--------|--------|--------|--------|--------|--------|--------|--------|


D|--------|--------|--------|--------|--------|--------|--------|--------|--------|
A|--------|--------|--------|--------|--------|--------|--------|--------|--------|
F|--------|--------|--------|--------|--------|--------|--------|--------|--------|
C|--------|--------|--------|--------|--------|--------|--------|--------|--------|
G|--------|--------|--------|--------|--------|--------|--------|--------|--------|
D|--------|--------|--------|--------|--------|--------|--------|--------|--------|


D|--------|--------|--------|--------|--------|--------|--------|--------|--------|
A|--------|--------|--------|--------|--------|--------|--------|--------|--------|
F|--------|--------|--------|--------|--------|--------|--------|--------|--------|
C|--------|--------|--------|--------|--------|--------|--------|--------|--------|
G|--------|--------|--------|--------|--------|--------|--------|--------|--------|
D|--------|--------|--------|--------|--------|--------|--------|--------|--------|


D|--------|
A|--------|
F|--------|
C|--------|
G|--------|
D|--------|





Track 7: acoustic

D|--------|--------|--------|--------|--------|--------|--------|--------|--------|
A|--------|--------|--------|--------|--------|--------|--------|--------|--------|
F|--------|--------|--------|--------|--------|--------|--------|--------|--------|
C|--------|--------|--------|--------|--------|--------|--------|--------|--------|
G|--------|--------|--------|--------|--------|--------|--------|--------|--------|
D|--------|--------|--------|--------|--------|--------|--------|--------|--------|


D|--------|--------|--------|--------|--------|--------|--------|--------|--------|
A|--------|--------|--------|--------|--------|--------|--------|--------|--------|
F|--------|--------|--------|--------|--------|--------|--------|--------|--------|
C|--------|--------|--------|--------|--------|--------|--------|--------|--------|
G|--------|--------|--------|--------|--------|--------|--------|--------|--------|
D|--------|--------|--------|--------|--------|--------|--------|--------|--------|


D|--------|--------|--------|--------|--------|--------|--------|--------|--------|
A|--------|--------|--------|--------|--------|--------|--------|--------|--------|
F|--------|--------|--------|--------|--------|--------|--------|--------|--------|
C|--------|--------|--------|--------|--------|--------|--------|--------|--------|
G|--------|--------|--------|--------|--------|--------|--------|--------|--------|
D|--------|--------|--------|--------|--------|--------|--------|--------|--------|


D|--------|--------|--------|--------|--------|--------|--------|--------|--------|
A|--------|--------|--------|--------|--------|--------|--------|--------|--------|
F|--------|--------|--------|--------|--------|--------|--------|--------|--------|
C|--------|--------|--------|--------|--------|--------|--------|--------|--------|
G|--------|--------|--------|--------|--------|--------|--------|--------|--------|
D|--------|--------|--------|--------|--------|--------|--------|--------|--------|


D|--------|--------|--------|--------|--------|--------|--------|--------|--------|
A|--------|--------|--------|--------|--------|--------|--------|--------|--------|
F|--------|--------|--------|--------|--------|--------|--------|--------|--------|
C|--------|--------|--------|--------|--------|--------|--------|--------|--------|
G|--------|--------|--------|--------|--------|--------|--------|--------|--------|
D|--------|--------|--------|--------|--------|--------|--------|--------|--------|


D|--------|--------|--------|--------|--------|--------|--------|--------|--------|
A|--------|--------|--------|--------|--------|--------|--------|--------|--------|
F|--------|--------|--------|--------|--------|--------|--------|--------|--------|
C|--------|--------|--------|--------|--------|--------|--------|--------|--------|
G|--------|--------|--------|--------|--------|--------|--------|--------|--------|
D|--------|--------|--------|--------|--------|--------|--------|--------|--------|


D|--------|--------|--------|--------|--------|--------|--------|--------|--------|
A|--------|--------|--------|--------|--------|--------|--------|--------|--------|
F|--------|--------|--------|--------|--------|--------|--------|--------|--------|
C|--------|--------|--------|--------|--------|--------|--------|--------|--------|
G|--------|--------|--------|--------|--------|--------|--------|--------|--------|
D|--------|--------|--------|--------|--------|--------|--------|--------|--------|


D|--------|--------|--------|--------|--------|--------|--------|--------|--------|
A|--------|--------|--------|--------|--------|--------|--------|--------|--------|
F|--------|--------|--------|--------|--------|--------|--------|--------|--------|
C|--------|--------|--------|--------|--------|--------|--------|--------|--------|
G|--------|--------|--------|--------|--------|--------|--------|--------|--------|
D|--------|--------|--------|--------|--------|--------|--------|--------|--------|


D|--------|--------|--------|--------|--------|--------|--------|--------|--------|
A|--------|--------|--------|--------|--------|--------|--------|--------|--------|
F|--------|--------|--------|--------|--------|--------|--------|--------|--------|
C|--------|--------|--------|--------|--------|--------|--------|--------|--------|
G|--------|--------|--------|--------|--------|--------|--------|--------|--------|
D|--------|--------|--------|--------|--------|--------|--------|--------|--------|


D|--------|--------|--------|--------|--------|--------|--------|--------|--------|
A|--------|--------|--------|--------|--------|--------|--------|--------|--------|
F|--------|--------|--------|--------|--------|--------|--------|--------|--------|
C|--------|--------|--------|--------|--------|--------|--------|--------|--------|
G|--------|--------|--------|--------|--------|--------|--------|--------|--------|
D|--------|--------|--------|--------|--------|--------|--------|--------|--------|


D|--------|--------|--------|--------|--------|--------|--------|--------|--------|
A|--------|--------|--------|--------|--------|--------|--------|--------|--------|
F|--------|--------|--------|--------|--------|--------|--------|--------|--------|
C|--------|--------|--------|--------|--------|--------|--------|--------|--------|
G|--------|--------|--------|--------|--------|--------|--------|--------|--------|
D|--------|--------|--------|--------|--------|--------|--------|--------|--------|


D|--------|--------|--------|--------|--------|--------|--------|--------|--------|
A|--------|--------|--------|--------|--------|--------|--------|--------|--------|
F|--------|--------|--------|--------|--------|--------|--------|--------|--------|
C|--------|--------|--------|--------|--------|--------|--------|--------|--------|
G|--------|--------|--------|--------|--------|--------|--------|--------|--------|
D|--------|--------|--------|--------|--------|--------|--------|--------|--------|


D|--------|--------|--------|--------|--------|--------|--------|--------|--------|
A|--------|--------|--------|--------|--------|--------|--------|--------|--------|
F|--------|--------|--------|--------|--------|--------|--------|--------|--------|
C|--------|--------|--------|--------|--------|--------|--------|--------|--------|
G|--------|--------|--------|--------|--------|--------|--------|--------|--------|
D|--------|--------|--------|--------|--------|--------|--------|--------|--------|


D|--------|--------|--------|--------|--------|--------|--------|--------|--------|
A|--------|--------|--------|--------|--------|--------|--------|--------|--------|
F|--------|--------|--------|--------|--------|--------|--------|--------|--------|
C|--------|--------|--------|--------|--------|--------|--------|--------|--------|
G|--------|--------|--------|--------|--------|--------|--------|--------|--------|
D|--------|--------|--------|--------|--------|--------|--------|--------|--------|


D|--------|--------|--------|--------|--------|--------|--------|--------|--------|
A|--------|--------|--------|--------|--------|--------|--------|--------|--------|
F|--------|--------|--------|--------|--------|--------|--------|--------|--------|
C|--------|--------|--------|--------|--------|--------|--------|--------|--------|
G|--------|--------|--------|--------|--------|--------|--------|--------|--------|
D|--------|--------|--------|--------|--------|--------|--------|--------|--------|


D|--------|--------|--------|--------|--------|--------|--------|--------|--------|
A|--------|--------|--------|--------|--------|--------|--------|--------|--------|
F|--------|--------|--------|--------|--------|--------|--------|--------|--------|
C|--------|--------|--------|--------|--------|--------|--------|--------|--------|
G|--------|--------|--------|--------|--------|--------|--------|--------|--------|
D|--------|--------|--------|--------|--------|--------|--------|--------|--------|


D|--------|--------|--------|--------|--------|--------|--------|--------|--------|
A|--------|--------|--------|--------|--------|--------|--------|--------|--------|
F|--------|--------|--------|--------|--------|--------|--------|--------|--------|
C|--------|--------|--------|--------|--------|--------|--------|--------|--------|
G|--------|--------|--------|--------|--------|--------|--------|--------|--------|
D|--------|--------|--------|--------|--------|--------|--------|--------|--------|


D|--------|--------|--------|--------|--------|--------|--------|--------|--------|
A|--------|--------|--------|--------|--------|--------|--------|--------|--------|
F|--------|--------|--------|--------|--------|--------|--------|--------|--------|
C|--------|--------|--------|--------|--------|--------|--------|--------|--------|
G|--------|--------|--------|--------|--------|--------|--------|--------|--------|
D|--------|--------|--------|--------|--------|--------|--------|--------|--------|


D|--------|--------|--------|--------|--------|--------|--------|--------|-----------------------|
A|--------|--------|--------|--------|--------|--------|--------|--------|-------10--10--10--10--|
F|--------|--------|--------|--------|--------|--------|--------|--------|-------11--11--11--11--|
C|--------|--------|--------|--------|--------|--------|--------|--------|-------13--13--13--13--|
G|--------|--------|--------|--------|--------|--------|--------|--------|-----------------------|
D|--------|--------|--------|--------|--------|--------|--------|--------|-----------------------|


D|----------------|--------|--------|--------|--------|--------|--------|--------|
A|-10-------------|--------|--------|--------|--------|--------|--------|--------|
F|-11-------------|--------|--------|--------|--------|--------|--------|--------|
C|-13-------------|--------|--------|--------|--------|--------|--------|--------|
G|----------------|--------|--------|--------|--------|--------|--------|--------|
D|----------------|--------|--------|--------|--------|--------|--------|--------|


D|--------|--------|--------|--------|--------|--------|--------|--------|--------|
A|--------|--------|--------|--------|--------|--------|--------|--------|--------|
F|--------|--------|--------|--------|--------|--------|--------|--------|--------|
C|--------|--------|--------|--------|--------|--------|--------|--------|--------|
G|--------|--------|--------|--------|--------|--------|--------|--------|--------|
D|--------|--------|--------|--------|--------|--------|--------|--------|--------|


D|--------|--------|--------|--------|--------|--------|--------|--------|--------|
A|--------|--------|--------|--------|--------|--------|--------|--------|--------|
F|--------|--------|--------|--------|--------|--------|--------|--------|--------|
C|--------|--------|--------|--------|--------|--------|--------|--------|--------|
G|--------|--------|--------|--------|--------|--------|--------|--------|--------|
D|--------|--------|--------|--------|--------|--------|--------|--------|--------|


D|--------|--------|--------|--------|--------|--------|--------|--------|--------|
A|--------|--------|--------|--------|--------|--------|--------|--------|--------|
F|--------|--------|--------|--------|--------|--------|--------|--------|--------|
C|--------|--------|--------|--------|--------|--------|--------|--------|--------|
G|--------|--------|--------|--------|--------|--------|--------|--------|--------|
D|--------|--------|--------|--------|--------|--------|--------|--------|--------|


D|--------|--------|--------|--------|--------|--------|--------|--------|--------|
A|--------|--------|--------|--------|--------|--------|--------|--------|--------|
F|--------|--------|--------|--------|--------|--------|--------|--------|--------|
C|--------|--------|--------|--------|--------|--------|--------|--------|--------|
G|--------|--------|--------|--------|--------|--------|--------|--------|--------|
D|--------|--------|--------|--------|--------|--------|--------|--------|--------|


D|--------|--------|--------|--------|--------|--------|--------|--------|--------|
A|--------|--------|--------|--------|--------|--------|--------|--------|--------|
F|--------|--------|--------|--------|--------|--------|--------|--------|--------|
C|--------|--------|--------|--------|--------|--------|--------|--------|--------|
G|--------|--------|--------|--------|--------|--------|--------|--------|--------|
D|--------|--------|--------|--------|--------|--------|--------|--------|--------|


D|--------|--------|--------|--------|--------|--------|--------|--------|--------|
A|--------|--------|--------|--------|--------|--------|--------|--------|--------|
F|--------|--------|--------|--------|--------|--------|--------|--------|--------|
C|--------|--------|--------|--------|--------|--------|--------|--------|--------|
G|--------|--------|--------|--------|--------|--------|--------|--------|--------|
D|--------|--------|--------|--------|--------|--------|--------|--------|--------|


D|--------|--------|--------|--------|--------|--------|--------|--------|--------|
A|--------|--------|--------|--------|--------|--------|--------|--------|--------|
F|--------|--------|--------|--------|--------|--------|--------|--------|--------|
C|--------|--------|--------|--------|--------|--------|--------|--------|--------|
G|--------|--------|--------|--------|--------|--------|--------|--------|--------|
D|--------|--------|--------|--------|--------|--------|--------|--------|--------|


D|--------|--------|--------|--------|--------|--------|--------|--------|--------|
A|--------|--------|--------|--------|--------|--------|--------|--------|--------|
F|--------|--------|--------|--------|--------|--------|--------|--------|--------|
C|--------|--------|--------|--------|--------|--------|--------|--------|--------|
G|--------|--------|--------|--------|--------|--------|--------|--------|--------|
D|--------|--------|--------|--------|--------|--------|--------|--------|--------|


D|--------|--------|--------|--------|--------|--------|--------|--------|--------|
A|--------|--------|--------|--------|--------|--------|--------|--------|--------|
F|--------|--------|--------|--------|--------|--------|--------|--------|--------|
C|--------|--------|--------|--------|--------|--------|--------|--------|--------|
G|--------|--------|--------|--------|--------|--------|--------|--------|--------|
D|--------|--------|--------|--------|--------|--------|--------|--------|--------|


D|--------|--------|--------|--------|--------|--------|--------|--------|--------|
A|--------|--------|--------|--------|--------|--------|--------|--------|--------|
F|--------|--------|--------|--------|--------|--------|--------|--------|--------|
C|--------|--------|--------|--------|--------|--------|--------|--------|--------|
G|--------|--------|--------|--------|--------|--------|--------|--------|--------|
D|--------|--------|--------|--------|--------|--------|--------|--------|--------|


D|--------|--------|--------|--------|--------|--------|--------|--------|--------|
A|--------|--------|--------|--------|--------|--------|--------|--------|--------|
F|--------|--------|--------|--------|--------|--------|--------|--------|--------|
C|--------|--------|--------|--------|--------|--------|--------|--------|--------|
G|--------|--------|--------|--------|--------|--------|--------|--------|--------|
D|--------|--------|--------|--------|--------|--------|--------|--------|--------|


D|--------|--------|--------|--------|--------|--------|--------|--------|--------|
A|--------|--------|--------|--------|--------|--------|--------|--------|--------|
F|--------|--------|--------|--------|--------|--------|--------|--------|--------|
C|--------|--------|--------|--------|--------|--------|--------|--------|--------|
G|--------|--------|--------|--------|--------|--------|--------|--------|--------|
D|--------|--------|--------|--------|--------|--------|--------|--------|--------|


D|--------|--------|--------|--------|--------|--------|--------|--------|--------|
A|--------|--------|--------|--------|--------|--------|--------|--------|--------|
F|--------|--------|--------|--------|--------|--------|--------|--------|--------|
C|--------|--------|--------|--------|--------|--------|--------|--------|--------|
G|--------|--------|--------|--------|--------|--------|--------|--------|--------|
D|--------|--------|--------|--------|--------|--------|--------|--------|--------|


D|--------|--------|--------|--------|--------|--------|--------|--------|--------|
A|--------|--------|--------|--------|--------|--------|--------|--------|--------|
F|--------|--------|--------|--------|--------|--------|--------|--------|--------|
C|--------|--------|--------|--------|--------|--------|--------|--------|--------|
G|--------|--------|--------|--------|--------|--------|--------|--------|--------|
D|--------|--------|--------|--------|--------|--------|--------|--------|--------|


D|--------|--------|--------|--------|--------|--------|--------|--------|--------|
A|--------|--------|--------|--------|--------|--------|--------|--------|--------|
F|--------|--------|--------|--------|--------|--------|--------|--------|--------|
C|--------|--------|--------|--------|--------|--------|--------|--------|--------|
G|--------|--------|--------|--------|--------|--------|--------|--------|--------|
D|--------|--------|--------|--------|--------|--------|--------|--------|--------|


D|--------|--------|--------|--------|--------|--------|--------|--------|--------|
A|--------|--------|--------|--------|--------|--------|--------|--------|--------|
F|--------|--------|--------|--------|--------|--------|--------|--------|--------|
C|--------|--------|--------|--------|--------|--------|--------|--------|--------|
G|--------|--------|--------|--------|--------|--------|--------|--------|--------|
D|--------|--------|--------|--------|--------|--------|--------|--------|--------|


D|--------|--------|--------|--------|--------|--------|--------|--------|--------|
A|--------|--------|--------|--------|--------|--------|--------|--------|--------|
F|--------|--------|--------|--------|--------|--------|--------|--------|--------|
C|--------|--------|--------|--------|--------|--------|--------|--------|--------|
G|--------|--------|--------|--------|--------|--------|--------|--------|--------|
D|--------|--------|--------|--------|--------|--------|--------|--------|--------|


D|--------|--------|--------|--------|--------|--------|--------|--------|--------|
A|--------|--------|--------|--------|--------|--------|--------|--------|--------|
F|--------|--------|--------|--------|--------|--------|--------|--------|--------|
C|--------|--------|--------|--------|--------|--------|--------|--------|--------|
G|--------|--------|--------|--------|--------|--------|--------|--------|--------|
D|--------|--------|--------|--------|--------|--------|--------|--------|--------|


D|--------|--------|--------|--------|--------|--------|--------|--------|--------|
A|--------|--------|--------|--------|--------|--------|--------|--------|--------|
F|--------|--------|--------|--------|--------|--------|--------|--------|--------|
C|--------|--------|--------|--------|--------|--------|--------|--------|--------|
G|--------|--------|--------|--------|--------|--------|--------|--------|--------|
D|--------|--------|--------|--------|--------|--------|--------|--------|--------|


D|--------|--------|--------|--------|--------|--------|--------|--------|--------|
A|--------|--------|--------|--------|--------|--------|--------|--------|--------|
F|--------|--------|--------|--------|--------|--------|--------|--------|--------|
C|--------|--------|--------|--------|--------|--------|--------|--------|--------|
G|--------|--------|--------|--------|--------|--------|--------|--------|--------|
D|--------|--------|--------|--------|--------|--------|--------|--------|--------|


D|--------|--------|--------|--------|--------|--------|--------|--------|--------|
A|--------|--------|--------|--------|--------|--------|--------|--------|--------|
F|--------|--------|--------|--------|--------|--------|--------|--------|--------|
C|--------|--------|--------|--------|--------|--------|--------|--------|--------|
G|--------|--------|--------|--------|--------|--------|--------|--------|--------|
D|--------|--------|--------|--------|--------|--------|--------|--------|--------|


D|--------|--------|--------|--------|--------|--------|--------|--------|--------|
A|--------|--------|--------|--------|--------|--------|--------|--------|--------|
F|--------|--------|--------|--------|--------|--------|--------|--------|--------|
C|--------|--------|--------|--------|--------|--------|--------|--------|--------|
G|--------|--------|--------|--------|--------|--------|--------|--------|--------|
D|--------|--------|--------|--------|--------|--------|--------|--------|--------|


D|--------|--------|
A|--------|--------|
F|--------|--------|
C|--------|--------|
G|--------|--------|
D|--------|--------|





Track 8: acoustic

D|--------|--------|--------|--------|--------|--------|--------|--------|--------|
A|--------|--------|--------|--------|--------|--------|--------|--------|--------|
F|--------|--------|--------|--------|--------|--------|--------|--------|--------|
C|--------|--------|--------|--------|--------|--------|--------|--------|--------|
G|--------|--------|--------|--------|--------|--------|--------|--------|--------|
D|--------|--------|--------|--------|--------|--------|--------|--------|--------|


D|--------|--------|--------|--------|--------|--------|--------|--------|--------|
A|--------|--------|--------|--------|--------|--------|--------|--------|--------|
F|--------|--------|--------|--------|--------|--------|--------|--------|--------|
C|--------|--------|--------|--------|--------|--------|--------|--------|--------|
G|--------|--------|--------|--------|--------|--------|--------|--------|--------|
D|--------|--------|--------|--------|--------|--------|--------|--------|--------|


D|--------|--------|--------|--------|--------|--------|--------|--------|--------|
A|--------|--------|--------|--------|--------|--------|--------|--------|--------|
F|--------|--------|--------|--------|--------|--------|--------|--------|--------|
C|--------|--------|--------|--------|--------|--------|--------|--------|--------|
G|--------|--------|--------|--------|--------|--------|--------|--------|--------|
D|--------|--------|--------|--------|--------|--------|--------|--------|--------|


D|--------|--------|--------|--------|--------|--------|--------|--------|--------|
A|--------|--------|--------|--------|--------|--------|--------|--------|--------|
F|--------|--------|--------|--------|--------|--------|--------|--------|--------|
C|--------|--------|--------|--------|--------|--------|--------|--------|--------|
G|--------|--------|--------|--------|--------|--------|--------|--------|--------|
D|--------|--------|--------|--------|--------|--------|--------|--------|--------|


D|--------|--------|--------|--------|--------|--------|--------|--------|--------|
A|--------|--------|--------|--------|--------|--------|--------|--------|--------|
F|--------|--------|--------|--------|--------|--------|--------|--------|--------|
C|--------|--------|--------|--------|--------|--------|--------|--------|--------|
G|--------|--------|--------|--------|--------|--------|--------|--------|--------|
D|--------|--------|--------|--------|--------|--------|--------|--------|--------|


D|--------|--------|--------|--------|--------|--------|--------|--------|--------|
A|--------|--------|--------|--------|--------|--------|--------|--------|--------|
F|--------|--------|--------|--------|--------|--------|--------|--------|--------|
C|--------|--------|--------|--------|--------|--------|--------|--------|--------|
G|--------|--------|--------|--------|--------|--------|--------|--------|--------|
D|--------|--------|--------|--------|--------|--------|--------|--------|--------|


D|--------|--------|--------|--------|--------|--------|--------|--------|--------|
A|--------|--------|--------|--------|--------|--------|--------|--------|--------|
F|--------|--------|--------|--------|--------|--------|--------|--------|--------|
C|--------|--------|--------|--------|--------|--------|--------|--------|--------|
G|--------|--------|--------|--------|--------|--------|--------|--------|--------|
D|--------|--------|--------|--------|--------|--------|--------|--------|--------|


D|--------|--------|--------|--------|--------|--------|--------|--------|--------|
A|--------|--------|--------|--------|--------|--------|--------|--------|--------|
F|--------|--------|--------|--------|--------|--------|--------|--------|--------|
C|--------|--------|--------|--------|--------|--------|--------|--------|--------|
G|--------|--------|--------|--------|--------|--------|--------|--------|--------|
D|--------|--------|--------|--------|--------|--------|--------|--------|--------|


D|--------|--------|--------|--------|--------|--------|--------|--------|--------|
A|--------|--------|--------|--------|--------|--------|--------|--------|--------|
F|--------|--------|--------|--------|--------|--------|--------|--------|--------|
C|--------|--------|--------|--------|--------|--------|--------|--------|--------|
G|--------|--------|--------|--------|--------|--------|--------|--------|--------|
D|--------|--------|--------|--------|--------|--------|--------|--------|--------|


D|--------|--------|--------|--------|--------|--------|--------|--------|--------|
A|--------|--------|--------|--------|--------|--------|--------|--------|--------|
F|--------|--------|--------|--------|--------|--------|--------|--------|--------|
C|--------|--------|--------|--------|--------|--------|--------|--------|--------|
G|--------|--------|--------|--------|--------|--------|--------|--------|--------|
D|--------|--------|--------|--------|--------|--------|--------|--------|--------|


D|--------|--------|--------|--------|--------|--------|--------|--------|--------|
A|--------|--------|--------|--------|--------|--------|--------|--------|--------|
F|--------|--------|--------|--------|--------|--------|--------|--------|--------|
C|--------|--------|--------|--------|--------|--------|--------|--------|--------|
G|--------|--------|--------|--------|--------|--------|--------|--------|--------|
D|--------|--------|--------|--------|--------|--------|--------|--------|--------|


D|--------|--------|--------|--------|--------|--------|--------|--------|--------|
A|--------|--------|--------|--------|--------|--------|--------|--------|--------|
F|--------|--------|--------|--------|--------|--------|--------|--------|--------|
C|--------|--------|--------|--------|--------|--------|--------|--------|--------|
G|--------|--------|--------|--------|--------|--------|--------|--------|--------|
D|--------|--------|--------|--------|--------|--------|--------|--------|--------|


D|--------|--------|--------|--------|--------|--------|--------|--------|--------|
A|--------|--------|--------|--------|--------|--------|--------|--------|--------|
F|--------|--------|--------|--------|--------|--------|--------|--------|--------|
C|--------|--------|--------|--------|--------|--------|--------|--------|--------|
G|--------|--------|--------|--------|--------|--------|--------|--------|--------|
D|--------|--------|--------|--------|--------|--------|--------|--------|--------|


D|--------|--------|--------|--------|--------|--------|--------|--------|--------|
A|--------|--------|--------|--------|--------|--------|--------|--------|--------|
F|--------|--------|--------|--------|--------|--------|--------|--------|--------|
C|--------|--------|--------|--------|--------|--------|--------|--------|--------|
G|--------|--------|--------|--------|--------|--------|--------|--------|--------|
D|--------|--------|--------|--------|--------|--------|--------|--------|--------|


D|--------|--------|--------|--------|--------|--------|--------|--------|--------|
A|--------|--------|--------|--------|--------|--------|--------|--------|--------|
F|--------|--------|--------|--------|--------|--------|--------|--------|--------|
C|--------|--------|--------|--------|--------|--------|--------|--------|--------|
G|--------|--------|--------|--------|--------|--------|--------|--------|--------|
D|--------|--------|--------|--------|--------|--------|--------|--------|--------|


D|--------|--------|--------|--------|--------|--------|--------|--------|--------|
A|--------|--------|--------|--------|--------|--------|--------|--------|--------|
F|--------|--------|--------|--------|--------|--------|--------|--------|--------|
C|--------|--------|--------|--------|--------|--------|--------|--------|--------|
G|--------|--------|--------|--------|--------|--------|--------|--------|--------|
D|--------|--------|--------|--------|--------|--------|--------|--------|--------|


D|--------|--------|--------|--------|--------|--------|--------|--------|--------|
A|--------|--------|--------|--------|--------|--------|--------|--------|--------|
F|--------|--------|--------|--------|--------|--------|--------|--------|--------|
C|--------|--------|--------|--------|--------|--------|--------|--------|--------|
G|--------|--------|--------|--------|--------|--------|--------|--------|--------|
D|--------|--------|--------|--------|--------|--------|--------|--------|--------|


D|--------|--------|--------|--------|--------|--------|--------|--------|--------|
A|--------|--------|--------|--------|--------|--------|--------|--------|--------|
F|--------|--------|--------|--------|--------|--------|--------|--------|--------|
C|--------|--------|--------|--------|--------|--------|--------|--------|--------|
G|--------|--------|--------|--------|--------|--------|--------|--------|--------|
D|--------|--------|--------|--------|--------|--------|--------|--------|--------|


D|--------|--------|--------|--------|--------|--------|--------|--------|--------|
A|--------|--------|--------|--------|--------|--------|--------|--------|--------|
F|--------|--------|--------|--------|--------|--------|--------|--------|--------|
C|--------|--------|--------|--------|--------|--------|--------|--------|--------|
G|--------|--------|--------|--------|--------|--------|--------|--------|--------|
D|--------|--------|--------|--------|--------|--------|--------|--------|--------|


D|------------|--------|--------|--------|--------|--------|--------|--------|--------|
A|------------|--------|--------|--------|--------|--------|--------|--------|--------|
F|------------|--------|--------|--------|--------|--------|--------|--------|--------|
C|------------|--------|--------|--------|--------|--------|--------|--------|--------|
G|------------|--------|--------|--------|--------|--------|--------|--------|--------|
D|------------|--------|--------|--------|--------|--------|--------|--------|--------|


D|--------|--------|--------|--------|--------|--------|--------|--------|--------|
A|--------|--------|--------|--------|--------|--------|--------|--------|--------|
F|--------|--------|--------|--------|--------|--------|--------|--------|--------|
C|--------|--------|--------|--------|--------|--------|--------|--------|--------|
G|--------|--------|--------|--------|--------|--------|--------|--------|--------|
D|--------|--------|--------|--------|--------|--------|--------|--------|--------|


D|--------|--------|--------|--------|--------|--------|--------|--------|--------|
A|--------|--------|--------|--------|--------|--------|--------|--------|--------|
F|--------|--------|--------|--------|--------|--------|--------|--------|--------|
C|--------|--------|--------|--------|--------|--------|--------|--------|--------|
G|--------|--------|--------|--------|--------|--------|--------|--------|--------|
D|--------|--------|--------|--------|--------|--------|--------|--------|--------|


D|--------|--------|--------|--------|--------|--------|--------|--------|--------|
A|--------|--------|--------|--------|--------|--------|--------|--------|--------|
F|--------|--------|--------|--------|--------|--------|--------|--------|--------|
C|--------|--------|--------|--------|--------|--------|--------|--------|--------|
G|--------|--------|--------|--------|--------|--------|--------|--------|--------|
D|--------|--------|--------|--------|--------|--------|--------|--------|--------|


D|--------|--------|--------|--------|--------|--------|--------|--------|--------|
A|--------|--------|--------|--------|--------|--------|--------|--------|--------|
F|--------|--------|--------|--------|--------|--------|--------|--------|--------|
C|--------|--------|--------|--------|--------|--------|--------|--------|--------|
G|--------|--------|--------|--------|--------|--------|--------|--------|--------|
D|--------|--------|--------|--------|--------|--------|--------|--------|--------|


D|--------|--------|--------|--------|--------|--------|--------|--------|--------|
A|--------|--------|--------|--------|--------|--------|--------|--------|--------|
F|--------|--------|--------|--------|--------|--------|--------|--------|--------|
C|--------|--------|--------|--------|--------|--------|--------|--------|--------|
G|--------|--------|--------|--------|--------|--------|--------|--------|--------|
D|--------|--------|--------|--------|--------|--------|--------|--------|--------|


D|--------|--------|--------|--------|--------|--------|--------|--------|--------|
A|--------|--------|--------|--------|--------|--------|--------|--------|--------|
F|--------|--------|--------|--------|--------|--------|--------|--------|--------|
C|--------|--------|--------|--------|--------|--------|--------|--------|--------|
G|--------|--------|--------|--------|--------|--------|--------|--------|--------|
D|--------|--------|--------|--------|--------|--------|--------|--------|--------|


D|--------|--------|--------|--------|--------|--------|--------|--------|--------|
A|--------|--------|--------|--------|--------|--------|--------|--------|--------|
F|--------|--------|--------|--------|--------|--------|--------|--------|--------|
C|--------|--------|--------|--------|--------|--------|--------|--------|--------|
G|--------|--------|--------|--------|--------|--------|--------|--------|--------|
D|--------|--------|--------|--------|--------|--------|--------|--------|--------|


D|--------|--------|--------|--------|--------|--------|--------|--------|--------|
A|--------|--------|--------|--------|--------|--------|--------|--------|--------|
F|--------|--------|--------|--------|--------|--------|--------|--------|--------|
C|--------|--------|--------|--------|--------|--------|--------|--------|--------|
G|--------|--------|--------|--------|--------|--------|--------|--------|--------|
D|--------|--------|--------|--------|--------|--------|--------|--------|--------|


D|--------|--------|--------|--------|--------|--------|--------|--------|--------|
A|--------|--------|--------|--------|--------|--------|--------|--------|--------|
F|--------|--------|--------|--------|--------|--------|--------|--------|--------|
C|--------|--------|--------|--------|--------|--------|--------|--------|--------|
G|--------|--------|--------|--------|--------|--------|--------|--------|--------|
D|--------|--------|--------|--------|--------|--------|--------|--------|--------|


D|--------|--------|--------|--------|--------|--------|--------|--------|--------|
A|--------|--------|--------|--------|--------|--------|--------|--------|--------|
F|--------|--------|--------|--------|--------|--------|--------|--------|--------|
C|--------|--------|--------|--------|--------|--------|--------|--------|--------|
G|--------|--------|--------|--------|--------|--------|--------|--------|--------|
D|--------|--------|--------|--------|--------|--------|--------|--------|--------|


D|--------|--------|--------|--------|--------|--------|--------|--------|--------|
A|--------|--------|--------|--------|--------|--------|--------|--------|--------|
F|--------|--------|--------|--------|--------|--------|--------|--------|--------|
C|--------|--------|--------|--------|--------|--------|--------|--------|--------|
G|--------|--------|--------|--------|--------|--------|--------|--------|--------|
D|--------|--------|--------|--------|--------|--------|--------|--------|--------|


D|--------|--------|--------|--------|--------|--------|--------|--------|--------|
A|--------|--------|--------|--------|--------|--------|--------|--------|--------|
F|--------|--------|--------|--------|--------|--------|--------|--------|--------|
C|--------|--------|--------|--------|--------|--------|--------|--------|--------|
G|--------|--------|--------|--------|--------|--------|--------|--------|--------|
D|--------|--------|--------|--------|--------|--------|--------|--------|--------|


D|--------|--------|--------|--------|--------|--------|--------|--------|--------|
A|--------|--------|--------|--------|--------|--------|--------|--------|--------|
F|--------|--------|--------|--------|--------|--------|--------|--------|--------|
C|--------|--------|--------|--------|--------|--------|--------|--------|--------|
G|--------|--------|--------|--------|--------|--------|--------|--------|--------|
D|--------|--------|--------|--------|--------|--------|--------|--------|--------|


D|--------|--------|--------|--------|--------|--------|--------|--------|--------|
A|--------|--------|--------|--------|--------|--------|--------|--------|--------|
F|--------|--------|--------|--------|--------|--------|--------|--------|--------|
C|--------|--------|--------|--------|--------|--------|--------|--------|--------|
G|--------|--------|--------|--------|--------|--------|--------|--------|--------|
D|--------|--------|--------|--------|--------|--------|--------|--------|--------|


D|--------|--------|--------|--------|--------|--------|--------|--------|--------|
A|--------|--------|--------|--------|--------|--------|--------|--------|--------|
F|--------|--------|--------|--------|--------|--------|--------|--------|--------|
C|--------|--------|--------|--------|--------|--------|--------|--------|--------|
G|--------|--------|--------|--------|--------|--------|--------|--------|--------|
D|--------|--------|--------|--------|--------|--------|--------|--------|--------|


D|--------|--------|--------|--------|--------|--------|--------|--------|--------|
A|--------|--------|--------|--------|--------|--------|--------|--------|--------|
F|--------|--------|--------|--------|--------|--------|--------|--------|--------|
C|--------|--------|--------|--------|--------|--------|--------|--------|--------|
G|--------|--------|--------|--------|--------|--------|--------|--------|--------|
D|--------|--------|--------|--------|--------|--------|--------|--------|--------|


D|--------|--------|--------|--------|--------|--------|--------|--------|--------|
A|--------|--------|--------|--------|--------|--------|--------|--------|--------|
F|--------|--------|--------|--------|--------|--------|--------|--------|--------|
C|--------|--------|--------|--------|--------|--------|--------|--------|--------|
G|--------|--------|--------|--------|--------|--------|--------|--------|--------|
D|--------|--------|--------|--------|--------|--------|--------|--------|--------|


D|--------|--------|--------|--------|--------|--------|--------|--------|--------|
A|--------|--------|--------|--------|--------|--------|--------|--------|--------|
F|--------|--------|--------|--------|--------|--------|--------|--------|--------|
C|--------|--------|--------|--------|--------|--------|--------|--------|--------|
G|--------|--------|--------|--------|--------|--------|--------|--------|--------|
D|--------|--------|--------|--------|--------|--------|--------|--------|--------|


D|--------|--------|--------|--------|--------|--------|--------|--------|--------|
A|--------|--------|--------|--------|--------|--------|--------|--------|--------|
F|--------|--------|--------|--------|--------|--------|--------|--------|--------|
C|--------|--------|--------|--------|--------|--------|--------|--------|--------|
G|--------|--------|--------|--------|--------|--------|--------|--------|--------|
D|--------|--------|--------|--------|--------|--------|--------|--------|--------|


D|--------|--------|--------|--------|--------|--------|--------|--------|--------|
A|--------|--------|--------|--------|--------|--------|--------|--------|--------|
F|--------|--------|--------|--------|--------|--------|--------|--------|--------|
C|--------|--------|--------|--------|--------|--------|--------|--------|--------|
G|--------|--------|--------|--------|--------|--------|--------|--------|--------|
D|--------|--------|--------|--------|--------|--------|--------|--------|--------|


D|--------|--------|--------|--------|--------|--------|--------|--------|--------|
A|--------|--------|--------|--------|--------|--------|--------|--------|--------|
F|--------|--------|--------|--------|--------|--------|--------|--------|--------|
C|--------|--------|--------|--------|--------|--------|--------|--------|--------|
G|--------|--------|--------|--------|--------|--------|--------|--------|--------|
D|--------|--------|--------|--------|--------|--------|--------|--------|--------|


D|--------|--------|--------|--------|--------|--------|--------|--------|--------|
A|--------|--------|--------|--------|--------|--------|--------|--------|--------|
F|--------|--------|--------|--------|--------|--------|--------|--------|--------|
C|--------|--------|--------|--------|--------|--------|--------|--------|--------|
G|--------|--------|--------|--------|--------|--------|--------|--------|--------|
D|--------|--------|--------|--------|--------|--------|--------|--------|--------|


D|--------|
A|--------|
F|--------|
C|--------|
G|--------|
D|--------|





Track 9: acoustic

D|--------|--------|--------|--------|--------|--------|--------|--------|--------|
A|--------|--------|--------|--------|--------|--------|--------|--------|--------|
F|--------|--------|--------|--------|--------|--------|--------|--------|--------|
C|--------|--------|--------|--------|--------|--------|--------|--------|--------|
G|--------|--------|--------|--------|--------|--------|--------|--------|--------|
D|--------|--------|--------|--------|--------|--------|--------|--------|--------|


D|--------|--------|--------|--------|--------|--------|--------|--------|--------|
A|--------|--------|--------|--------|--------|--------|--------|--------|--------|
F|--------|--------|--------|--------|--------|--------|--------|--------|--------|
C|--------|--------|--------|--------|--------|--------|--------|--------|--------|
G|--------|--------|--------|--------|--------|--------|--------|--------|--------|
D|--------|--------|--------|--------|--------|--------|--------|--------|--------|


D|--------|--------|--------|--------|--------|--------|--------|--------|--------|
A|--------|--------|--------|--------|--------|--------|--------|--------|--------|
F|--------|--------|--------|--------|--------|--------|--------|--------|--------|
C|--------|--------|--------|--------|--------|--------|--------|--------|--------|
G|--------|--------|--------|--------|--------|--------|--------|--------|--------|
D|--------|--------|--------|--------|--------|--------|--------|--------|--------|


D|--------|--------|--------|--------|--------|--------|--------|--------|--------|
A|--------|--------|--------|--------|--------|--------|--------|--------|--------|
F|--------|--------|--------|--------|--------|--------|--------|--------|--------|
C|--------|--------|--------|--------|--------|--------|--------|--------|--------|
G|--------|--------|--------|--------|--------|--------|--------|--------|--------|
D|--------|--------|--------|--------|--------|--------|--------|--------|--------|


D|--------|--------|--------|--------|--------|--------|--------|--------|--------|
A|--------|--------|--------|--------|--------|--------|--------|--------|--------|
F|--------|--------|--------|--------|--------|--------|--------|--------|--------|
C|--------|--------|--------|--------|--------|--------|--------|--------|--------|
G|--------|--------|--------|--------|--------|--------|--------|--------|--------|
D|--------|--------|--------|--------|--------|--------|--------|--------|--------|


D|--------|--------|--------|--------|--------|--------|--------|--------|--------|
A|--------|--------|--------|--------|--------|--------|--------|--------|--------|
F|--------|--------|--------|--------|--------|--------|--------|--------|--------|
C|--------|--------|--------|--------|--------|--------|--------|--------|--------|
G|--------|--------|--------|--------|--------|--------|--------|--------|--------|
D|--------|--------|--------|--------|--------|--------|--------|--------|--------|


D|--------|--------|--------|--------|--------|--------|--------|--------|--------|
A|--------|--------|--------|--------|--------|--------|--------|--------|--------|
F|--------|--------|--------|--------|--------|--------|--------|--------|--------|
C|--------|--------|--------|--------|--------|--------|--------|--------|--------|
G|--------|--------|--------|--------|--------|--------|--------|--------|--------|
D|--------|--------|--------|--------|--------|--------|--------|--------|--------|


D|--------|--------|--------|--------|--------|--------|--------|--------|--------|
A|--------|--------|--------|--------|--------|--------|--------|--------|--------|
F|--------|--------|--------|--------|--------|--------|--------|--------|--------|
C|--------|--------|--------|--------|--------|--------|--------|--------|--------|
G|--------|--------|--------|--------|--------|--------|--------|--------|--------|
D|--------|--------|--------|--------|--------|--------|--------|--------|--------|


D|--------|--------|--------|--------|--------|--------|--------|--------|--------|
A|--------|--------|--------|--------|--------|--------|--------|--------|--------|
F|--------|--------|--------|--------|--------|--------|--------|--------|--------|
C|--------|--------|--------|--------|--------|--------|--------|--------|--------|
G|--------|--------|--------|--------|--------|--------|--------|--------|--------|
D|--------|--------|--------|--------|--------|--------|--------|--------|--------|


D|--------|--------|--------|--------|--------|--------|--------|--------|--------|
A|--------|--------|--------|--------|--------|--------|--------|--------|--------|
F|--------|--------|--------|--------|--------|--------|--------|--------|--------|
C|--------|--------|--------|--------|--------|--------|--------|--------|--------|
G|--------|--------|--------|--------|--------|--------|--------|--------|--------|
D|--------|--------|--------|--------|--------|--------|--------|--------|--------|


D|--------|--------|--------|--------|--------|--------|--------|--------|--------|
A|--------|--------|--------|--------|--------|--------|--------|--------|--------|
F|--------|--------|--------|--------|--------|--------|--------|--------|--------|
C|--------|--------|--------|--------|--------|--------|--------|--------|--------|
G|--------|--------|--------|--------|--------|--------|--------|--------|--------|
D|--------|--------|--------|--------|--------|--------|--------|--------|--------|


D|--------|--------|--------|--------|--------|--------|--------|--------|--------|
A|--------|--------|--------|--------|--------|--------|--------|--------|--------|
F|--------|--------|--------|--------|--------|--------|--------|--------|--------|
C|--------|--------|--------|--------|--------|--------|--------|--------|--------|
G|--------|--------|--------|--------|--------|--------|--------|--------|--------|
D|--------|--------|--------|--------|--------|--------|--------|--------|--------|


D|--------|--------|--------|--------|--------|--------|--------|--------|--------|
A|--------|--------|--------|--------|--------|--------|--------|--------|--------|
F|--------|--------|--------|--------|--------|--------|--------|--------|--------|
C|--------|--------|--------|--------|--------|--------|--------|--------|--------|
G|--------|--------|--------|--------|--------|--------|--------|--------|--------|
D|--------|--------|--------|--------|--------|--------|--------|--------|--------|


D|--------|--------|--------|--------|--------|--------|--------|--------|--------|
A|--------|--------|--------|--------|--------|--------|--------|--------|--------|
F|--------|--------|--------|--------|--------|--------|--------|--------|--------|
C|--------|--------|--------|--------|--------|--------|--------|--------|--------|
G|--------|--------|--------|--------|--------|--------|--------|--------|--------|
D|--------|--------|--------|--------|--------|--------|--------|--------|--------|


D|--------|--------|--------|--------|--------|--------|--------|--------|--------|
A|--------|--------|--------|--------|--------|--------|--------|--------|--------|
F|--------|--------|--------|--------|--------|--------|--------|--------|--------|
C|--------|--------|--------|--------|--------|--------|--------|--------|--------|
G|--------|--------|--------|--------|--------|--------|--------|--------|--------|
D|--------|--------|--------|--------|--------|--------|--------|--------|--------|


D|--------|--------|--------|--------|--------|--------|--------|--------|--------|
A|--------|--------|--------|--------|--------|--------|--------|--------|--------|
F|--------|--------|--------|--------|--------|--------|--------|--------|--------|
C|--------|--------|--------|--------|--------|--------|--------|--------|--------|
G|--------|--------|--------|--------|--------|--------|--------|--------|--------|
D|--------|--------|--------|--------|--------|--------|--------|--------|--------|


D|--------|--------|--------|--------|--------|--------|--------|--------|--------|
A|--------|--------|--------|--------|--------|--------|--------|--------|--------|
F|--------|--------|--------|--------|--------|--------|--------|--------|--------|
C|--------|--------|--------|--------|--------|--------|--------|--------|--------|
G|--------|--------|--------|--------|--------|--------|--------|--------|--------|
D|--------|--------|--------|--------|--------|--------|--------|--------|--------|


D|--------|--------|--------|--------|--------|--------|--------|--------|--------|
A|--------|--------|--------|--------|--------|--------|--------|--------|--------|
F|--------|--------|--------|--------|--------|--------|--------|--------|--------|
C|--------|--------|--------|--------|--------|--------|--------|--------|--------|
G|--------|--------|--------|--------|--------|--------|--------|--------|--------|
D|--------|--------|--------|--------|--------|--------|--------|--------|--------|


D|--------|--------|--------|--------|--------|--------|--------|--------|--------|
A|--------|--------|--------|--------|--------|--------|--------|--------|--------|
F|--------|--------|--------|--------|--------|--------|--------|--------|--------|
C|--------|--------|--------|--------|--------|--------|--------|--------|--------|
G|--------|--------|--------|--------|--------|--------|--------|--------|--------|
D|--------|--------|--------|--------|--------|--------|--------|--------|--------|


D|--------|--------20----17-----------------------------|--------|--------|--------|
A|--------|--------------------19----16----13----10-----|--------|--------|--------|
F|--------|-----17----14--------------------------------|--------|--------|--------|
C|--------|-----------------16----13----10----7---------|--------|--------|--------|
G|--------|-----15----12--------------------------------|--------|--------|--------|
D|--------|-----------------14----11----8-----5---------|--------|--------|--------|


D|--------|--------|--------|--------|--------|--------|--------|--------|--------|
A|--------|--------|--------|--------|--------|--------|--------|--------|--------|
F|--------|--------|--------|--------|--------|--------|--------|--------|--------|
C|--------|--------|--------|--------|--------|--------|--------|--------|--------|
G|--------|--------|--------|--------|--------|--------|--------|--------|--------|
D|--------|--------|--------|--------|--------|--------|--------|--------|--------|


D|--------|--------|--------|--------|--------|--------|--------|--------|--------|
A|--------|--------|--------|--------|--------|--------|--------|--------|--------|
F|--------|--------|--------|--------|--------|--------|--------|--------|--------|
C|--------|--------|--------|--------|--------|--------|--------|--------|--------|
G|--------|--------|--------|--------|--------|--------|--------|--------|--------|
D|--------|--------|--------|--------|--------|--------|--------|--------|--------|


D|--------|--------|--------|--------|--------|--------|--------|--------|--------|
A|--------|--------|--------|--------|--------|--------|--------|--------|--------|
F|--------|--------|--------|--------|--------|--------|--------|--------|--------|
C|--------|--------|--------|--------|--------|--------|--------|--------|--------|
G|--------|--------|--------|--------|--------|--------|--------|--------|--------|
D|--------|--------|--------|--------|--------|--------|--------|--------|--------|


D|--------|--------|--------|--------|--------|--------|--------|--------|--------|
A|--------|--------|--------|--------|--------|--------|--------|--------|--------|
F|--------|--------|--------|--------|--------|--------|--------|--------|--------|
C|--------|--------|--------|--------|--------|--------|--------|--------|--------|
G|--------|--------|--------|--------|--------|--------|--------|--------|--------|
D|--------|--------|--------|--------|--------|--------|--------|--------|--------|


D|--------|--------|--------|--------|--------|--------|--------|--------|--------|
A|--------|--------|--------|--------|--------|--------|--------|--------|--------|
F|--------|--------|--------|--------|--------|--------|--------|--------|--------|
C|--------|--------|--------|--------|--------|--------|--------|--------|--------|
G|--------|--------|--------|--------|--------|--------|--------|--------|--------|
D|--------|--------|--------|--------|--------|--------|--------|--------|--------|


D|--------|--------|--------|--------|--------|--------|--------|--------|--------|
A|--------|--------|--------|--------|--------|--------|--------|--------|--------|
F|--------|--------|--------|--------|--------|--------|--------|--------|--------|
C|--------|--------|--------|--------|--------|--------|--------|--------|--------|
G|--------|--------|--------|--------|--------|--------|--------|--------|--------|
D|--------|--------|--------|--------|--------|--------|--------|--------|--------|


D|--------|--------|--------|--------|--------|--------|--------|--------|--------|
A|--------|--------|--------|--------|--------|--------|--------|--------|--------|
F|--------|--------|--------|--------|--------|--------|--------|--------|--------|
C|--------|--------|--------|--------|--------|--------|--------|--------|--------|
G|--------|--------|--------|--------|--------|--------|--------|--------|--------|
D|--------|--------|--------|--------|--------|--------|--------|--------|--------|


D|--------|--------|--------|--------|--------|--------|--------|--------|--------|
A|--------|--------|--------|--------|--------|--------|--------|--------|--------|
F|--------|--------|--------|--------|--------|--------|--------|--------|--------|
C|--------|--------|--------|--------|--------|--------|--------|--------|--------|
G|--------|--------|--------|--------|--------|--------|--------|--------|--------|
D|--------|--------|--------|--------|--------|--------|--------|--------|--------|


D|--------|--------|--------|--------|--------|--------|--------|--------|--------|
A|--------|--------|--------|--------|--------|--------|--------|--------|--------|
F|--------|--------|--------|--------|--------|--------|--------|--------|--------|
C|--------|--------|--------|--------|--------|--------|--------|--------|--------|
G|--------|--------|--------|--------|--------|--------|--------|--------|--------|
D|--------|--------|--------|--------|--------|--------|--------|--------|--------|


D|--------|--------|--------|--------|--------|--------|--------|--------|--------|
A|--------|--------|--------|--------|--------|--------|--------|--------|--------|
F|--------|--------|--------|--------|--------|--------|--------|--------|--------|
C|--------|--------|--------|--------|--------|--------|--------|--------|--------|
G|--------|--------|--------|--------|--------|--------|--------|--------|--------|
D|--------|--------|--------|--------|--------|--------|--------|--------|--------|


D|--------|--------|--------|--------|--------|--------|--------|--------|--------|
A|--------|--------|--------|--------|--------|--------|--------|--------|--------|
F|--------|--------|--------|--------|--------|--------|--------|--------|--------|
C|--------|--------|--------|--------|--------|--------|--------|--------|--------|
G|--------|--------|--------|--------|--------|--------|--------|--------|--------|
D|--------|--------|--------|--------|--------|--------|--------|--------|--------|


D|--------|--------|--------|--------|--------|--------|--------|--------|--------|
A|--------|--------|--------|--------|--------|--------|--------|--------|--------|
F|--------|--------|--------|--------|--------|--------|--------|--------|--------|
C|--------|--------|--------|--------|--------|--------|--------|--------|--------|
G|--------|--------|--------|--------|--------|--------|--------|--------|--------|
D|--------|--------|--------|--------|--------|--------|--------|--------|--------|


D|--------|--------|--------|--------|--------|--------|--------|--------|--------|
A|--------|--------|--------|--------|--------|--------|--------|--------|--------|
F|--------|--------|--------|--------|--------|--------|--------|--------|--------|
C|--------|--------|--------|--------|--------|--------|--------|--------|--------|
G|--------|--------|--------|--------|--------|--------|--------|--------|--------|
D|--------|--------|--------|--------|--------|--------|--------|--------|--------|


D|--------|--------|--------|--------|--------|--------|--------|--------|--------|
A|--------|--------|--------|--------|--------|--------|--------|--------|--------|
F|--------|--------|--------|--------|--------|--------|--------|--------|--------|
C|--------|--------|--------|--------|--------|--------|--------|--------|--------|
G|--------|--------|--------|--------|--------|--------|--------|--------|--------|
D|--------|--------|--------|--------|--------|--------|--------|--------|--------|


D|--------|--------|--------|--------|--------|--------|--------|--------|--------|
A|--------|--------|--------|--------|--------|--------|--------|--------|--------|
F|--------|--------|--------|--------|--------|--------|--------|--------|--------|
C|--------|--------|--------|--------|--------|--------|--------|--------|--------|
G|--------|--------|--------|--------|--------|--------|--------|--------|--------|
D|--------|--------|--------|--------|--------|--------|--------|--------|--------|


D|--------|--------|--------|--------|--------|--------|--------|--------|--------|
A|--------|--------|--------|--------|--------|--------|--------|--------|--------|
F|--------|--------|--------|--------|--------|--------|--------|--------|--------|
C|--------|--------|--------|--------|--------|--------|--------|--------|--------|
G|--------|--------|--------|--------|--------|--------|--------|--------|--------|
D|--------|--------|--------|--------|--------|--------|--------|--------|--------|


D|--------|--------|--------|--------|--------|--------|--------|--------|--------|
A|--------|--------|--------|--------|--------|--------|--------|--------|--------|
F|--------|--------|--------|--------|--------|--------|--------|--------|--------|
C|--------|--------|--------|--------|--------|--------|--------|--------|--------|
G|--------|--------|--------|--------|--------|--------|--------|--------|--------|
D|--------|--------|--------|--------|--------|--------|--------|--------|--------|


D|--------|--------|--------|--------|--------|--------|--------|--------|--------|
A|--------|--------|--------|--------|--------|--------|--------|--------|--------|
F|--------|--------|--------|--------|--------|--------|--------|--------|--------|
C|--------|--------|--------|--------|--------|--------|--------|--------|--------|
G|--------|--------|--------|--------|--------|--------|--------|--------|--------|
D|--------|--------|--------|--------|--------|--------|--------|--------|--------|


D|--------|--------|--------|--------|--------|--------|--------|--------|--------|
A|--------|--------|--------|--------|--------|--------|--------|--------|--------|
F|--------|--------|--------|--------|--------|--------|--------|--------|--------|
C|--------|--------|--------|--------|--------|--------|--------|--------|--------|
G|--------|--------|--------|--------|--------|--------|--------|--------|--------|
D|--------|--------|--------|--------|--------|--------|--------|--------|--------|


D|--------|--------|--------|--------|--------|--------|--------|--------|--------|
A|--------|--------|--------|--------|--------|--------|--------|--------|--------|
F|--------|--------|--------|--------|--------|--------|--------|--------|--------|
C|--------|--------|--------|--------|--------|--------|--------|--------|--------|
G|--------|--------|--------|--------|--------|--------|--------|--------|--------|
D|--------|--------|--------|--------|--------|--------|--------|--------|--------|


D|--------|--------|--------|--------|--------|--------|--------|--------|--------|
A|--------|--------|--------|--------|--------|--------|--------|--------|--------|
F|--------|--------|--------|--------|--------|--------|--------|--------|--------|
C|--------|--------|--------|--------|--------|--------|--------|--------|--------|
G|--------|--------|--------|--------|--------|--------|--------|--------|--------|
D|--------|--------|--------|--------|--------|--------|--------|--------|--------|


D|--------|--------|--------|--------|--------|--------|--------|--------|--------|
A|--------|--------|--------|--------|--------|--------|--------|--------|--------|
F|--------|--------|--------|--------|--------|--------|--------|--------|--------|
C|--------|--------|--------|--------|--------|--------|--------|--------|--------|
G|--------|--------|--------|--------|--------|--------|--------|--------|--------|
D|--------|--------|--------|--------|--------|--------|--------|--------|--------|


D|--------|--------|--------|--------|--------|
A|--------|--------|--------|--------|--------|
F|--------|--------|--------|--------|--------|
C|--------|--------|--------|--------|--------|
G|--------|--------|--------|--------|--------|
D|--------|--------|--------|--------|--------|





Track 10: bass

F|--------|--------|--------|-------------|--------------------|--------------------|
C|--------|--------|--------|-------------|------10--9---------|----------9---10----|
G|--------|--------|--------|-------10----|-9------------7-----|------7-------------|
D|--------|--------|--------|-------------|--------------------|--------------------|


F|------16--14--16----|--------------------|---------------------------|------------------------|
C|-12---17--16--17----|--------------------|-5-----4-------7-----------|------------------------|
G|--------------------|--------------3-----|-----------6-------7---6---|------------------------|
D|--------------0-----|------0---3---------|---------------------------|-8---7---0-----0---0----|


F|------------------------|---------------------|------------------------|---------------------------|
C|------------------------|---------------------|------------------------|---------------------------|
G|------------------------|---------------------|------------------------|---------------------------|
D|-----0---8-----8---9----|-7----0-----0---0----|-----0---8----8----3----|-----3---2----8---7---0----|


F|------------------------|---------------------------|------------------------|---------------------|
C|------------------------|---------------------------|------------------------|---------------------|
G|------------------------|---------------------------|------------------------|---------------------|
D|-----0---0-----0---8----|-----8---8--10---10---0----|-----0---0-----0---8----|-8----3-----3---7----|


F|---------------------------|---------------------|---------------------|---------------------|
C|---------------------------|---------------------|---------------------|---------------------|
G|---------------------------|---------------------|---------------------|---------------------|
D|-----7---8---7---0-----0---|-0-----0---8-----8---|-9----7----0-----0---|-0-----0---8----8----|


F|------------------------|---------------------|------------------------|---------------------|
C|------------------------|---------------------|------------------------|---------------------|
G|------------------------|---------------------|------------------------|---------------------|
D|-3-----3---2----8---7---|-0-----0---0-----0---|-8-----8---8--10---10---|-0-----0---0-----0---|


F|---------------------|------------------------|------------------------|------------------------|
C|---------------------|------------------------|------------------------|------------------------|
G|---------------------|------------------------|------------------------|------------------------|
D|-8----8----3-----3---|-7-----7---8---7---0----|-----0---0-----0---8----|-----8---9----7----0----|


F|------------------------|---------------------|------------------------|---------------------------|
C|------------------------|---------------------|------------------------|---------------------------|
G|------------------------|---------------------|------------------------|---------------------------|
D|-----0---0-----0---8----|-8----3-----3---2----|-8---7---0-----0---0----|-----0---8-----8---8--10---|


F|---------------------|------------------------|---------------------------|---------------------|
C|---------------------|------------------------|---------------------------|---------------------|
G|---------------------|------------------------|---------------------------|-0-----0---12---12---|
D|-10---0-----0---0----|-----0---8----8----3----|-----3---7-----7---8---7---|---------------------|


F|---------------------|------------------------------|---------------------|------------------------|
C|---------------------|------------------------------|-----------6-----6---|-6---6---7-----7--------|
G|-9-----9---8----8----|-0---12---12--14--12--12------|---------------------|-------------------12---|
D|---------------------|--------------------------12--|-10----10------------|------------------------|


F|---------------------|---------------------------|------------------------|------------------------------|
C|---------------------|---------------------------|------------------------|------------------------------|
G|-12---9-----9---10---|-10---0---12---12--14--12--|-12--10--9-----9---8----|-8----3---3---3---3---5---5---|
D|---------------------|---------------------------|------------------------|------------------------------|


F|-------------------------------------|-------------------------------------|---------------------------------------|
C|-------------------------------------|-------------------------------------|---------------------------------------|
G|-5---5-------------------------------|-------------------------------2--3--|-2-------------------------------------|
D|---------0----0--3--5--0---0---3--5--|-0-------0----0--3--5--0---0---------|-----2---0----0--3--5--0---0--0--3--5--|


F|---------------------------------------|-----------------------------------------|
C|---------------------------------------|-----------------------------------------|
G|---------------------------3--3--3--3--|-5--5--5--5------------------------------|
D|-0-------0----0--3--5--0---------------|-------------0----0--3--5--0---0---3--5--|


F|-------------------------------------|---------------------------------------|---------------------------------------|
C|-------------------------------------|---------------------------------------|---------------------------------------|
G|-------------------------------2--3--|-2-------------------------------------|---------------------------3--3--3--3--|
D|-0-------0----0--3--5--0---0---------|-----2---0----0--3--5--0---0--0--3--5--|-0-------0----0--3--5--0---------------|


F|--------------------|-------------|-------------|--------------------|-------------|
C|--------------------|-------------|-------------|--------------------|-------------|
G|-5--5--5--5---------|-------------|-------------|---------------6----|-------------|
D|-------------0------|------2------|------5------|-5---7---8----------|------0------|


F|-------------|-------------|--------------------|---------------------|------------------------|
C|-------------|-------------|--------------------|---------------------|------------------------|
G|-------------|-------------|---------------6----|---------------------|------------------------|
D|------2------|------5------|-5---7---8----------|------0-----0---0----|-----0---8-----8---9----|


F|---------------------|------------------------|---------------------------|------------------------|
C|---------------------|------------------------|---------------------------|------------------------|
G|---------------------|------------------------|---------------------------|------------------------|
D|-7----0-----0---0----|-----0---8----8----3----|-----3---2----8---7---0----|-----0---0-----0---8----|


F|---------------------------|------------------------|---------------------|---------------------------|
C|---------------------------|------------------------|---------------------|---------------------------|
G|---------------------------|------------------------|---------------------|---------------------------|
D|-----8---8--10---10---0----|-----0---0-----0---8----|-8----3-----3---7----|-----7---8---7---0-----0---|


F|---------------------|---------------------|---------------------|------------------------|
C|---------------------|---------------------|---------------------|------------------------|
G|---------------------|---------------------|---------------------|------------------------|
D|-0-----0---8-----8---|-9----7----0-----0---|-0-----0---8----8----|-3-----3---2----8---7---|


F|---------------------|-------------------------------|---------------------|---------------------------------|
C|---------------------|-------------------------------|---------------------|---------------------------------|
G|---------------------|-------------------------------|---------------------|---------------------------------|
D|-0-----0---0-----0---|-8-----8--8--8--10-10--10--10--|-0-----0---0-----0---|-8---8---8---8---3---3---3---3---|


F|------------------------------|------------------------|---------------------------|
C|------------------------------|------------------------|---------------------------|
G|-------------------------0----|-----0---12---12---9----|-----9---8----8----0---12--|
D|-7---7---7---7---8---7--------|------------------------|---------------------------|


F|------------------------------|-----------------------------|---------------------|
C|------------------------------|---------6-----6--6--6---6---|-7-----7-------------|
G|-----12--14--12--12-----------|-----------------------------|-----------12---12---|
D|---------------------12--10---|-----10----------------------|---------------------|


F|---------------------|------------------------------|-----------------------------|
C|---------------------|------------------------------|-----------------------------|
G|-9-----9---10---10---|-0---12---12--14--12--12--10--|-9-----9---8---8--8--8---8---|
D|---------------------|------------------------------|-----------------------------|


F|-------------------------------------|-------------------------------------|---------------------------------------|
C|-------------------------------------|-------------------------------------|---------------------------------------|
G|-3---3--3--3---3---5---5--5--5---5---|-------------------------------------|-------------------------2--3--2-------|
D|-------------------------------------|-0----0--3--5--0---0---3--5--0-------|-0----0--3--5--0---0--0------------2---|


F|-------------------------------------|-------------------------------------------|
C|-------------------------------------|-------------------------------------------|
G|-------------------------------------|-------------------3--3--3--3--5--5--5--5--|
D|-0----0--3--5--0---0---3--5--0-------|-0----0--3--5--0---------------------------|


F|-------------------------------------|---------------------------------------|-------------------------------------|
C|-------------------------------------|---------------------------------------|-------------------------------------|
G|-------------------------------------|-------------------------2--3--2-------|-------------------------------------|
D|-0----0--3--5--0---0---3--5--0-------|-0----0--3--5--0---0--0------------2---|-0----0--3--5--0---0---3--5--0-------|


F|-------------------------------------------|-------------------------------------|
C|-------------------------------------------|-------------------------------------|
G|-------------------3--3--3--3--5--5--5--5--|-------------------------------------|
D|-0----0--3--5--0---------------------------|-0----0--3--5--0---0---3--5--0-------|


F|---------------------------------------|-------------------------------------|-------------------------------------------|
C|---------------------------------------|-------------------------------------|-------------------------------------------|
G|-------------------------2--3--2-------|-------------------------------------|-------------------3--3--3--3--5--5--5--5--|
D|-0----0--3--5--0---0--0------------2---|-0----0--3--5--0---0---3--5--0-------|-0----0--3--5--0---------------------------|


F|-------------------------------------|---------------------------------------|-------------------------------------|
C|-------------------------------------|---------------------------------------|-------------------------------------|
G|-------------------------------------|-------------------------2--3--2-------|-------------------------------------|
D|-0----0--3--5--0---0---3--5--0-------|-0----0--3--5--0---0--0------------2---|-0----0--3--5--0---0---3--5--0-------|


F|-------------------------------------------|--------|--------|--------|--------|
C|-------------------------------------------|--------|--------|--------|--------|
G|-------------------3---3-3--3--5---5---5---|--------|--------|--------|--------|
D|-0----0--3--5--0---------------------------|-0------|-0------|-0------|-0------|


F|-----------------|------------------------|-----------------|------------------------|
C|-----------------|------------------------|-----------------|------------------------|
G|-----------------|------------------------|-----------------|------------------------|
D|-12---12---------|-------12--12--12--12---|-------0---------|-------0--0--0--0--12---|


F|--------|--------|----------------------------------|----------------------------------|
C|--------|--------|----------------------------------|----------------------------------|
G|--------|--------|-------------------3--------------|-----------------------------1----|
D|--------|--------|-3--2--0---0---0--------3--2--0---|-3--2--0---0---0---3--2--0--------|


F|----------------------------------|----------------------------------|----------------------------------|
C|----------------------------------|----------------------------------|----------------------------------|
G|-------------------3--------------|-----------------------------1----|-------------------3--------------|
D|-3--2--0---0---0--------3--2--0---|-3--2--0---0---0---3--2--0--------|-3--2--0---0---0--------3--2--0---|


F|----------------------------------|----------------------------------|----------------------------------|
C|----------------------------------|----------------------------------|----------------------------------|
G|-----------------------------1----|-------------------3--------------|-----------------------------1----|
D|-3--2--0---0---0---3--2--0--------|-3--2--0---0---0--------3--2--0---|-3--2--0---0---0---3--2--0--------|


F|----------------------------------|----------------------------------|----------------------------------|
C|----------------------------------|----------------------------------|----------------------------------|
G|-------------------3--------------|-----------------------------1----|-------------------3--------------|
D|-3--2--0---0---0--------3--2--0---|-3--2--0---0---0---3--2--0--------|-3--2--0---0---0--------3--2--0---|


F|----------------------------------|----------------------------------|----------------------------------|
C|----------------------------------|----------------------------------|----------------------------------|
G|-----------------------------1----|-------------------3--------------|-----------------------------1----|
D|-3--2--0---0---0---3--2--0--------|-3--2--0---0---0--------3--2--0---|-3--2--0---0---0---3--2--0--------|


F|----------------------------------|----------------------------------|--------------------------------|
C|----------------------------------|----------------------------------|--------------------------------|
G|-------------------3--------------|-----------------------------1----|---------------------------3----|
D|-3--2--0---0---0--------3--2--0---|-3--2--0---0---0---3--2--0--------|-2---2---5--3--2---2---2--------|


F|-------------------------------|--------------------------------|----------------------------------|
C|-------------------------------|--------------------------------|----------------------------------|
G|---------------------3----1----|---------------------------3----|---------------------3---2---1----|
D|-2---2---5--4--3--2------------|-2---2---5--3--2---2---2--------|-2---2---5--4--3--2---------------|


F|--------------------------------|-------------------------------|--------------------------------|
C|--------------------------------|-------------------------------|--------------------------------|
G|---------------------------3----|---------------------3----1----|---------------------------3----|
D|-2---2---5--3--2---2---2--------|-2---2---5--4--3--2------------|-2---2---5--3--2---2---2--------|


F|----------------------------------|---------------------------------|------------------------------|
C|----------------------------------|-----2---------------------------|------------------------------|
G|---------------------3---2---1----|---------------------5-----------|-3-------5---6---7-------3----|
D|-2---2---5--4--3--2---------------|-5-------5---3---2-------2---1---|-----1---------------3--------|


F|-----9---------------7-----------|-----8-------9-------------------|---------------------------------|
C|-7-------7-----------------------|-7-------9-----------------------|-2-------------------------------|
G|-------------10--9-------5---6---|-------------------------2-------|-----------------5-----------3---|
D|---------------------------------|-----------------0---1-------5---|-----5---3---2-------2---1-------|


F|------------------------------|-9---------------7---------------|-8-------9-----------------------|
C|--------------------------7---|-----7-----------------------7---|-----9---------------------------|
G|-----5---6---7-------3--------|---------10--9-------5---6-------|---------------------2---0---2---|
D|-1---------------3------------|---------------------------------|-------------0---1---------------|


F|---------------------------------|----------------11--11-------------|---------------------------------|
C|-5---4-----------7-----------9---|-7-----------10----------------12--|-10----------14----------16--14--|
G|---------0---3-------0-----------|-----0---7-------------0---9-------|-----0---10------0---12----------|
D|-------------------------8-------|-----------------------------------|---------------------------------|


F|------------17--17-----------------|---------------------------------|--------11--11---------------------|
C|---------16----------------5---4---|---------7-----------9---7-------|-----10----------------12--10------|
G|-0---15------------0---2-----------|-0---3-------0---------------0---|-7-------------0---9-----------0---|
D|-----------------------------------|-----------------8---------------|-----------------------------------|


F|---------------------------------|----17--17-------------------------|---------------------------------|
C|-----14----------16--14----------|-16--------6---7-------7---8---9---|-----9---10------10--11--12------|
G|-10------0---12----------0---15--|-------------------6---------------|-8-----------9---------------11--|
D|---------------------------------|-----------------------------------|---------------------------------|


F|-----------------------------------|---------------------8---10------|-----------------|
C|-----13----------------------------|---------6---8---10--------------|-----------------|
G|---------12-----0------------------|-6---7---------------------------|-----------------|
D|-10----------11--------4---6---8---|---------------------------------|-----------------|


F|--------------|-----------------------------------|-------------------------------------|
C|--------------|-------------------------------10--|-------------------------10------8---|
G|--------------|-----9---9---12-10-9---9---9-------|-----9---9---12-11-10-9------9-------|
D|--------------|-----------------------------------|-------------------------------------|


F|-----------------------------------|-------------------------------------|-----------------------------------|
C|-------------------------------10--|-------------------------10--9---8---|-----------------------------------|
G|-----9---9---12-10-9---9---9-------|-----9---9---12-11-10-9--------------|-------------------------------3---|
D|-----------------------------------|-------------------------------------|-----2---2---5--3--2---2---2-------|


F|----------------------------------|-----------------------------------|-------------------------------------|
C|----------------------------------|-----------------------------------|-------------------------------------|
G|-------------------------3----1---|-------------------------------3---|-------------------------3---2---1---|
D|-----2---2---5--4--3--2-----------|-----2---2---5--3--2---2---2-------|-----2---2---5--4--3--2--------------|


F|------------|------------|------------|------------------|----------------------------------|
C|------------|------------|------------|------------------|----------------------------------|
G|------------|------------|------------|------------------|-------------3--------------------|
D|------------|------------|------------|------------3--2--|-0---0---0--------3--2--0---3--2--|


F|----------------------------------|----------------------------------|----------------------------------|
C|----------------------------------|----------------------------------|----------------------------------|
G|-----------------------1----------|-------------3--------------------|-----------------------1----------|
D|-0---0---0---3--2--0--------3--2--|-0---0---0--------3--2--0---3--2--|-0---0---0---3--2--0--------3--2--|


F|----------------------------------|----------------------------------|----------------------------------|
C|----------------------------------|----------------------------------|----------------------------------|
G|-------------3--------------------|-----------------------1----------|-------------3--------------------|
D|-0---0---0--------3--2--0---3--2--|-0---0---0---3--2--0--------3--2--|-0---0---0--------3--2--0---3--2--|


F|--------------------------------|--------------------------------|-------------------------------|
C|--------------------------------|--------------------------------|-------------------------------|
G|-----------------------1--------|-----------------------3--------|-----------------3----1--------|
D|-0---0---0---3--2--0--------2---|-2---5--3--2---2---2--------2---|-2---5--4--3--2------------2---|


F|--------------------------------|----------------------------------|--------------------------------|
C|--------------------------------|----------------------------------|--------------------------------|
G|-----------------------3--------|-----------------3---2---1--------|-----------------------3--------|
D|-2---5--3--2---2---2--------2---|-2---5--4--3--2---------------2---|-2---5--3--2---2---2--------2---|


F|-------------------------------|--------------------------------|------------------------------------|
C|-------------------------------|--------------------------------|------------------------------------|
G|-----------------3----1--------|-----------------------3--------|-----------------3---2---1----------|
D|-2---5--4--3--2------------2---|-2---5--3--2---2---2--------2---|-2---5--4--3--2---------------3--2--|


F|----------------------------------|----------------------------------|----------------------------------|
C|----------------------------------|----------------------------------|----------------------------------|
G|-------------3--------------------|-----------------------1----------|-------------3--------------------|
D|-0---0---0--------3--2--0---3--2--|-0---0---0---3--2--0--------3--2--|-0---0---0--------3--2--0---3--2--|


F|----------------------------------|----------------------------------|----------------------------------|
C|----------------------------------|----------------------------------|----------------------------------|
G|-----------------------1----------|-------------3--------------------|-----------------------1----------|
D|-0---0---0---3--2--0--------3--2--|-0---0---0--------3--2--0---3--2--|-0---0---0---3--2--0--------3--2--|


F|----------------------------------|--------------------------------|--------------------------------|
C|----------------------------------|--------------------------------|--------------------------------|
G|-------------3--------------------|-----------------------1--------|-----------------------3--------|
D|-0---0---0--------3--2--0---3--2--|-0---0---0---3--2--0--------2---|-2---5--3--2---2---2--------2---|


F|-------------------------------|--------------------------------|----------------------------------|
C|-------------------------------|--------------------------------|----------------------------------|
G|-----------------3----1--------|-----------------------3--------|-----------------3---2---1--------|
D|-2---5--4--3--2------------2---|-2---5--3--2---2---2--------2---|-2---5--4--3--2---------------2---|


F|--------------------------------|-------------------------------|--------------------------------|
C|--------------------------------|-------------------------------|--------------------------------|
G|-----------------------3--------|-----------------3----1--------|-----------------------3--------|
D|-2---5--3--2---2---2--------2---|-2---5--4--3--2------------2---|-2---5--3--2---2---2--------2---|


F|------------------------------------|----------------------------------|----------------------------------|
C|------------------------------------|----------------------------------|----------------------------------|
G|-----------------3---2---1----------|-------------3--------------------|-----------------------1----------|
D|-2---5--4--3--2---------------3--2--|-0---0---0--------3--2--0---3--2--|-0---0---0---3--2--0--------3--2--|


F|----------------------------------|----------------------------------|----------------------------------|
C|----------------------------------|----------------------------------|----------------------------------|
G|-------------3--------------------|-----------------------1----------|-------------3--------------------|
D|-0---0---0--------3--2--0---3--2--|-0---0---0---3--2--0--------3--2--|-0---0---0--------3--2--0---3--2--|


F|----------------------------------|----------------------------------|--------------------------------|
C|----------------------------------|----------------------------------|--------------------------------|
G|-----------------------1----------|-------------3--------------------|-----------------------1--------|
D|-0---0---0---3--2--0--------3--2--|-0---0---0--------3--2--0---3--2--|-0---0---0---3--2--0--------2---|


F|--------------------------------|-------------------------------|--------------------------------|
C|--------------------------------|-------------------------------|--------------------------------|
G|-----------------------3--------|-----------------3----1--------|-----------------------3--------|
D|-2---5--3--2---2---2--------2---|-2---5--4--3--2------------2---|-2---5--3--2---2---2--------2---|


F|----------------------------------|--------------------------------|-------------------------------|
C|----------------------------------|--------------------------------|-------------------------------|
G|-----------------3---2---1--------|-----------------------3--------|-----------------3----1--------|
D|-2---5--4--3--2---------------2---|-2---5--3--2---2---2--------2---|-2---5--4--3--2------------2---|


F|--------------------------------|----------------------------------|---------------------------|
C|--------------------------------|----------------------------------|---------------------------|
G|-----------------------3--------|-----------------3---2---1--------|---------------------------|
D|-2---5--3--2---2---2--------2---|-2---5--4--3--2---------------0---|-------------------0---0---|


F|------------------------|---------------------------|------------------------|-------------------------------------------------|
C|------------------------|---------------------------|------------------------|-------------------------------------------------|
G|------------------------|---------------------------|------------------------|-------------------------------------------------|
D|--------------------0---|-------------------0---12--|-0--0--12---------2--2--|-2--2--2--2--2--2--2--2--2--2--2--2--2--2--2--2--|


F|-------------------------------------------------|-------------------------------------------------|
C|-------------------------------------------------|-------------------------------------------------|
G|-------------------------------------------------|-------------------------------------------------|
D|-2--2--2--2--2--2--2--2--2--2--2--2--2--2--5--5--|-5--5--5--5--5--5--5--5--5--5--5--5--5--5--5--5--|


F|-------------------------------------------------|-------------------------------------------------|
C|-------------------------------------------------|-------------------------------------------------|
G|-------------------------------------------------|-------------------------------------------------|
D|-5--5--5--5--5--5--5--5--5--5--5--5--5--5--0--0--|-0--0--0--0--0--0--2--2--2--2--2--2--2--2--3--3--|


F|-----------------------------------------------|--------------------|--------|----------------|
C|-----------------------------------------------|--------------------|--------|----------------|
G|-----------------------------------------------|--------------------|--------|--------5---7---|
D|-3--3--3--3--3--3--8--8--8--8--8--8--8--8--7---|-----------7--------|--------|----------------|


F|---------------------------------|---------------------------|----------------------------------|
C|---------------------------------|---------------------------|----------------------------------|
G|-----------------5---7-----------|-------------------5---7---|----------------------------------|
D|-0---0---0---0-----------0---0---|-----0---6----6------------|-0---0---0---0---0----2---3---5---|


F|---------------------------------------------|---------------------------------|
C|---------------------------------------------|---------------------------------|
G|-2---3---5---2-----------2-----------5---7---|-----------------5---7-----------|
D|-----------------3---5-------3---5-----------|-0---0---0---0-----------0---0---|


F|---------------------------|----------------------------------|---------------------------------------------|
C|---------------------------|----------------------------------|---------------------------------------------|
G|-------------------5---7---|----------------------2--5--3--2--|----3--2--------2--------------------5---7---|
D|-----0---6----6------------|-0---0---0---0---0----------------|-5--------5--3-----5--3--2--5--3--2----------|


F|---------------------------------|---------------------------|----------------------------------|
C|---------------------------------|---------------------------|----------------------------------|
G|-----------------5---7-----------|-------------------5---7---|----------------------------------|
D|-0---0---0---0-----------0---0---|-----0---6----6------------|-0---0---0---0---0----2---3---5---|


F|---------------------------------------------|---------------------------------|
C|---------------------------------------------|---------------------------------|
G|-2---3---5---2-----------2-----------5---7---|-----------------5---7-----------|
D|-----------------3---5-------3---5-----------|-0---0---0---0-----------0---0---|


F|---------------------------|----------------------------------|---------------------------------------------|
C|---------------------------|----------------------------------|---------------------------------------------|
G|-------------------5---7---|----------------------2--5--3--2--|----3--2--------2----------------------------|
D|-----0---6----6------------|-0---0---0---0---0----------------|-5--------5--3-----5--3--2--5--3--2--0---0---|


F|---------------------------------|---------------------------------|---------------------------------|
C|---------------------------------|---------------------------------|---------------------------------|
G|---------------------------------|---------------------------------|---------------------------------|
D|-0---0---0---0---0---0---0---0---|-0---0---0---0---0---0---2---2---|-2---2---2---2---2---2---2---2---|


F|---------------------------------|---------------------------------|---------------------------------|
C|---------------------------------|---------------------------------|---------------------------------|
G|---------------------------------|---------------------------------|---------------------------------|
D|-2---2---2---2---2---2---5---5---|-5---5---5---5---5---5---5---5---|-5---5---5---5---5---5---8---8---|


F|---------------------------------|---------------------------------|---------------------------------|
C|---------------------------------|---------------------------------|---------------------------------|
G|-------------------------6---6---|-6---6---6---6---6---6-----------|---------------------------------|
D|-8---8---8---8---8---8-----------|-------------------------0---0---|-0---0---0---0---0---0---0---0---|


F|---------------------------------|---------------------------------|---------------------------------|
C|---------------------------------|---------------------------------|---------------------------------|
G|---------------------------------|---------------------------------|---------------------------------|
D|-0---0---0---0---0---0---2---2---|-2---2---2---2---2---2---2---2---|-2---2---2---2---2---2---5---5---|


F|---------------------------------|---------------------------------|---------------------------------|
C|---------------------------------|---------------------------------|---------------------------------|
G|---------------------------------|---------------------------------|-------------------------6---6---|
D|-5---5---5---5---5---5---5---5---|-5---5---5---5---5---5---8---8---|-8---8---8---8---8---8-----------|


F|---------------------------------|---------------------------------|---------------------------|
C|---------------------------------|---------------------------------|---------------------------|
G|-6---6---6---6---6---6---5---7---|-----------------5---7-----------|-------------------5---7---|
D|---------------------------------|-0---0---0---0-----------0---0---|-----0---6----6------------|


F|----------------------------------|---------------------------------------------|
C|----------------------------------|---------------------------------------------|
G|----------------------------------|-2---3---5---2-----------2-----------5---7---|
D|-0---0---0---0---0----2---3---5---|-----------------3---5-------3---5-----------|


F|---------------------------------|---------------------------|----------------------------------|
C|---------------------------------|---------------------------|----------------------------------|
G|-----------------5---7-----------|-------------------5---7---|----------------------2--5--3--2--|
D|-0---0---0---0-----------0---0---|-----0---6----6------------|-0---0---0---0---0----------------|


F|---------------------------------------------|---------------------------------|
C|---------------------------------------------|---------------------------------|
G|----3--2--------2----------------------------|---------------------------------|
D|-5--------5--3-----5--3--2--5--3--2--0---0---|-0---0---0---0---0---0---0---0---|


F|---------------------------------|---------------------------------|---------------------------------|
C|---------------------------------|---------------------------------|---------------------------------|
G|---------------------------------|---------------------------------|---------------------------------|
D|-0---0---0---0---0---0---2---2---|-2---2---2---2---2---2---2---2---|-2---2---2---2---2---2---5---5---|


F|---------------------------------|---------------------------------|-------------------------------------|
C|---------------------------------|---------------------------------|-------------------------------------|
G|---------------------------------|---------------------------------|-------------------------6---6---6---|
D|-5---5---5---5---5---5---5---5---|-5---5---5---5---5---5---8---8---|-8---8---8---8---8---8---------------|


F|---------------------------------------------|---------------------------------|
C|---------------------------------------------|---------------------------------|
G|-6---6---6---6---6---6---6---6---6-----------|---------------------------------|
D|-------------------------------------0---0---|-0---0---0---0---0---0---0---0---|


F|---------------------------------|---------------------------------|---------------------------------|
C|---------------------------------|---------------------------------|---------------------------------|
G|---------------------------------|---------------------------------|---------------------------------|
D|-0---0---0---0---0---0---2---2---|-2---2---2---2---2---2---2---2---|-2---2---2---2---2---2---5---5---|


F|---------------------------------|---------------------------------|---------------------------------|
C|---------------------------------|---------------------------------|---------------------------------|
G|---------------------------------|---------------------------------|-------------------------6---6---|
D|-5---5---5---5---5---5---5---5---|-5---5---5---5---5---5---8---8---|-8---8---8---8---8---8-----------|


F|---------------------------------|------------------------------|---------------------------|
C|---------------------------------|------------------------------|---------------------------|
G|-6---6---6---6---6---6-----------|------------------------------|---------------------------|
D|-------------------------0---0---|-0---0---0---0---0----0---0---|-0----0---0---0----2---2---|


F|------------------------------|---------------------------|------------------------------|
C|------------------------------|---------------------------|------------------------------|
G|------------------------------|---------------------------|------------------------------|
D|-2---2---2---2---2----2---2---|-2----2---2---2----5---5---|-5---5---5---5---5----5---5---|


F|---------------------------|------------------------------|------------------------------|
C|---------------------------|------------------------------|------------------------------|
G|---------------------------|------------------------------|------------------------------|
D|-5----5---5---5----8---8---|-8---8---8---8---8----11--11--|-11--11--11--11--11---0---0---|


F|------------------------------|---------------------------|------------------------------|
C|------------------------------|---------------------------|------------------------------|
G|------------------------------|---------------------------|------------------------------|
D|-0---0---0---0---0----0---0---|-0----0---0---0----2---2---|-2---2---2---2---2----2---2---|


F|---------------------------|------------------------------|---------------------------|
C|---------------------------|------------------------------|---------------------------|
G|---------------------------|------------------------------|---------------------------|
D|-2----2---2---2----5---5---|-5---5---5---5---5----5---5---|-5----5---5---5----8---8---|


F|------------------------------|---------------------------|---------------------------|
C|------------------------------|---------------------------|---------------------------|
G|------------------------------|---------------------------|---------------------------|
D|-8---8---8---8---8----11--11--|-11--11--11--11--11---0----|-----0---3---5---0----0----|


F|------------------------|------------------------------|------------------------|
C|------------------------|------------------------------|------------------------|
G|------------------------|------------------------------|-2---3---2--------------|
D|-3---5---0---------0----|-----0---3---5---0----0---0---|--------------2----0----|


F|---------------------------|------------------------|------------------------------|
C|---------------------------|------------------------|------------------------------|
G|---------------------------|------------------------|----------------------3---3---|
D|-----0---3---5---0----0----|-3---5---0---------0----|-----0---3---5---0------------|


F|---------------------------------|------------------------------|---------------------------|
C|---------------------------------|------------------------------|---------------------------|
G|-3---3---5---5---5---5-----------|------------------------------|---------------------------|
D|-------------------------0---0---|-0---0---0---0---0----0---0---|-0----0---0---0----2---2---|


F|------------------------------|---------------------------|------------------------------|
C|------------------------------|---------------------------|------------------------------|
G|------------------------------|---------------------------|------------------------------|
D|-2---2---2---2---2----2---2---|-2----2---2---2----5---5---|-5---5---5---5---5----5---5---|


F|---------------------------|------------------------------|------------------------------|
C|---------------------------|------------------------------|------------------------------|
G|---------------------------|------------------------------|------------------------------|
D|-5----5---5---5----8---8---|-8---8---8---8---8----11--11--|-11--11--11--11--11---0---0---|


F|------------------------------|---------------------------|------------------------------|
C|------------------------------|---------------------------|------------------------------|
G|------------------------------|---------------------------|------------------------------|
D|-0---0---0---0---0----0---0---|-0----0---0---0----2---2---|-2---2---2---2---2----2---2---|


F|---------------------------|------------------------------|---------------------------|
C|---------------------------|------------------------------|---------------------------|
G|---------------------------|------------------------------|---------------------------|
D|-2----2---2---2----5---5---|-5---5---5---5---5----5---5---|-5----5---5---5----8---8---|


F|------------------------------|---------------------------|---------------------------|
C|------------------------------|---------------------------|---------------------------|
G|------------------------------|---------------------------|---------------------------|
D|-8---8---8---8---8----11--11--|-11--11--11--11--11---0----|-----0---3---5---0----0----|


F|------------------------|------------------------------|------------------------|
C|------------------------|------------------------------|------------------------|
G|------------------------|------------------------------|-2---3---2--------------|
D|-3---5---0---------0----|-----0---3---5---0----0---0---|--------------2----0----|


F|---------------------------|------------------------|------------------------------|
C|---------------------------|------------------------|------------------------------|
G|---------------------------|------------------------|----------------------3---3---|
D|-----0---3---5---0----0----|-3---5---0---------0----|-----0---3---5---0------------|


F|------------------------------|---------------------------|------------------------|
C|------------------------------|---------------------------|------------------------|
G|-3---3---5---5---5---5--------|---------------------------|------------------------|
D|-------------------------0----|-----0---3---5---0----0----|-3---5---0---------0----|


F|------------------------------|------------------------|---------------------------|
C|------------------------------|------------------------|---------------------------|
G|------------------------------|-2---3---2--------------|---------------------------|
D|-----0---3---5---0----0---0---|--------------2----0----|-----0---3---5---0----0----|


F|------------------------|--------------------------------|--------------------------------|
C|------------------------|--------------------------------|--------------------------------|
G|------------------------|----------------------3---3--3--|-3---3---5---5--5--5---5--------|
D|-3---5---0---------0----|-----0---3---5---0--------------|---------------------------0----|


F|---------------------------|------------------------|------------------------------|
C|---------------------------|------------------------|------------------------------|
G|---------------------------|------------------------|------------------------------|
D|-----0---3---5---0----0----|-3---5---0---------0----|-----0---3---5---0----0---0---|


F|------------------------|---------------------------|------------------------|------------------------------|
C|------------------------|---------------------------|------------------------|------------------------------|
G|-2---3---2--------------|---------------------------|------------------------|----------------------3---3---|
D|--------------2----0----|-----0---3---5---0----0----|-3---5---0---------0----|-----0---3---5---0------------|


F|---------------------------------|---------------------------------|---------------------------|
C|---------------------------------|---------------------------------|---------------------------|
G|-3---3---5---5---5---5---5---7---|-----------------5---7-----------|-------------------5---7---|
D|---------------------------------|-0---0---0---0-----------0---0---|-----0---6----6------------|


F|----------------------------------|---------------------------------------------|
C|----------------------------------|---------------------------------------------|
G|----------------------------------|-2---3---5---2-----------2-----------5---7---|
D|-0---0---0---0---0----2---3---5---|-----------------3---5-------3---5-----------|


F|---------------------------------|---------------------------|----------------------------------|
C|---------------------------------|---------------------------|----------------------------------|
G|-----------------5---7-----------|-------------------5---7---|----------------------2--5--3--2--|
D|-0---0---0---0-----------0---0---|-----0---6----6------------|-0---0---0---0---0----------------|


F|---------------------------------------------|---------------------------------|
C|---------------------------------------------|---------------------------------|
G|----3--2--------2--------------------5---7---|-----------------5---7-----------|
D|-5--------5--3-----5--3--2--5--3--2----------|-0---0---0---0-----------0---0---|


F|---------------------------|----------------------------------|---------------------------------------------|
C|---------------------------|----------------------------------|---------------------------------------------|
G|-------------------5---7---|----------------------------------|-2---3---5---2-----------2-----------5---7---|
D|-----0---6----6------------|-0---0---0---0---0----2---3---5---|-----------------3---5-------3---5-----------|


F|---------------------------------|---------------------------|----------------------------------|
C|---------------------------------|---------------------------|----------------------------------|
G|-----------------5---7-----------|-------------------5---7---|----------------------3--5--3--2--|
D|-0---0---0---0-----------0---0---|-----0---6----6------------|-0---0---0---0---0----------------|


F|-------------------------------------------------|-------------------------------------------------|
C|----------------------------------------2--------|-------------------------------------2--5--4--2--|
G|----3--2--------2--------------------5-----5--3--|-2--3--2--------2--------------------------------|
D|-5--------5--3-----5--3--2--5--3--2--------------|----------5--3-----5--3--2--5--3--2--------------|


F|-------------------------------------------------|-------------------------|------------------|
C|----4--2--------2--------------------------------|-------------------------|------------------|
G|-5--------5--3-----5--3--2--5--3--2-----3--2-----|----2--------2-----------|------------------|
D|-------------------------------------5--------5--|-3-----5--3--------1-----|-1-----1----------|


F|--------|-------------|---------------------|-----------------|-----------------|
C|--------|-------------|---------------------|-----------------|-----------------|
G|--------|-------------|---------------------|-----------------|-----------------|
D|--------|--------0----|------0----0----12---|------12----12---|-12---0----------|