Menu:

 

Search:

 

dream theater - cover my eyes:

 



Title: Cover My Eyes
Artist: 
Album: Cleaning Out the Closet
Author: John Myung, John Petrucci, Mike Portnoy, Derek Sherinian


Track 1: Distortion Guitar

E|------------------------------|------------------------------|------------------------------|
B|-------------------------7----|-------------------------7----|-------------------------7----|
G|-------------5----6-----------|-------------5----6-----------|-------------5----6-----------|
D|------6---6-------------------|------6---6-------------------|------6---6-------------------|
A|------------------------------|------------------------------|------------------------------|
E|-4----4---------------4-------|-4----4---------------4-------|-4----4---------------4-------|


E|------------------------------|------------------------------|------------------------------|
B|-------------------------7----|-------------------------7----|-------------------------7----|
G|-------------5----6-----------|-------------5----6-----------|-------------5----6-----------|
D|------6---6-------------------|------6---6-------------------|------6---6-------------------|
A|------------------------------|------------------------------|------------------------------|
E|-4----4---------------4-------|-4----4---------------4-------|-4----4---------------4-------|


E|------------------------------|------------------------------|-------------|--------------------|
B|-------------------------7----|-------------------------7----|-------------|--------------------|
G|-------------5----6-----------|-------------5----6-----------|-------------|-----------5--5-----|
D|------6---6-------------------|------6---6-------------------|------6------|------6----6--6-----|
A|------------------------------|------------------------------|-6----6------|-6----6----6--6-----|
E|-4----4---------------4-------|-4----4---------------4-------|-4----4------|-4----4----4--4-----|


E|--------------------------------|-----------------------------------|-------------|
B|--------------------------------|-----------------------------------|-------------|
G|--------------6--6---6--6---6---|-------------------------6----7----|-------------|
D|-4----4----4--6--6---6--6---6---|-6--6--6--6--6--6---6----6----7----|------6------|
A|-4----4----4--4--4---4--4---4---|-6--6--6--6--6--6---6----4----5----|-6----6------|
E|-2----2----2--------------------|-4--4--4--4--4--4---4--------------|-4----4------|


E|--------------------|--------------------------------|-----------------------------------|
B|--------------------|--------------------------------|-----------------------------------|
G|-----------5--5-----|--------------6--6---6--6---6---|------------------------------4----|
D|------6----6--6-----|-4----4----4--6--6---6--6---6---|-6--6--6--6--6--6---6----4----4----|
A|-6----6----6--6-----|-4----4----4--4--4---4--4---4---|-6--6--6--6--6--6---6----4----2----|
E|-4----4----4--4-----|-2----2----2--------------------|-4--4--4--4--4--4---4----2---------|


E|--------|-------------|--------|-------------|--------|-----------------|---------------------|
B|--------|-------------|--------|-------------|--------|-----------------|---------------------|
G|-6------|-------------|-6------|-------------|-6------|-9-----6---6-----|---------------------|
D|-6------|-2-----4-----|-6------|-2-----4-----|-6------|-9-----8---8-----|-6----6----6----6----|
A|-4------|-2-----4-----|-4------|-2-----4-----|-4------|-7-----6---6-----|-6----6----6----6----|
E|--------|-0-----2-----|--------|-0-----2-----|--------|-----------------|-4----4----4----4----|


E|---------------------|---------------------|---------------------|---------------------|
B|---------------------|---------------------|---------------------|---------------------|
G|---------------------|-4----4----6----6----|---------------------|---------------------|
D|-4----4----4----4----|-4----4----6----6----|-6----6----6----6----|-4----4----4----4----|
A|-4----4----4----4----|-2----2----4----4----|-6----6----6----6----|-4----4----4----4----|
E|-2----2----2----2----|---------------------|-4----4----4----4----|-2----2----2----2----|


E|---------------------|------------------------------|------------------------------|
B|---------------------|-------------------------7----|-------------------------7----|
G|-4----4---3----3-----|-------------5----6-----------|-------------5----6-----------|
D|-4----4---3----3-----|------6---6-------------------|------6---6-------------------|
A|-2----2---1----1-----|------------------------------|------------------------------|
E|---------------------|-4----4---------------4-------|-4----4---------------4-------|


E|-------------|--------------------|--------------------------------|-----------------------------------|
B|-------------|--------------------|--------------------------------|-----------------------------------|
G|-------------|-----------5--5-----|--------------6--6---6--6---6---|-------------------------6----7----|
D|------6------|------6----6--6-----|-4----4----4--6--6---6--6---6---|-6--6--6--6--6--6---6----6----7----|
A|-6----6------|-6----6----6--6-----|-4----4----4--4--4---4--4---4---|-6--6--6--6--6--6---6----4----5----|
E|-4----4------|-4----4----4--4-----|-2----2----2--------------------|-4--4--4--4--4--4---4--------------|


E|-------------|--------------------|--------------------------------|-----------------------------------|
B|-------------|--------------------|--------------------------------|-----------------------------------|
G|-------------|-----------5--5-----|--------------6--6---6--6---6---|------------------------------4----|
D|------6------|------6----6--6-----|-4----4----4--6--6---6--6---6---|-6--6--6--6--6--6---6----4----4----|
A|-6----6------|-6----6----6--6-----|-4----4----4--4--4---4--4---4---|-6--6--6--6--6--6---6----4----2----|
E|-4----4------|-4----4----4--4-----|-2----2----2--------------------|-4--4--4--4--4--4---4----2---------|


E|--------|-------------|--------|-------------|--------|-----------------|---------------------|
B|--------|-------------|--------|-------------|--------|-----------------|---------------------|
G|-6------|-------------|-6------|-------------|-6------|-9-----6---6-----|---------------------|
D|-6------|-2-----4-----|-6------|-2-----4-----|-6------|-9-----8---8-----|-6----6----6----6----|
A|-4------|-2-----4-----|-4------|-2-----4-----|-4------|-7-----6---6-----|-6----6----6----6----|
E|--------|-0-----2-----|--------|-0-----2-----|--------|-----------------|-4----4----4----4----|


E|---------------------|---------------------|---------------------|---------------------|
B|---------------------|---------------------|---------------------|---------------------|
G|---------------------|-4----4----6----6----|---------------------|---------------------|
D|-4----4----4----4----|-4----4----6----6----|-6----6----6----6----|-4----4----4----4----|
A|-4----4----4----4----|-2----2----4----4----|-6----6----6----6----|-4----4----4----4----|
E|-2----2----2----2----|---------------------|-4----4----4----4----|-2----2----2----2----|


E|---------------------|-------------------------------|-------------------------------|
B|---------------------|------------10-9-----7---------|------------10-9-----7---------|
G|-4----4---3----3-----|-------------------------------|-------------------------------|
D|-4----4---3----3-----|------------7--6-----4---------|------------7--6-----4---------|
A|-2----2---1----1-----|-6----6-------------------4----|-6----6-------------------4----|
E|---------------------|-4----4------------------------|-4----4------------------------|


E|----------------------------------|------------------------------|-------------------------------|
B|------------10-9-----7------------|------------------------------|------------10-9-----7---------|
G|----------------------------------|------------------------------|-------------------------------|
D|------------7--6-----4------------|-4----4------2------7----9----|------------7--6-----4---------|
A|-6----6-------------------3--4----|-4----4------2------7----9----|-6----6-------------------4----|
E|-4----4---------------------------|-2----2------0------5----7----|-4----4------------------------|


E|-------------------------------|----------------------------------|------------------------------|
B|------------10-9-----7---------|------------10-9-----7------------|------------------------------|
G|-------------------------------|----------------------------------|------------------------------|
D|------------7--6-----4---------|------------7--6-----4------------|-4----4------2------7----9----|
A|-6----6-------------------4----|-6----6-------------------3--4----|-4----4------2------7----9----|
E|-4----4------------------------|-4----4---------------------------|-2----2------0------5----7----|


E|-------------------------------|-------------------------------|-------------------------------|
B|------------10-9-----7---------|------------10-9-----7---------|------------10-9-----7---------|
G|-------------------------------|-------------------------------|-------------------------------|
D|------------7--6-----4---------|------------7--6-----4---------|------------7--6-----4---------|
A|-6----6-------------------3----|-6----6-------------------4----|-6----6-------------------3----|
E|-4----4------------------------|-4----4------------------------|-4----4------------------------|


E|------------------------------|-------------------------------|-------------------------------|
B|------------------------------|------------10-9-----7---------|------------10-9-----7---------|
G|------------------------------|-------------------------------|-------------------------------|
D|-4----4------2------7----9----|------------7--6-----4---------|------------7--6-----4---------|
A|-4----4------2------7----9----|-6----6-------------------3----|-6----6-------------------4----|
E|-2----2------0------5----7----|-4----4------------------------|-4----4------------------------|


E|-------------------------------|------------------------------|--------|-------------|
B|------------10-9-----7---------|------------------------------|--------|-------------|
G|-------------------------------|------------------------------|-6------|-------------|
D|------------7--6-----4---------|-4----4------2------7----9----|-6------|-2-----4-----|
A|-6----6-------------------3----|-4----4------2------7----9----|-4------|-2-----4-----|
E|-4----4------------------------|-2----2------0------5----7----|--------|-0-----2-----|


E|--------|-------------|--------|-----------------|---------------------|---------------------|
B|--------|-------------|--------|-----------------|---------------------|---------------------|
G|-6------|-------------|-6------|-9-----6---6-----|---------------------|---------------------|
D|-6------|-2-----4-----|-6------|-9-----8---8-----|-6----6----6----6----|-4----4----4----4----|
A|-4------|-2-----4-----|-4------|-7-----6---6-----|-6----6----6----6----|-4----4----4----4----|
E|--------|-0-----2-----|--------|-----------------|-4----4----4----4----|-2----2----2----2----|


E|---------------------|---------------------|---------------------|---------------------|
B|---------------------|---------------------|---------------------|---------------------|
G|-4----4----6----6----|---------------------|---------------------|-4----4---3----3-----|
D|-4----4----6----6----|-6----6----6----6----|-4----4----4----4----|-4----4---3----3-----|
A|-2----2----4----4----|-6----6----6----6----|-4----4----4----4----|-2----2---1----1-----|
E|---------------------|-4----4----4----4----|-2----2----2----2----|---------------------|


E|---------------------|---------------------|---------------------|---------------------|
B|---------------------|---------------------|---------------------|---------------------|
G|---------------------|---------------------|-4----4----6----6----|---------------------|
D|-6----6----6----6----|-4----4----4----4----|-4----4----6----6----|-6----6----6----6----|
A|-6----6----6----6----|-4----4----4----4----|-2----2----4----4----|-6----6----6----6----|
E|-4----4----4----4----|-2----2----2----2----|---------------------|-4----4----4----4----|


E|---------------------|---------------------|---------------------|------------------------------------|
B|---------------------|---------------------|---------------------|------------10-9-----7--------------|
G|---------------------|-4----4---3----3-----|-9----9---8----8-----|------------------------------------|
D|-4----4----4----4----|-4----4---3----3-----|-9----9---8----8-----|------------7--6-----4--------------|
A|-4----4----4----4----|-2----2---1----1-----|-7----7---6----6-----|-6----6-------------------3--4--3---|
E|-2----2----2----2----|---------------------|---------------------|-4----4-----------------------------|


E|----------------------------------|------------------------------------|------------------------------|
B|------------10-9-----7------------|------------10-9-----7--------------|------------------------------|
G|----------------------------------|------------------------------------|------------------------------|
D|------------7--6-----4------------|------------7--6-----4--------------|-4----4------2------7----9----|
A|-6----6-------------------3--4----|-6----6-------------------3--4--3---|-4----4------2------7----9----|
E|-4----4---------------------------|-4----4-----------------------------|-2----2------0------5----7----|


E|------------------------------------|----------------------------------|------------------------------------|
B|------------10-9-----7--------------|------------10-9-----7------------|------------10-9-----7--------------|
G|------------------------------------|----------------------------------|------------------------------------|
D|------------7--6-----4--------------|------------7--6-----4------------|------------7--6-----4--------------|
A|-6----6-------------------3--4--3---|-6----6-------------------3--4----|-6----6-------------------3--4--3---|
E|-4----4-----------------------------|-4----4---------------------------|-4----4-----------------------------|


E|--------|--------|
B|--------|--------|
G|--------|--------|
D|--------|--------|
A|--------|--------|
E|--------|--------|





Track 2: Distortion Guitar 2

E|--------|--------|--------|--------|--------|--------|--------|--------|--------|
B|--------|--------|--------|--------|--------|--------|--------|--------|--------|
G|--------|--------|--------|--------|--------|--------|--------|--------|--------|
D|--------|--------|--------|--------|--------|--------|--------|--------|--------|
A|--------|--------|--------|--------|--------|--------|--------|--------|--------|
E|--------|--------|--------|--------|--------|--------|--------|--------|--------|


E|--------|--------|--------|--------|--------|--------|--------|--------|--------|
B|--------|--------|--------|--------|--------|--------|--------|--------|--------|
G|--------|--------|--------|--------|--------|--------|--------|--------|--------|
D|--------|--------|--------|--------|--------|--------|--------|--------|--------|
A|--------|--------|--------|--------|--------|--------|--------|--------|--------|
E|--------|--------|--------|--------|--------|--------|--------|--------|--------|


E|--------|--------|--------|--------|--------|--------|--------|--------|--------|
B|--------|--------|--------|--------|--------|--------|--------|--------|--------|
G|--------|--------|--------|--------|--------|--------|--------|--------|--------|
D|--------|--------|--------|--------|--------|--------|--------|--------|--------|
A|--------|--------|--------|--------|--------|--------|--------|--------|--------|
E|--------|--------|--------|--------|--------|--------|--------|--------|--------|


E|--------|--------|--------|--------|--------|--------|--------|--------|--------|
B|--------|--------|--------|--------|--------|--------|--------|--------|--------|
G|--------|--------|--------|--------|--------|--------|--------|--------|--------|
D|--------|--------|--------|--------|--------|--------|--------|--------|--------|
A|--------|--------|--------|--------|--------|--------|--------|--------|--------|
E|--------|--------|--------|--------|--------|--------|--------|--------|--------|


E|--------|--------|--------|--------|--------|--------|--------|--------|--------|
B|--------|--------|--------|--------|--------|--------|--------|--------|--------|
G|--------|--------|--------|--------|--------|--------|--------|--------|--------|
D|--------|--------|--------|--------|--------|--------|--------|--------|--------|
A|--------|--------|--------|--------|--------|--------|--------|--------|--------|
E|--------|--------|--------|--------|--------|--------|--------|--------|--------|


E|--------|--------|--------|--------|--------|--------|--------|--------|--------|
B|--------|--------|--------|--------|--------|--------|--------|--------|--------|
G|--------|--------|--------|--------|--------|--------|--------|--------|--------|
D|--------|--------|--------|--------|--------|--------|--------|--------|--------|
A|--------|--------|--------|--------|--------|--------|--------|--------|--------|
E|--------|--------|--------|--------|--------|--------|--------|--------|--------|


E|--------|--------|--------|--------|-------------|-------------|-------------|-------------------------------------------------|
B|--------|--------|--------|--------|-------------|-------------|-------------|-10-22-10-9--21-9--7--19-7--5--17-5--4--16-4--2--|
G|--------|--------|--------|--------|-5------8----|-5------9----|-5------11---|-------------------------------------------------|
D|--------|--------|--------|--------|-------------|-------------|-------------|-------------------------------------------------|
A|--------|--------|--------|--------|-------------|-------------|-------------|-------------------------------------------------|
E|--------|--------|--------|--------|-------------|-------------|-------------|-------------------------------------------------|


E|-------------|-------------|-------------|-------------------------------------------------|
B|-9------13---|-9------14---|-9------16---|-10-22-10-9--21-9--7--19-7--5--17-5--4--16-4--2--|
G|-------------|-------------|-------------|-------------------------------------------------|
D|-------------|-------------|-------------|-------------------------------------------------|
A|-------------|-------------|-------------|-------------------------------------------------|
E|-------------|-------------|-------------|-------------------------------------------------|


E|--------|--------|--------|--------|--------|--------|--------|--------|--------|
B|--------|--------|--------|--------|--------|--------|--------|--------|--------|
G|--------|--------|--------|--------|--------|--------|--------|--------|--------|
D|--------|--------|--------|--------|--------|--------|--------|--------|--------|
A|--------|--------|--------|--------|--------|--------|--------|--------|--------|
E|--------|--------|--------|--------|--------|--------|--------|--------|--------|


E|--------|--------|--------|--------|--------|--------|--------|--------|--------|
B|--------|--------|--------|--------|--------|--------|--------|--------|--------|
G|--------|--------|--------|--------|--------|--------|--------|--------|--------|
D|--------|--------|--------|--------|--------|--------|--------|--------|--------|
A|--------|--------|--------|--------|--------|--------|--------|--------|--------|
E|--------|--------|--------|--------|--------|--------|--------|--------|--------|


E|--------|--------|--------|--------|--------|--------|--------|--------|--------|
B|--------|--------|--------|--------|--------|--------|--------|--------|--------|
G|--------|--------|--------|--------|--------|--------|--------|--------|--------|
D|--------|--------|--------|--------|--------|--------|--------|--------|--------|
A|--------|--------|--------|--------|--------|--------|--------|--------|--------|
E|--------|--------|--------|--------|--------|--------|--------|--------|--------|


E|--------|
B|--------|
G|--------|
D|--------|
A|--------|
E|--------|





Track 3: Six-Stringed Bass (BEADGC)

C|--------|-------------|------------------------------------|------------------------------------|
G|--------|-------------|------------------------------------|------------------------------------|
D|--------|-------------|------------------------------------|------------------------------------|
A|--------|--------11---|------11--9--11-11-11----11-9--11---|------11--9--11-11-11----11-9--11---|
E|--------|-------------|------------------------------------|------------------------------------|
B|--------|-------------|-9--------------------9-------------|-9--------------------9-------------|


C|------------------------------------|------------------------------------|------------------------------------|
G|------------------------------------|------------------------------------|------------------------------------|
D|------------------------------------|------------------------------------|------------------------------------|
A|------11--9--11-11-11----11-9--11---|------11--9--11-11-11----11-9--11---|------11--9--11-11-11----11-9--11---|
E|------------------------------------|------------------------------------|------------------------------------|
B|-9--------------------9-------------|-9--------------------9-------------|-9--------------------9-------------|


C|------------------------------------|------------------------------------|------------------------------------|
G|------------------------------------|------------------------------------|------------------------------------|
D|------------------------------------|------------------------------------|------------------------------------|
A|------11--9--11-11-11----11-9--11---|------11--9--11-11-11----11-9--11---|------11--9--11-11-11----11-9--11---|
E|------------------------------------|------------------------------------|------------------------------------|
B|-9--------------------9-------------|-9--------------------9-------------|-9--------------------9-------------|


C|--------------------------------|-----------------------------------|------------------------------------|
G|--------------------------------|-----------------------------------|------------------------------------|
D|--------------------------------|-----------------------------------|------------------------------------|
A|--------------------------------|-----------------------------------|------11--9--11-11-11----11-9--11---|
E|--------------9--9---9--9---9---|-----------------------9---9--10---|------------------------------------|
B|-7----7----7--------------------|-9--9----9--9---9--9---------------|-9--------------------9-------------|


C|------------------------------------|--------------------------------|-----------------------------------|
G|------------------------------------|--------------------------------|-----------------------------------|
D|------------------------------------|--------------------------------|-----------------------------------|
A|------11--9--11-11-11----11-9--11---|--------------------------------|-----------------------------------|
E|------------------------------------|--------------9--9---9--9---9---|------------------------------7----|
B|-9--------------------9-------------|-7----7----7--------------------|-9--9----9--9---9--9---7---7-------|


C|-----------------------------------------|-------------------------------------|
G|-----------------------------------------|---------------------11--------------|
D|---------11------11----------------------|-------------------------------------|
A|--------------------------7--------------|-7---7---7---7---9-------9--9--9--9--|
E|-9---9-------9------7--9-----9--7-----7--|-------------------------------------|
B|-----------------------------------9-----|-------------------------------------|


C|-----------------------------------------|-------------------------------------|
G|-----------------------------------------|---------------------11--------------|
D|---------11------11----------9--11-9-----|-------------------------------------|
A|--------------------7--9--11----------11-|-7---7---7---7---9-------9--9--9--9--|
E|-9---9-------9---------------------------|-------------------------------------|
B|-----------------------------------------|-------------------------------------|


C|-----------------------------------------|-----------------------|---------------------------------------|
G|-----------------------------------------|-----------------------|---------------------------------------|
D|---------11------11----------------------|-----------------------|---------------------------------------|
A|--------------------------7--------------|-7----7------6---6-----|---------------------------------------|
E|-9---9-------9------7--9-----9--7-----7--|-----------------------|-4---4---4---4--4--4--4--4--4--4--4----|
B|-----------------------------------9-----|-----------------------|---------------------------------------|


C|---------------------------------------|---------------------------------------|
G|---------------------------------------|---------------------------------------|
D|---------------------------------------|---------------------------------------|
A|---------------------------------------|-2---2---2---2--4--4--4--4--4--4---4---|
E|-2---2---2---2--2--2--2--2--2--2--2----|---------------------------------------|
B|---------------------------------------|---------------------------------------|


C|---------------------------------------|---------------------------------------|
G|---------------------------------------|---------------------------------------|
D|---------------------------------------|---------------------------------------|
A|---------------------------------------|---------------------------------------|
E|-4---4---4---4--4--4--4--4--4--4--4----|-2---2---2---2--2--2--2--2--2--2--2----|
B|---------------------------------------|---------------------------------------|


C|------------------------------|------------------------------------|------------------------------------|
G|------------------------------|------------------------------------|------------------------------------|
D|------------------------------|------------------------------------|------------------------------------|
A|-2---2---2--------------------|------11--9--11-11-11----11-9--11---|------11--9--11-11-11----11-9--11---|
E|-------------6---6---6---6----|------------------------------------|------------------------------------|
B|------------------------------|-9--------------------9-------------|-9--------------------9-------------|


C|------------------------------------|------------------------------------|--------------------------------|
G|------------------------------------|------------------------------------|--------------------------------|
D|------------------------------------|------------------------------------|--------------------------------|
A|------11--9--11-11-11----11-9--11---|------11--9--11-11-11----11-9--11---|--------------------------------|
E|------------------------------------|------------------------------------|--------------9--9---9--9---9---|
B|-9--------------------9-------------|-9--------------------9-------------|-7----7----7--------------------|


C|-----------------------------------|------------------------------------|------------------------------------|
G|-----------------------------------|------------------------------------|------------------------------------|
D|-----------------------------------|------------------------------------|------------------------------------|
A|-----------------------------------|------11--9--11-11-11----11-9--11---|------11--9--11-11-11----11-9--11---|
E|-----------------------9---9--10---|------------------------------------|------------------------------------|
B|-9--9----9--9---9--9---------------|-9--------------------9-------------|-9--------------------9-------------|


C|--------------------------------|-----------------------------------|-----------------------------------------|
G|--------------------------------|-----------------------------------|-----------------------------------------|
D|--------------------------------|-----------------------------------|---------11------11----------------------|
A|--------------------------------|-----------------------------------|--------------------------7--------------|
E|--------------9--9---9--9---9---|------------------------------7----|-9---9-------9------7--9-----9--7-----7--|
B|-7----7----7--------------------|-9--9----9--9---9--9---7---7-------|-----------------------------------9-----|


C|-------------------------------------|-----------------------------------------|
G|---------------------11--------------|-----------------------------------------|
D|-------------------------------------|---------11------11----------9--11-9-----|
A|-7---7---7---7---9-------9--9--9--9--|--------------------7--9--11----------11-|
E|-------------------------------------|-9---9-------9---------------------------|
B|-------------------------------------|-----------------------------------------|


C|-------------------------------------|-----------------------------------------|
G|---------------------11--------------|-----------------------------------------|
D|-------------------------------------|---------11------11----------------------|
A|-7---7---7---7---9-------9--9--9--9--|--------------------------7--------------|
E|-------------------------------------|-9---9-------9------7--9-----9--7-----7--|
B|-------------------------------------|-----------------------------------9-----|


C|-----------------------|---------------------------------------|---------------------------------------|
G|-----------------------|---------------------------------------|---------------------------------------|
D|-----------------------|---------------------------------------|---------------------------------------|
A|-7----7------6---6-----|---------------------------------------|---------------------------------------|
E|-----------------------|-4---4---4---4--4--4--4--4--4--4--4----|-2---2---2---2--2--2--2--2--2--2--2----|
B|-----------------------|---------------------------------------|---------------------------------------|


C|---------------------------------------|---------------------------------------|
G|---------------------------------------|---------------------------------------|
D|---------------------------------------|---------------------------------------|
A|-2---2---2---2--4--4--4--4--4--4---4---|---------------------------------------|
E|---------------------------------------|-4---4---4---4--4--4--4--4--4--4--4----|
B|---------------------------------------|---------------------------------------|


C|---------------------------------------|------------------------------|-----------------------------|
G|---------------------------------------|------------------------------|-----------------------------|
D|---------------------------------------|------------------------------|-----------------------------|
A|---------------------------------------|-2---2---2--------------------|------------------------4----|
E|-2---2---2---2--2--2--2--2--2--2--2----|-------------6---6---6---6----|-4----4---5--4--4--2---------|
B|---------------------------------------|------------------------------|-----------------------------|


C|-----------------------------|--------------------------------|------------------------------|
G|-----------------------------|--------------------------------|------------------------------|
D|-----------------------------|--------------------------------|------------------------------|
A|------------------------4----|------------------------3--4----|------------------------------|
E|-4----4---5--4--4--2---------|-4----4---5--4--4--2------------|-2----2------0------5----7----|
B|-----------------------------|--------------------------------|------------------------------|


C|-----------------------------|-----------------------------|--------------------------------|
G|-----------------------------|-----------------------------|--------------------------------|
D|-----------------------------|-----------------------------|--------------------------------|
A|------------------------4----|------------------------4----|------------------------3--4----|
E|-4----4---5--4--4--2---------|-4----4---5--4--4--2---------|-4----4---5--4--4--2------------|
B|-----------------------------|-----------------------------|--------------------------------|


C|------------------------------|-----------------------------|-----------------------------|
G|------------------------------|-----------------------------|-----------------------------|
D|------------------------------|-----------------------------|-----------------------------|
A|------------------------------|------------------------3----|------------------------4----|
E|-2----2------0------5----7----|-4----4---5--4--4--2---------|-4----4---5--4--4--2---------|
B|------------------------------|-----------------------------|-----------------------------|


C|-----------------------------|------------------------------|-----------------------------|
G|-----------------------------|------------------------------|-----------------------------|
D|-----------------------------|------------------------------|-----------------------------|
A|------------------------3----|------------------------------|------------------------3----|
E|-4----4---5--4--4--2---------|-2----2------0------5----7----|-4----4---5--4--4--2---------|
B|-----------------------------|------------------------------|-----------------------------|


C|-----------------------------|-----------------------------|------------------------------|
G|-----------------------------|-----------------------------|------------------------------|
D|-----------------------------|-----------------------------|------------------------------|
A|------------------------4----|------------------------3----|------------------------------|
E|-4----4---5--4--4--2---------|-4----4---5--4--4--2---------|-2----2------0------5----7----|
B|-----------------------------|-----------------------------|------------------------------|


C|-----------------------------------------|-------------------------------------|
G|-----------------------------------------|---------------------11--------------|
D|---------11------11----------------------|-------------------------------------|
A|--------------------------7--------------|-7---7---7---7---9-------9--9--9--9--|
E|-9---9-------9------7--9-----9--7-----7--|-------------------------------------|
B|-----------------------------------9-----|-------------------------------------|


C|-----------------------------------------|-------------------------------------|
G|-----------------------------------------|---------------------11--------------|
D|---------11------9-----9--11-9-----------|-------------------------------------|
A|--------------------11----------11-9--11-|-7---7---7---7---9-------9--9--9--9--|
E|-9---9-------9---------------------------|-------------------------------------|
B|-----------------------------------------|-------------------------------------|


C|-----------------------------------------|---------------------------|---------------------------------------|
G|-----------------------------------------|---------------------------|---------------------------------------|
D|---------11------11----------------------|---------------------------|---------------------------------------|
A|--------------------------7--------------|-7----7------6---6---------|---------------------------------------|
E|-9---9-------9------7--9-----9--7-----7--|----------------------9----|-4---4---4---4--4--4--4--4--4--4--4----|
B|-----------------------------------9-----|---------------------------|---------------------------------------|


C|---------------------------------------|---------------------------------------|
G|---------------------------------------|---------------------------------------|
D|---------------------------------------|---------------------------------------|
A|---------------------------------------|-2---2---2---2--4--4--4--4--4--4---4---|
E|-2---2---2---2--2--2--2--2--2--2--2----|---------------------------------------|
B|---------------------------------------|---------------------------------------|


C|---------------------------------------|---------------------------------------|
G|---------------------------------------|---------------------------------------|
D|---------------------------------------|---------------------------------------|
A|---------------------------------------|---------------------------------------|
E|-4---4---4---4--4--4--4--4--4--4--4----|-2---2---2---2--2--2--2--2--2--2--2----|
B|---------------------------------------|---------------------------------------|


C|------------------------------|---------------------------------------|---------------------------------------|
G|------------------------------|---------------------------------------|---------------------------------------|
D|------------------------------|---------------------------------------|---------------------------------------|
A|-2---2---2--------------------|---------------------------------------|---------------------------------------|
E|-------------6---6---6---6----|-4---4---4---4--4--4--4--4--4--4--4----|-2---2---2---2--2--2--2--2--2--2--2----|
B|------------------------------|---------------------------------------|---------------------------------------|


C|---------------------------------------|---------------------------------------|
G|---------------------------------------|---------------------------------------|
D|---------------------------------------|---------------------------------------|
A|-2---2---2---2--4--4--4--4--4--4---4---|---------------------------------------|
E|---------------------------------------|-4---4---4---4--4--4--4--4--4--4--4----|
B|---------------------------------------|---------------------------------------|


C|---------------------------------------|------------------------------|------------------------------|
G|---------------------------------------|------------------------------|------------------------------|
D|---------------------------------------|------------------------------|------------------------------|
A|---------------------------------------|-2---2---2--------------------|-7---7---7---6---6---6---6----|
E|-2---2---2---2--2--2--2--2--2--2--2----|-------------6---6---6---6----|------------------------------|
B|---------------------------------------|------------------------------|------------------------------|


C|----------------------------------|--------------------------------|----------------------------------|
G|----------------------------------|--------------------------------|----------------------------------|
D|----------------------------------|--------------------------------|----------------------------------|
A|------------------------3--4--3---|------------------------3--4----|------------------------3--4--3---|
E|-4----4---5--4--4--2--------------|-4----4---5--4--4--2------------|-4----4---5--4--4--2--------------|
B|----------------------------------|--------------------------------|----------------------------------|


C|------------------------------|----------------------------------|--------------------------------|
G|------------------------------|----------------------------------|--------------------------------|
D|------------------------------|----------------------------------|--------------------------------|
A|------------------------------|------------------------3--4--3---|------------------------3--4----|
E|-2----2------0------5----7----|-4----4---5--4--4--2--------------|-4----4---5--4--4--2------------|
B|------------------------------|----------------------------------|--------------------------------|


C|----------------------------------|--------|--------|
G|----------------------------------|--------|--------|
D|----------------------------------|--------|--------|
A|------------------------3--4--3---|--------|--------|
E|-4----4---5--4--4--2--------------|--------|--------|
B|----------------------------------|--------|--------|