Menu:

 

Search:

 

dream theater - blind faith:

 



Title: Blind Faith
Artist: 
Album: Six Degrees Of Inner Turbulence
Author: John Myung, John Petrucci, Mike Portnoy, Jordan Rudess


Track 1: Baritone, Semi Clean tone

A|--------|--------|--------|--------|--------|--------|--------|--------|--------|
E|--------|--------|--------|--------|--------|--------|--------|--------|--------|
C|--------|--------|--------|--------|--------|--------|--------|--------|--------|
G|--------|--------|--------|--------|--------|--------|--------|--------|--------|
D|--------|--------|--------|--------|--------|--------|--------|--------|--------|
A|--------|--------|--------|--------|--------|--------|--------|--------|--------|


A|----------------|----------------|----------------|----------------|----------------|
E|----------------|----------------|----------------|----------------|----------------|
C|---------2------|---------2------|---------0------|---------0------|---------2------|
G|-----2----------|-----2----------|-----2----------|-----2----------|-----2----------|
D|-0--------------|-0--------------|-0--------------|-3--------------|-0--------------|
A|----------------|----------------|----------------|----------------|----------------|


A|----------------|----------------|----------------|---------------------------------------------|
E|----------------|----------------|----------------|---------------------------------------------|
C|---------2------|---------0------|---------0------|-----------2--------2------------------2-----|
G|-----2----------|-----2----------|-----2----------|-----2--------2--2--------2------2--------2--|
D|-0--------------|-0--------------|-3--------------|-0------0--------------------0------0--------|
A|----------------|----------------|----------------|---------------------------------------------|


A|-----------------------------------------------|-----------------------------------------------|
E|-----------------------------------------------|-----------------------------------------------|
C|----2--------2--------2------------------2-----|----2--------0--------0------------------0-----|
G|-------2--------2--2--------2------2--------2--|-------2--------2--2--------2------2--------2--|
D|-0--------0--------------------0------0--------|-0--------0--------------------0------0--------|
A|-----------------------------------------------|-----------------------------------------------|


A|-----------------------------------------------|---------------------------------------------|
E|-----------------------------------------------|---------------------------------------------|
C|----0--------0--------0------------------0-----|-----------2--------2------------------2-----|
G|-------2--------2--2--------2------2--------2--|-----2--------2--2--------2------2--------2--|
D|-3--------3--------------------3------3--------|-0------0--------------------0------0--------|
A|-----------------------------------------------|---------------------------------------------|


A|-----------------------------------------------|-----------------------------------------------|
E|-----------------------------------------------|-----------------------------------------------|
C|----2--------2--------2------------------2-----|----2--------0--------0------------------0-----|
G|-------2--------2--2--------2------2--------2--|-------2--------2--2--------2------2--------2--|
D|-0--------0--------------------0------0--------|-0--------0--------------------0------0--------|
A|-----------------------------------------------|-----------------------------------------------|


A|-----------------------------------------------|---------------------------|-------------0---0---------|
E|-----------------------------------------------|-------------3---3---------|---------3-----------3-----|
C|----0--------0--------0------------------0-----|---------2-----------2-----|-----2---------------------|
G|-------2--------2--2--------2------2--------2--|-----0---------------------|-0---0---------------------|
D|-3--------3--------------------3------3--------|---------------------------|---------------------------|
A|-----------------------------------------------|-3-------------------------|---------------------------|


A|--------------------|--------------------|------------------------------|-------------0---0------------|
E|--------------------|--------------------|-------------3---3------------|---------------------3--------|
C|------6---7---7-----|------6---7---7-----|---------2-----------2--------|---------2----------------2---|
G|------7-------------|------7-------------|-----0--------------------0---|-----0------------------------|
D|-0----0-------------|-0----0-------------|------------------------------|------------------------------|
A|--------------------|--------------------|-3---3------------------------|-2---2------------------------|


A|--------------------|--------------------|----------------|----------------|----------------|
E|--------------------|--------------------|----------------|----------------|----------------|
C|------6---7---7-----|------6---7---7-----|---------2------|---------2------|---------0------|
G|------7-------------|------7-------------|-----2----------|-----2----------|-----2----------|
D|-0----0-------------|-0----0-------------|-0--------------|-0--------------|-0--------------|
A|--------------------|--------------------|----------------|----------------|----------------|


A|----------------|----------------|----------------|----------------|----------------|
E|----------------|----------------|----------------|----------------|----------------|
C|---------0------|---------2------|---------2------|---------0------|---------0------|
G|-----2----------|-----2----------|-----2----------|-----2----------|-----2----------|
D|-3--------------|-0--------------|-0--------------|-0--------------|-3--------------|
A|----------------|----------------|----------------|----------------|----------------|


A|---------------------------------------------|-----------------------------------------------|
E|---------------------------------------------|-----------------------------------------------|
C|-----------2--------2------------------2-----|----2--------2--------2------------------2-----|
G|-----2--------2--2--------2------2--------2--|-------2--------2--2--------2------2--------2--|
D|-0------0--------------------0------0--------|-0--------0--------------------0------0--------|
A|---------------------------------------------|-----------------------------------------------|


A|-----------------------------------------------|-----------------------------------------------|
E|-----------------------------------------------|-----------------------------------------------|
C|----2--------0--------0------------------0-----|----0--------0--------0------------------0-----|
G|-------2--------2--2--------2------2--------2--|-------2--------2--2--------2------2--------2--|
D|-0--------0--------------------0------0--------|-3--------3--------------------3------3--------|
A|-----------------------------------------------|-----------------------------------------------|


A|---------------------------------------------|-----------------------------------------------|
E|---------------------------------------------|-----------------------------------------------|
C|-----------2--------2------------------2-----|----2--------2--------2------------------2-----|
G|-----2--------2--2--------2------2--------2--|-------2--------2--2--------2------2--------2--|
D|-0------0--------------------0------0--------|-0--------0--------------------0------0--------|
A|---------------------------------------------|-----------------------------------------------|


A|-----------------------------------------------|-----------------------------------------------|
E|-----------------------------------------------|-----------------------------------------------|
C|----2--------0--------0------------------0-----|----0--------0--------0------------------0-----|
G|-------2--------2--2--------2------2--------2--|-------2--------2--2--------2------2--------2--|
D|-0--------0--------------------0------0--------|-3--------3--------------------3------3--------|
A|-----------------------------------------------|-----------------------------------------------|


A|---------------------------|-------------0---0---------|--------------------|--------------------|
E|-------------3---3---------|---------3-----------3-----|--------------------|--------------------|
C|---------2-----------2-----|-----2---------------------|------6---7---7-----|------6---7---7-----|
G|-----0---------------------|-0---0---------------------|------7-------------|------7-------------|
D|---------------------------|---------------------------|-0----0-------------|-0----0-------------|
A|-3-------------------------|---------------------------|--------------------|--------------------|


A|------------------------------|-------------0---0------------|--------------------|
E|-------------3---3------------|---------------------3--------|--------------------|
C|---------2-----------2--------|---------2----------------2---|------6---7---7-----|
G|-----0--------------------0---|-----0------------------------|------7-------------|
D|------------------------------|------------------------------|-0----0-------------|
A|-3---3------------------------|-2---2------------------------|--------------------|


A|--------------------|--------|--------|--------|--------|--------|--------|--------|
E|--------------------|--------|--------|--------|--------|--------|--------|--------|
C|------6---7---7-----|--------|--------|--------|--------|--------|--------|--------|
G|------7-------------|--------|--------|--------|--------|--------|--------|--------|
D|-0----0-------------|--------|--------|--------|--------|--------|--------|--------|
A|--------------------|--------|--------|--------|--------|--------|--------|--------|


A|--------|--------|--------|--------|--------|--------|--------|--------|--------|
E|--------|--------|--------|--------|--------|--------|--------|--------|--------|
C|--------|--------|--------|--------|--------|--------|--------|--------|--------|
G|--------|--------|--------|--------|--------|--------|--------|--------|--------|
D|--------|--------|--------|--------|--------|--------|--------|--------|--------|
A|--------|--------|--------|--------|--------|--------|--------|--------|--------|


A|--------|--------|--------|--------|--------|--------|--------|--------|--------|
E|--------|--------|--------|--------|--------|--------|--------|--------|--------|
C|--------|--------|--------|--------|--------|--------|--------|--------|--------|
G|--------|--------|--------|--------|--------|--------|--------|--------|--------|
D|--------|--------|--------|--------|--------|--------|--------|--------|--------|
A|--------|--------|--------|--------|--------|--------|--------|--------|--------|


A|--------|--------|--------|--------|--------|--------|--------|--------|--------|
E|--------|--------|--------|--------|--------|--------|--------|--------|--------|
C|--------|--------|--------|--------|--------|--------|--------|--------|--------|
G|--------|--------|--------|--------|--------|--------|--------|--------|--------|
D|--------|--------|--------|--------|--------|--------|--------|--------|--------|
A|--------|--------|--------|--------|--------|--------|--------|--------|--------|


A|--------|--------|--------|--------|--------|--------|--------|--------|--------|
E|--------|--------|--------|--------|--------|--------|--------|--------|--------|
C|--------|--------|--------|--------|--------|--------|--------|--------|--------|
G|--------|--------|--------|--------|--------|--------|--------|--------|--------|
D|--------|--------|--------|--------|--------|--------|--------|--------|--------|
A|--------|--------|--------|--------|--------|--------|--------|--------|--------|


A|--------|--------|--------|--------|--------|--------|--------|--------|--------|
E|--------|--------|--------|--------|--------|--------|--------|--------|--------|
C|--------|--------|--------|--------|--------|--------|--------|--------|--------|
G|--------|--------|--------|--------|--------|--------|--------|--------|--------|
D|--------|--------|--------|--------|--------|--------|--------|--------|--------|
A|--------|--------|--------|--------|--------|--------|--------|--------|--------|


A|--------|--------|--------|--------|--------|--------|--------|--------|--------|
E|--------|--------|--------|--------|--------|--------|--------|--------|--------|
C|--------|--------|--------|--------|--------|--------|--------|--------|--------|
G|--------|--------|--------|--------|--------|--------|--------|--------|--------|
D|--------|--------|--------|--------|--------|--------|--------|--------|--------|
A|--------|--------|--------|--------|--------|--------|--------|--------|--------|


A|--------|--------|--------|--------|--------|--------|--------|--------|--------|
E|--------|--------|--------|--------|--------|--------|--------|--------|--------|
C|--------|--------|--------|--------|--------|--------|--------|--------|--------|
G|--------|--------|--------|--------|--------|--------|--------|--------|--------|
D|--------|--------|--------|--------|--------|--------|--------|--------|--------|
A|--------|--------|--------|--------|--------|--------|--------|--------|--------|


A|--------|--------|--------|--------|--------|--------|--------|--------|--------|
E|--------|--------|--------|--------|--------|--------|--------|--------|--------|
C|--------|--------|--------|--------|--------|--------|--------|--------|--------|
G|--------|--------|--------|--------|--------|--------|--------|--------|--------|
D|--------|--------|--------|--------|--------|--------|--------|--------|--------|
A|--------|--------|--------|--------|--------|--------|--------|--------|--------|


A|--------|--------|--------|--------|--------|--------|--------|--------|--------|
E|--------|--------|--------|--------|--------|--------|--------|--------|--------|
C|--------|--------|--------|--------|--------|--------|--------|--------|--------|
G|--------|--------|--------|--------|--------|--------|--------|--------|--------|
D|--------|--------|--------|--------|--------|--------|--------|--------|--------|
A|--------|--------|--------|--------|--------|--------|--------|--------|--------|


A|--------|--------|--------|--------|--------|--------|--------|--------|--------|
E|--------|--------|--------|--------|--------|--------|--------|--------|--------|
C|--------|--------|--------|--------|--------|--------|--------|--------|--------|
G|--------|--------|--------|--------|--------|--------|--------|--------|--------|
D|--------|--------|--------|--------|--------|--------|--------|--------|--------|
A|--------|--------|--------|--------|--------|--------|--------|--------|--------|


A|--------|--------|--------|--------|--------|--------|--------|--------|--------|
E|--------|--------|--------|--------|--------|--------|--------|--------|--------|
C|--------|--------|--------|--------|--------|--------|--------|--------|--------|
G|--------|--------|--------|--------|--------|--------|--------|--------|--------|
D|--------|--------|--------|--------|--------|--------|--------|--------|--------|
A|--------|--------|--------|--------|--------|--------|--------|--------|--------|


A|--------|--------|--------|--------|--------|--------|--------|--------|--------|
E|--------|--------|--------|--------|--------|--------|--------|--------|--------|
C|--------|--------|--------|--------|--------|--------|--------|--------|--------|
G|--------|--------|--------|--------|--------|--------|--------|--------|--------|
D|--------|--------|--------|--------|--------|--------|--------|--------|--------|
A|--------|--------|--------|--------|--------|--------|--------|--------|--------|


A|--------|--------|--------|--------|--------|--------|--------|--------|--------|
E|--------|--------|--------|--------|--------|--------|--------|--------|--------|
C|--------|--------|--------|--------|--------|--------|--------|--------|--------|
G|--------|--------|--------|--------|--------|--------|--------|--------|--------|
D|--------|--------|--------|--------|--------|--------|--------|--------|--------|
A|--------|--------|--------|--------|--------|--------|--------|--------|--------|


A|--------|--------|--------|--------|--------|--------|--------|--------|--------|
E|--------|--------|--------|--------|--------|--------|--------|--------|--------|
C|--------|--------|--------|--------|--------|--------|--------|--------|--------|
G|--------|--------|--------|--------|--------|--------|--------|--------|--------|
D|--------|--------|--------|--------|--------|--------|--------|--------|--------|
A|--------|--------|--------|--------|--------|--------|--------|--------|--------|


A|--------|--------|--------|--------|--------|--------|--------|--------|--------|
E|--------|--------|--------|--------|--------|--------|--------|--------|--------|
C|--------|--------|--------|--------|--------|--------|--------|--------|--------|
G|--------|--------|--------|--------|--------|--------|--------|--------|--------|
D|--------|--------|--------|--------|--------|--------|--------|--------|--------|
A|--------|--------|--------|--------|--------|--------|--------|--------|--------|


A|--------|--------|--------|--------|--------|--------|--------|--------|--------|
E|--------|--------|--------|--------|--------|--------|--------|--------|--------|
C|--------|--------|--------|--------|--------|--------|--------|--------|--------|
G|--------|--------|--------|--------|--------|--------|--------|--------|--------|
D|--------|--------|--------|--------|--------|--------|--------|--------|--------|
A|--------|--------|--------|--------|--------|--------|--------|--------|--------|


A|--------|--------|--------|--------|--------|--------|--------|--------|--------|
E|--------|--------|--------|--------|--------|--------|--------|--------|--------|
C|--------|--------|--------|--------|--------|--------|--------|--------|--------|
G|--------|--------|--------|--------|--------|--------|--------|--------|--------|
D|--------|--------|--------|--------|--------|--------|--------|--------|--------|
A|--------|--------|--------|--------|--------|--------|--------|--------|--------|


A|--------|--------|--------|--------|--------|--------|--------|--------|--------|
E|--------|--------|--------|--------|--------|--------|--------|--------|--------|
C|--------|--------|--------|--------|--------|--------|--------|--------|--------|
G|--------|--------|--------|--------|--------|--------|--------|--------|--------|
D|--------|--------|--------|--------|--------|--------|--------|--------|--------|
A|--------|--------|--------|--------|--------|--------|--------|--------|--------|


A|--------|--------|--------|--------|--------|--------|--------|--------|--------|
E|--------|--------|--------|--------|--------|--------|--------|--------|--------|
C|--------|--------|--------|--------|--------|--------|--------|--------|--------|
G|--------|--------|--------|--------|--------|--------|--------|--------|--------|
D|--------|--------|--------|--------|--------|--------|--------|--------|--------|
A|--------|--------|--------|--------|--------|--------|--------|--------|--------|


A|--------|--------|--------|--------|--------|--------|--------|--------|--------|
E|--------|--------|--------|--------|--------|--------|--------|--------|--------|
C|--------|--------|--------|--------|--------|--------|--------|--------|--------|
G|--------|--------|--------|--------|--------|--------|--------|--------|--------|
D|--------|--------|--------|--------|--------|--------|--------|--------|--------|
A|--------|--------|--------|--------|--------|--------|--------|--------|--------|


A|--------|--------|--------|--------|--------|--------|--------|--------|--------|
E|--------|--------|--------|--------|--------|--------|--------|--------|--------|
C|--------|--------|--------|--------|--------|--------|--------|--------|--------|
G|--------|--------|--------|--------|--------|--------|--------|--------|--------|
D|--------|--------|--------|--------|--------|--------|--------|--------|--------|
A|--------|--------|--------|--------|--------|--------|--------|--------|--------|


A|--------|--------|--------|--------|--------|--------|--------|--------|--------|
E|--------|--------|--------|--------|--------|--------|--------|--------|--------|
C|--------|--------|--------|--------|--------|--------|--------|--------|--------|
G|--------|--------|--------|--------|--------|--------|--------|--------|--------|
D|--------|--------|--------|--------|--------|--------|--------|--------|--------|
A|--------|--------|--------|--------|--------|--------|--------|--------|--------|


A|--------|--------|--------|--------|--------|----------------|----------------|----------------|
E|--------|--------|--------|--------|--------|----------------|----------------|----------------|
C|--------|--------|--------|--------|--------|---------2------|---------2------|---------0------|
G|--------|--------|--------|--------|--------|-----2----------|-----2----------|-----2----------|
D|--------|--------|--------|--------|--------|-0--------------|-0--------------|-0--------------|
A|--------|--------|--------|--------|--------|----------------|----------------|----------------|


A|----------------|----------------|----------------|----------------|----------------|
E|----------------|----------------|----------------|----------------|----------------|
C|---------0------|---------2------|---------2------|---------0------|---------0------|
G|-----2----------|-----2----------|-----2----------|-----2----------|-----2----------|
D|-3--------------|-0--------------|-0--------------|-0--------------|-3--------------|
A|----------------|----------------|----------------|----------------|----------------|


A|----------------|----------------|----------------|----------------|----------------|
E|----------------|----------------|----------------|----------------|----------------|
C|---------2------|---------2------|---------0------|---------0------|---------2------|
G|-----2----------|-----2----------|-----2----------|-----2----------|-----2----------|
D|-0--------------|-0--------------|-0--------------|-3--------------|-0--------------|
A|----------------|----------------|----------------|----------------|----------------|


A|----------------|----------------|----------------|--------|
E|----------------|----------------|----------------|--------|
C|---------2------|---------0------|---------0------|--------|
G|-----2----------|-----2----------|-----2----------|--------|
D|-0--------------|-0--------------|-3--------------|--------|
A|----------------|----------------|----------------|--------|





Track 2: Acoustic, Capo 5

E|--------|--------|--------|--------|--------|--------|--------|--------|--------|
B|--------|--------|--------|--------|--------|--------|--------|--------|--------|
G|--------|--------|--------|--------|--------|--------|--------|--------|--------|
D|--------|--------|--------|--------|--------|--------|--------|--------|--------|
A|--------|--------|--------|--------|--------|--------|--------|--------|--------|
E|--------|--------|--------|--------|--------|--------|--------|--------|--------|


E|--------|--------|--------|--------|--------|--------|--------|--------|--------|
B|--------|--------|--------|--------|--------|--------|--------|--------|--------|
G|--------|--------|--------|--------|--------|--------|--------|--------|--------|
D|--------|--------|--------|--------|--------|--------|--------|--------|--------|
A|--------|--------|--------|--------|--------|--------|--------|--------|--------|
E|--------|--------|--------|--------|--------|--------|--------|--------|--------|


E|--------|--------|--------|--------|--------|--------|--------|---------------------------|
B|--------|--------|--------|--------|--------|--------|--------|-------------3---3---------|
G|--------|--------|--------|--------|--------|--------|--------|---------2-----------2-----|
D|--------|--------|--------|--------|--------|--------|--------|-----0---------------------|
A|--------|--------|--------|--------|--------|--------|--------|---------------------------|
E|--------|--------|--------|--------|--------|--------|--------|-3-------------------------|


E|-------------0---0---------|--------------------|--------------------|------------------------------|
B|---------3-----------3-----|----------3---3-----|----------3---3-----|-------------3---3------------|
G|-----2---------------------|------2-------------|------2-------------|---------2-----------2--------|
D|-0---0---------------------|--------------------|--------------------|-----0--------------------0---|
A|---------------------------|-0----0-------------|-0----0-------------|------------------------------|
E|---------------------------|--------------------|--------------------|-3---3------------------------|


E|-------------0---0------------|--------------------|--------------------|--------|
B|---------------------3--------|----------3---3-----|----------3---3-----|--------|
G|---------2----------------2---|------2-------------|------2-------------|--------|
D|-----0------------------------|--------------------|--------------------|--------|
A|------------------------------|-0----0-------------|-0----0-------------|--------|
E|-2---2------------------------|--------------------|--------------------|--------|


E|--------|--------|--------|--------|--------|--------|--------|--------|--------|
B|--------|--------|--------|--------|--------|--------|--------|--------|--------|
G|--------|--------|--------|--------|--------|--------|--------|--------|--------|
D|--------|--------|--------|--------|--------|--------|--------|--------|--------|
A|--------|--------|--------|--------|--------|--------|--------|--------|--------|
E|--------|--------|--------|--------|--------|--------|--------|--------|--------|


E|--------|--------|--------|--------|--------|--------|---------------------------|
B|--------|--------|--------|--------|--------|--------|-------------3---3---------|
G|--------|--------|--------|--------|--------|--------|---------2-----------2-----|
D|--------|--------|--------|--------|--------|--------|-----0---------------------|
A|--------|--------|--------|--------|--------|--------|---------------------------|
E|--------|--------|--------|--------|--------|--------|-3-------------------------|


E|-------------0---0---------|--------------------|--------------------|------------------------------|
B|---------3-----------3-----|----------3---3-----|----------3---3-----|-------------3---3------------|
G|-----2---------------------|------2-------------|------2-------------|---------2-----------2--------|
D|-0---0---------------------|--------------------|--------------------|-----0--------------------0---|
A|---------------------------|-0----0-------------|-0----0-------------|------------------------------|
E|---------------------------|--------------------|--------------------|-3---3------------------------|


E|-------------0---0------------|--------------------|--------------------|---------------------------------|
B|---------------------3--------|----------3---3-----|----------3---3-----|-------------3---3---------------|
G|---------2----------------2---|------2-------------|------2-------------|---------2-----------2---0-------|
D|-----0------------------------|--------------------|--------------------|-----0-----------------------0---|
A|------------------------------|-0----0-------------|-0----0-------------|---------------------------------|
E|-2---2------------------------|--------------------|--------------------|-3---3---------------------------|


E|-------------0---0---------------|-------------0---0---------------|-------------0---0------------|
B|---------------------3-----------|---------0-----------0-------0---|---------0-----------0--------|
G|---------2---------------2-------|---------------------------------|------------------------------|
D|-----0-----------------------0---|-----7-------------------7-------|-----6--------------------6---|
A|---------------------------------|---------------------------------|------------------------------|
E|-2---2---------------------------|-5---5---------------------------|-4---4------------------------|


E|---------------------------------|-------------0---0---------------|---------------------------------|
B|-------------3---3---------------|---------------------3-----------|---------------------------------|
G|---------2-----------2---0-------|---------2---------------2-------|-------------4---4---5---5---2---|
D|-----0-----------------------0---|-----0-----------------------0---|---------5-----------------------|
A|---------------------------------|---------------------------------|-----3---------------------------|
E|-3---3---------------------------|-2---2---------------------------|-1---1---------------------------|


E|--------------------|--------|--------|--------|--------|--------|--------|--------|
B|--------------------|--------|--------|--------|--------|--------|--------|--------|
G|-2------------------|--------|--------|--------|--------|--------|--------|--------|
D|-----3--------------|--------|--------|--------|--------|--------|--------|--------|
A|---------3----------|--------|--------|--------|--------|--------|--------|--------|
E|--------------1-----|--------|--------|--------|--------|--------|--------|--------|


E|--------|--------|--------|--------|--------|--------|--------|--------|--------|
B|--------|--------|--------|--------|--------|--------|--------|--------|--------|
G|--------|--------|--------|--------|--------|--------|--------|--------|--------|
D|--------|--------|--------|--------|--------|--------|--------|--------|--------|
A|--------|--------|--------|--------|--------|--------|--------|--------|--------|
E|--------|--------|--------|--------|--------|--------|--------|--------|--------|


E|--------|--------|--------|--------|--------|--------|--------|---------------------------|
B|--------|--------|--------|--------|--------|--------|--------|-------------3---3---------|
G|--------|--------|--------|--------|--------|--------|--------|---------2-----------2-----|
D|--------|--------|--------|--------|--------|--------|--------|-----0---------------------|
A|--------|--------|--------|--------|--------|--------|--------|---------------------------|
E|--------|--------|--------|--------|--------|--------|--------|-3-------------------------|


E|-------------0---0---------|--------------------|--------------------|---------------------------------|
B|---------3-----------3-----|----------3---3-----|----------3---3-----|-------------3---3---------------|
G|-----2---------------------|------2-------------|------2-------------|---------2-----------2---0-------|
D|-0---0---------------------|--------------------|--------------------|-----0-----------------------0---|
A|---------------------------|-0----0-------------|-0----0-------------|---------------------------------|
E|---------------------------|--------------------|--------------------|-3---3---------------------------|


E|-------------0---0-----|--------------------|--------------------|---------------------------------|
B|---------3-------------|----------3---3-----|----------3---3-----|-------------3---3---------------|
G|-----2-----------------|------2-------------|------2-------------|---------2-----------2---0-------|
D|-----------------------|--------------------|--------------------|-----0-----------------------0---|
A|-----------------------|-0----0-------------|-0----0-------------|---------------------------------|
E|-2---2-----------------|--------------------|--------------------|-3---3---------------------------|


E|-------------0---0---------------|-------------0---0---------------|-------------0---0------------|
B|---------------------3-----------|---------0-----------0-------0---|---------0-----------0--------|
G|---------2---------------2-------|---------------------------------|------------------------------|
D|-----0-----------------------0---|-----7-------------------7-------|-----6--------------------6---|
A|---------------------------------|---------------------------------|------------------------------|
E|-2---2---------------------------|-5---5---------------------------|-4---4------------------------|


E|---------------------------------|-------------0---0---------------|---------------------------------|
B|-------------3---3---------------|---------------------3-----------|---------------------------------|
G|---------2-----------2---0-------|---------2---------------2-------|-------------4---4---5---5---2---|
D|-----0-----------------------0---|-----0-----------------------0---|---------5-----------------------|
A|---------------------------------|---------------------------------|-----3---------------------------|
E|-3---3---------------------------|-2---2---------------------------|-1---1---------------------------|


E|--------------------|--------|--------|--------|--------|--------|--------|--------|
B|--------------------|--------|--------|--------|--------|--------|--------|--------|
G|-2------------------|--------|--------|--------|--------|--------|--------|--------|
D|-----3--------------|--------|--------|--------|--------|--------|--------|--------|
A|---------3----------|--------|--------|--------|--------|--------|--------|--------|
E|--------------1-----|--------|--------|--------|--------|--------|--------|--------|


E|--------|--------|--------|--------|--------|--------|--------|--------|--------|
B|--------|--------|--------|--------|--------|--------|--------|--------|--------|
G|--------|--------|--------|--------|--------|--------|--------|--------|--------|
D|--------|--------|--------|--------|--------|--------|--------|--------|--------|
A|--------|--------|--------|--------|--------|--------|--------|--------|--------|
E|--------|--------|--------|--------|--------|--------|--------|--------|--------|


E|--------|--------|--------|--------|--------|--------|--------|--------|--------|
B|--------|--------|--------|--------|--------|--------|--------|--------|--------|
G|--------|--------|--------|--------|--------|--------|--------|--------|--------|
D|--------|--------|--------|--------|--------|--------|--------|--------|--------|
A|--------|--------|--------|--------|--------|--------|--------|--------|--------|
E|--------|--------|--------|--------|--------|--------|--------|--------|--------|


E|--------|--------|--------|--------|--------|--------|--------|--------|--------|
B|--------|--------|--------|--------|--------|--------|--------|--------|--------|
G|--------|--------|--------|--------|--------|--------|--------|--------|--------|
D|--------|--------|--------|--------|--------|--------|--------|--------|--------|
A|--------|--------|--------|--------|--------|--------|--------|--------|--------|
E|--------|--------|--------|--------|--------|--------|--------|--------|--------|


E|--------|--------|--------|--------|--------|--------|--------|--------|--------|
B|--------|--------|--------|--------|--------|--------|--------|--------|--------|
G|--------|--------|--------|--------|--------|--------|--------|--------|--------|
D|--------|--------|--------|--------|--------|--------|--------|--------|--------|
A|--------|--------|--------|--------|--------|--------|--------|--------|--------|
E|--------|--------|--------|--------|--------|--------|--------|--------|--------|


E|--------|--------|--------|--------|--------|--------|--------|--------|--------|
B|--------|--------|--------|--------|--------|--------|--------|--------|--------|
G|--------|--------|--------|--------|--------|--------|--------|--------|--------|
D|--------|--------|--------|--------|--------|--------|--------|--------|--------|
A|--------|--------|--------|--------|--------|--------|--------|--------|--------|
E|--------|--------|--------|--------|--------|--------|--------|--------|--------|


E|--------|--------|--------|--------|--------|--------|--------|--------|--------|
B|--------|--------|--------|--------|--------|--------|--------|--------|--------|
G|--------|--------|--------|--------|--------|--------|--------|--------|--------|
D|--------|--------|--------|--------|--------|--------|--------|--------|--------|
A|--------|--------|--------|--------|--------|--------|--------|--------|--------|
E|--------|--------|--------|--------|--------|--------|--------|--------|--------|


E|--------|--------|--------|--------|--------|--------|--------|--------|--------|
B|--------|--------|--------|--------|--------|--------|--------|--------|--------|
G|--------|--------|--------|--------|--------|--------|--------|--------|--------|
D|--------|--------|--------|--------|--------|--------|--------|--------|--------|
A|--------|--------|--------|--------|--------|--------|--------|--------|--------|
E|--------|--------|--------|--------|--------|--------|--------|--------|--------|


E|--------|--------|--------|--------|--------|--------|--------|--------|--------|
B|--------|--------|--------|--------|--------|--------|--------|--------|--------|
G|--------|--------|--------|--------|--------|--------|--------|--------|--------|
D|--------|--------|--------|--------|--------|--------|--------|--------|--------|
A|--------|--------|--------|--------|--------|--------|--------|--------|--------|
E|--------|--------|--------|--------|--------|--------|--------|--------|--------|


E|--------|--------|--------|--------|--------|--------|--------|--------|--------|
B|--------|--------|--------|--------|--------|--------|--------|--------|--------|
G|--------|--------|--------|--------|--------|--------|--------|--------|--------|
D|--------|--------|--------|--------|--------|--------|--------|--------|--------|
A|--------|--------|--------|--------|--------|--------|--------|--------|--------|
E|--------|--------|--------|--------|--------|--------|--------|--------|--------|


E|--------|--------|--------|--------|--------|--------|--------|--------|--------|
B|--------|--------|--------|--------|--------|--------|--------|--------|--------|
G|--------|--------|--------|--------|--------|--------|--------|--------|--------|
D|--------|--------|--------|--------|--------|--------|--------|--------|--------|
A|--------|--------|--------|--------|--------|--------|--------|--------|--------|
E|--------|--------|--------|--------|--------|--------|--------|--------|--------|


E|--------|--------|--------|--------|--------|--------|--------|--------|--------|
B|--------|--------|--------|--------|--------|--------|--------|--------|--------|
G|--------|--------|--------|--------|--------|--------|--------|--------|--------|
D|--------|--------|--------|--------|--------|--------|--------|--------|--------|
A|--------|--------|--------|--------|--------|--------|--------|--------|--------|
E|--------|--------|--------|--------|--------|--------|--------|--------|--------|


E|--------|--------|--------|--------|--------|--------|--------|--------|--------|
B|--------|--------|--------|--------|--------|--------|--------|--------|--------|
G|--------|--------|--------|--------|--------|--------|--------|--------|--------|
D|--------|--------|--------|--------|--------|--------|--------|--------|--------|
A|--------|--------|--------|--------|--------|--------|--------|--------|--------|
E|--------|--------|--------|--------|--------|--------|--------|--------|--------|


E|--------|--------|--------|--------|--------|--------|--------|--------|--------|
B|--------|--------|--------|--------|--------|--------|--------|--------|--------|
G|--------|--------|--------|--------|--------|--------|--------|--------|--------|
D|--------|--------|--------|--------|--------|--------|--------|--------|--------|
A|--------|--------|--------|--------|--------|--------|--------|--------|--------|
E|--------|--------|--------|--------|--------|--------|--------|--------|--------|


E|--------|--------|--------|--------|--------|--------|--------|--------|--------|
B|--------|--------|--------|--------|--------|--------|--------|--------|--------|
G|--------|--------|--------|--------|--------|--------|--------|--------|--------|
D|--------|--------|--------|--------|--------|--------|--------|--------|--------|
A|--------|--------|--------|--------|--------|--------|--------|--------|--------|
E|--------|--------|--------|--------|--------|--------|--------|--------|--------|


E|--------|--------|--------|--------|--------|--------|--------|--------|--------|
B|--------|--------|--------|--------|--------|--------|--------|--------|--------|
G|--------|--------|--------|--------|--------|--------|--------|--------|--------|
D|--------|--------|--------|--------|--------|--------|--------|--------|--------|
A|--------|--------|--------|--------|--------|--------|--------|--------|--------|
E|--------|--------|--------|--------|--------|--------|--------|--------|--------|


E|--------|--------|--------|--------|--------|--------|--------|--------|--------|
B|--------|--------|--------|--------|--------|--------|--------|--------|--------|
G|--------|--------|--------|--------|--------|--------|--------|--------|--------|
D|--------|--------|--------|--------|--------|--------|--------|--------|--------|
A|--------|--------|--------|--------|--------|--------|--------|--------|--------|
E|--------|--------|--------|--------|--------|--------|--------|--------|--------|


E|--------|--------|--------|--------|--------|--------|--------|--------|--------|
B|--------|--------|--------|--------|--------|--------|--------|--------|--------|
G|--------|--------|--------|--------|--------|--------|--------|--------|--------|
D|--------|--------|--------|--------|--------|--------|--------|--------|--------|
A|--------|--------|--------|--------|--------|--------|--------|--------|--------|
E|--------|--------|--------|--------|--------|--------|--------|--------|--------|


E|--------|--------|--------|--------|--------|--------|--------|--------|--------|
B|--------|--------|--------|--------|--------|--------|--------|--------|--------|
G|--------|--------|--------|--------|--------|--------|--------|--------|--------|
D|--------|--------|--------|--------|--------|--------|--------|--------|--------|
A|--------|--------|--------|--------|--------|--------|--------|--------|--------|
E|--------|--------|--------|--------|--------|--------|--------|--------|--------|


E|--------|--------|--------|--------|--------|--------|--------|--------|--------|
B|--------|--------|--------|--------|--------|--------|--------|--------|--------|
G|--------|--------|--------|--------|--------|--------|--------|--------|--------|
D|--------|--------|--------|--------|--------|--------|--------|--------|--------|
A|--------|--------|--------|--------|--------|--------|--------|--------|--------|
E|--------|--------|--------|--------|--------|--------|--------|--------|--------|


E|--------|--------|
B|--------|--------|
G|--------|--------|
D|--------|--------|
A|--------|--------|
E|--------|--------|





Track 3: Baritone, Distorted

A|--------|--------|--------|--------|--------|--------|--------|--------|--------|
E|--------|--------|--------|--------|--------|--------|--------|--------|--------|
C|--------|--------|--------|--------|--------|--------|--------|--------|--------|
G|--------|--------|--------|--------|--------|--------|--------|--------|--------|
D|--------|--------|--------|--------|--------|--------|--------|--------|--------|
A|--------|--------|--------|--------|--------|--------|--------|--------|--------|


A|--------|--------|--------|--------|--------|--------|--------|--------|--------|
E|--------|--------|--------|--------|--------|--------|--------|--------|--------|
C|--------|--------|--------|--------|--------|--------|--------|--------|--------|
G|--------|--------|--------|--------|--------|--------|--------|--------|--------|
D|--------|--------|--------|--------|--------|--------|--------|--------|--------|
A|--------|--------|--------|--------|--------|--------|--------|--------|--------|


A|--------|--------|--------|--------|--------|--------|--------|--------|--------|
E|--------|--------|--------|--------|--------|--------|--------|--------|--------|
C|--------|--------|--------|--------|--------|--------|--------|--------|--------|
G|--------|--------|--------|--------|--------|--------|--------|--------|--------|
D|--------|--------|--------|--------|--------|--------|--------|--------|--------|
A|--------|--------|--------|--------|--------|--------|--------|--------|--------|


A|--------|--------|--------|--------|--------|--------|--------|--------|--------|
E|--------|--------|--------|--------|--------|--------|--------|--------|--------|
C|--------|--------|--------|--------|--------|--------|--------|--------|--------|
G|--------|--------|--------|--------|--------|--------|--------|--------|--------|
D|--------|--------|--------|--------|--------|--------|--------|--------|--------|
A|--------|--------|--------|--------|--------|--------|--------|--------|--------|


A|--------|--------|--------|--------|--------|--------|--------|--------|--------|
E|--------|--------|--------|--------|--------|--------|--------|--------|--------|
C|--------|--------|--------|--------|--------|--------|--------|--------|--------|
G|--------|--------|--------|--------|--------|--------|--------|--------|--------|
D|--------|--------|--------|--------|--------|--------|--------|--------|--------|
A|--------|--------|--------|--------|--------|--------|--------|--------|--------|


A|--------|--------|--------|--------|--------|--------|--------|--------|--------|
E|--------|--------|--------|--------|--------|--------|--------|--------|--------|
C|--------|--------|--------|--------|--------|--------|--------|--------|--------|
G|--------|--------|--------|--------|--------|--------|--------|--------|--------|
D|--------|--------|--------|--------|--------|--------|--------|--------|--------|
A|--------|--------|--------|--------|--------|--------|--------|--------|--------|


A|--------|--------|--------|---------------------------------|-------------0---0---------------|
E|--------|--------|--------|-------------3---3---------------|---------------------3-----------|
C|--------|--------|--------|---------2-----------2---0-------|---------2---------------2-------|
G|--------|--------|--------|-----0-----------------------0---|-----0-----------------------0---|
D|--------|--------|--------|---------------------------------|---------------------------------|
A|--------|--------|--------|-3---3---------------------------|-2---2---------------------------|


A|-------------0---0---------------|-------------0---0------------|---------------------------------|
E|---------0-----------0-------0---|---------0-----------0--------|-------------3---3---------------|
C|---------------------------------|------------------------------|---------2-----------2---0-------|
G|-----7-------------------7-------|-----6--------------------6---|-----0-----------------------0---|
D|---------------------------------|------------------------------|---------------------------------|
A|-5---5---------------------------|-4---4------------------------|-3---3---------------------------|


A|-------------0---0---------------|---------------------------------|------------------------------|
E|---------------------3-----------|---------------------------------|------------------------------|
C|---------2---------------2-------|-------------4---4---5---5---2---|-2----------------------------|
G|-----0-----------------------0---|---------5-----------------------|-----3------------------------|
D|---------------------------------|-----3---------------------------|---------3--------------------|
A|-2---2---------------------------|-1---1---------------------------|-------------1---1---1---12---|


A|------------------------------|---------------------------------|------------------------------|
E|------------------------------|---------------------------------|------------------------------|
C|------------------------------|---------------------------------|------------------------------|
G|------------------------------|---------------------------------|-7---9---9--------------------|
D|---------5---7---7------------|---------------------------------|-5---7---7------------5---7---|
A|-0---3---------------5---7----|-3---5---5---5---5---3---0---3---|-------------5---7----3---5---|


A|------------------------------|------------------------------|------------------------------|
E|------------------------------|------------------------------|------------------------------|
C|------------------------------|------------------------------|------------------------------|
G|------------------------------|------------------------------|---------7---9---9------------|
D|-7------------5---7---7-------|------------------------------|---------5---7---7------------|
A|-5----0---3---------------5---|-7----3---5---5---5---5---3---|-0---3---------------5---7----|


A|---------------------------------|--------|--------|--------|---------------------------|
E|---------------------------------|--------|--------|--------|---------------------------|
C|---------------------------------|-2------|-2------|-2------|-------0---0---------------|
G|-------------7---7---------------|-2------|-2------|-2------|---------------2-------2---|
D|-------------5---5-------3---2---|-0------|-0------|-0------|-3-----------------3-------|
A|-3---5---3-----------0-----------|--------|--------|--------|---------------------------|


A|---------------------------|---------------------------|---------------------------|
E|---------------------------|---------------------------|---------------------------|
C|-------2---2---------------|-------2---2---------------|-------0---0---------------|
G|---------------2-------2---|---------------2-------2---|---------------2-------2---|
D|-0-----0-----------0-------|-0-----0-----------0-------|-0-----0-----------0-------|
A|---------------------------|---------------------------|---------------------------|


A|---------------------------|--------------------5-----|--------------------5-----|
E|---------------------------|--------------------8-----|--------------------8-----|
C|-------0---0---------------|-2----------2-------7-----|-2----------2-------7-----|
G|---------------2-------2---|-2----------2-------------|-2----------2-------------|
D|-3-----3-----------3-------|-0----0--0--0-------------|-0----0--0--0-------------|
A|---------------------------|--------------------------|--------------------------|


A|--------------------5-----|--------------------------------|--------------------5-----|
E|--------------------8-----|--------------------------------|--------------------8-----|
C|-2----------2-------7-----|-0----------0-------------------|-2----------2-------7-----|
G|-2----------2-------------|-2----------2-----------4---4---|-2----------2-------------|
D|-0----0--0--0-------------|-3----3--3--3-------3-----------|-0----0--0--0-------------|
A|--------------------------|--------------------------------|--------------------------|


A|--------------------5-----|--------------------5-----|--------------------------------|
E|--------------------8-----|--------------------8-----|--------------------------------|
C|-2----------2-------7-----|-2----------2-------7-----|-0----------0-------------------|
G|-2----------2-------------|-2----------2-------------|-2----------2-----------4---4---|
D|-0----0--0--0-------------|-0----0--0--0-------------|-3----3--3--3-------3-----------|
A|--------------------------|--------------------------|--------------------------------|


A|---------------------------|-------------0---0---------|--------------------|------------------0-----|
E|-------------3---3---------|---------3-----------3-----|--------------------|------------------------|
C|---------2-----------2-----|-----2---------------------|------6---7---7-----|------6---7---7---------|
G|-----0---------------------|-0-------------------------|------7-------------|------7-----------------|
D|---------------------------|---------------------------|-0----0-------------|-0----0-----------------|
A|-3-------------------------|---------------------------|--------------------|------------------------|


A|---------------------------|-------------0---0---------------------|--------------------|
E|-------------3---3---------|---------3-------8--8--5---------------|--------------------|
C|---------2-----------2-----|-----2--------------------7--6--4--2---|------6---7---7-----|
G|-----0---------------------|---------------------------------------|------7-------------|
D|---------------------------|---------------------------------------|-0----0-------------|
A|-3---3---------------------|-2---2---------------------------------|--------------------|


A|------------------------|---------------------------------|-------------0---0---------------|
E|------------------------|-------------3---3---------------|---------------------3-----------|
C|------6---7---7---6-----|---------2-----------2---0-------|---------2---------------2-------|
G|------7-----------------|-----0-----------------------0---|-----0-----------------------0---|
D|-0----0-----------------|---------------------------------|---------------------------------|
A|------------------------|-3---3---------------------------|-2---2---------------------------|


A|-------------0---0---------------|-------------0---0------------|---------------------------------|
E|---------0-----------0-------0---|---------0-----------0--------|-------------3---3---------------|
C|---------------------------------|------------------------------|---------2-----------2---0-------|
G|-----7-------------------7-------|-----6--------------------6---|-----0-----------------------0---|
D|---------------------------------|------------------------------|---------------------------------|
A|-5---5---------------------------|-4---4------------------------|-3---3---------------------------|


A|-------------0---0---------------|---------------------------------|---------------------------|
E|---------------------3-----------|---------------------------------|---------------------------|
C|---------2---------------2-------|-------------4---4---5---5---2---|-2-------------------------|
G|-----0-----------------------0---|---------5-----------------------|-----3-----------3-----0---|
D|---------------------------------|-----3---------------------------|---------3-------3-----0---|
A|-2---2---------------------------|-1---1---------------------------|-------------1---1---------|


A|------------------------------|---------------------------------|------------------------------|
E|------------------------------|---------------------------------|------------------------------|
C|------------------------------|---------------------------------|------------------------------|
G|------------------------------|---------------------------------|-7---9---9--------------------|
D|---------5---7---7------------|---------------------------------|-5---7---7------------5---7---|
A|-0---3---------------5---7----|-3---5---5---5---5---3---0---3---|-------------5---7----3---5---|


A|------------------------------|------------------------------|------------------------------|
E|------------------------------|------------------------------|------------------------------|
C|------------------------------|------------------------------|------------------------------|
G|------------------------------|------------------------------|---------7---9---9------------|
D|-7------------5---7---7-------|------------------------------|---------5---7---7------------|
A|-5----0---3---------------5---|-7----3---5---5---5---5---3---|-0---3---------------5---7----|


A|------------------------------|------------------------------|---------------------------------|
E|------------------------------|------------------------------|---------------------------------|
C|------------------------------|------------------------------|---------------------------------|
G|------------------------------|------------------------------|-----------------7---9---9-------|
D|-5---7---7------------5---7---|-7----------------------------|-----------------5---7---7-------|
A|-3---5---5----0---3-----------|-----5---7----3---5---5---5---|-5---3---0---3---------------5---|


A|---------------------------|------------------------------|---------------------------------|
E|---------------------------|------------------------------|---------------------------------|
C|---------------------------|------------------------------|---------------------------------|
G|---------------------------|------------------------------|-------------------------7---9---|
D|------5---7---7------------|-5---7---7--------------------|-------------------------5---7---|
A|-7----3---5---5----0---3---|-------------5---7----3---5---|-5---5---5---3---0---3-----------|


A|------------------------------|-----------------------------------|---------------------------------|
E|------------------------------|-----------------------------------|---------------------------------|
C|------------------------------|-----------------------------------|---------------------------------|
G|-9------------------------7---|-7---------------------------------|-----------------5----7--7---4---|
D|-7------------------------5---|-5--------------------7-----7------|---------7---5-------------------|
A|-----5---7----3---5---3-------|-----0---3---2---0-------------0---|-0---0---------------------------|


A|-----------------------------------------|-------------------------------------|
E|-----------------------------------------|-------------------------------------|
C|-----------------------------------------|--------------4--4---7---7-----------|
G|-4---------------------------------------|---------5---------------------------|
D|----5-------------7-----7----------------|-7---5----------------------5--5--5--|
A|---------0--0--0-----------0---0---0--0--|-------------------------------------|


A|-----------------------------------------|---------------------------------|-----------------------------------|
E|-----------------------------------------|---------------------------------|-----------------------------------|
C|-----------------------------------------|---------------------------------|--------------------------------4--|
G|-----------------------------------------|-5----7--7---4---4---------------|---------------------------5-------|
D|-------5--7-----7----------------7---5---|--------------------5---------7--|----7--------------7---5-----------|
A|-5--7--------------0---0---0--0----------|-------------------------0-------|-------0---0---0-------------------|


A|-----------------------------------|---------------------------------|---------------------------------------|
E|-----------------------------------|---------------------------------|---------------------------------------|
C|-4---7---7-------------------------|---------------------------------|---------------------------------------|
G|-----------------------------------|-----------------5----7--7---4---|-4-------------------------------------|
D|------------5---------7-----7------|---------7---5-------------------|----5----3----3-----3--3---3--3--3--3--|
A|-----------------0-------------0---|-0---0---------------------------|---------------------------------------|


A|---------------------------------|---------------------------------------|---------------------------------|
E|---------------------------------|---------------------------------------|---------------------------------|
C|---------------------------------|---------------------------------------|---------------------------------|
G|----------------------------4----|---------------------------------------|-5----7--7---4---4---------------|
D|-3---5--------2--2---5---5-------|------7-----7------------------7---5---|--------------------5----3----5--|
A|---------3-----------------------|-0-------------0---0--0--0--0----------|---------------------------------|


A|---------------------------------|---------------------------------|---------------------------------|
E|---------------------------------|---------------------------------|---------------------------------|
C|---------------------------------|---------4-----------4---4-------|-4-------------------------------|
G|---------------------------------|---------2----0--0---2---2--0----|-2---5---7----0--0---5---5--4----|
D|-5---2---2------------2--2-------|---------------------------------|---------------------------------|
A|------------3----5-----------3---|-3--2----------------------------|---------------------------------|


A|---------------------------------|---------------------------------|---------------------------------|
E|---------------------------------|---------------------------------|---------------------------------|
C|-4-----------4---4-------4-------|-7-------------------4-----------|-4---4-------4-------------------|
G|-2----0--0---2---2--0----2---5---|------5--5---7---0---2----0--0---|-2---2--0----2---5---7----0--0---|
D|---------------------------------|---------------------------------|---------------------------------|
A|---------------------------------|---------------------------------|---------------------------------|


A|-----------------------------------|---------------------------------|----------------|
E|-----------------------------------|---------------------------------|----------------|
C|-------------4-----------4---4-----|-----4-------7----6--6-----------|-4---4----------|
G|-5---5--4----2----0--0---2---2--0--|-----2---5---------------7---5---|-2---2----------|
D|-----------------------------------|---------------------------------|----------------|
A|-----------------------------------|---------------------------------|----------------|


A|--------|--------|--------|--------|--------|--------|--------|--------|--------|
E|--------|--------|--------|--------|--------|--------|--------|--------|--------|
C|--------|--------|--------|--------|--------|--------|--------|--------|--------|
G|--------|--------|--------|--------|--------|--------|--------|--------|--------|
D|--------|--------|--------|--------|--------|--------|--------|--------|--------|
A|--------|--------|--------|--------|--------|--------|--------|--------|--------|


A|--------|--------|--------|--------|--------|-------------------------|-----------------------------------|
E|--------|--------|--------|--------|--------|-------------------------|-----------------------------------|
C|--------|--------|--------|--------|--------|-------------------------|-----------------------------------|
G|--------|--------|--------|--------|--------|-------------------------|-----------------------------------|
D|--------|--------|--------|--------|--------|-------------------------|-------------------3---2-------5---|
A|--------|--------|--------|--------|--------|-------0---0--0--0---0---|-2---3---3--3--3-----------5-------|


A|-----------------------------------|-----------------------------------|-----------------------------------|
E|-----------------------------------|-----------------------------------|-----------------------------------|
C|-----------------------------------|-----------------------------------|-----------------------------------|
G|-----------------------------------|-------------------4-------2-------|-----------------------------------|
D|-----------------------------------|-----------3---2-------5-------5---|-3---2-----------------------------|
A|-3---2---0---0--0--0---0---2---3---|-3--3--3---------------------------|---------0---0--0--0---0---2---3---|


A|-----------------------------------|-------------------------------------|---------------------------------|
E|-----------------------------------|-------------------------------------|---------------------------------|
C|-----------------------------------|-------------------------------------|---------------------------------|
G|-----------------------------------|-------------------------------------|---------4-------2---------------|
D|-----------3---2-------5-----------|-------------------------------------|-3---2-------5-------5---3---2---|
A|-3--3--3-----------5-------3---2---|-0---0--0--0---0---2---3---3--3--3---|---------------------------------|


A|-------------------------------------|-----------------------------------|-------------------------------------|
E|-------------------------------------|-----------------------------------|-------------------------------------|
C|-------------------------------------|-----------------------------------|-------------------------------------|
G|-9-------------9---11--12------------|-12--12--7-------------7---7---4---|-----------4---4---9-------------9---|
D|-7---7--7--7---7---9---10--10-10-10--|-10--10--5---5--5--5---5---5---2---|-2--2--2---2---2---7---7--7--7---7---|
A|-------------------------------------|-----------------------------------|-------------------------------------|


A|-------------------------------------|-------------------------------------|-------------------------------------|
E|-------------------------------------|-------------------------------------|-------------------------------------|
C|-------------------------------------|-------------------------------------|-------------------------------------|
G|-11--12------------12--12--7---------|-----7---7---------------------------|-------------------------------------|
D|-9---10--10-10-10--10--10--5---5--5--|-5---5---5---3---2--0----------------|---------------------------------3---|
A|-------------------------------------|-----------------------3---2--3--0---|-0--0--0---0---2---3---3--3--3-------|


A|-----------------------------------|-----------------------------------|---------------------------|
E|-----------------------------------|-----------------------------------|---------------------------|
C|-----------------------------------|-----------------------------------|---------------------------|
G|-----------------------------------|-------------------------------4---|-----2---------------------|
D|-2-------5-------------------------|-----------------------3---2-------|-5-------5---3---2---------|
A|-----5-------3---2---0---0--0--0---|-0---2---3---3--3--3---------------|---------------------------|


A|--------|--------|--------|--------|--------|--------|--------|--------|--------|
E|--------|--------|--------|--------|--------|--------|--------|--------|--------|
C|--------|--------|--------|--------|--------|--------|--------|--------|--------|
G|--------|--------|--------|--------|--------|--------|--------|--------|--------|
D|--------|--------|--------|--------|--------|--------|--------|--------|--------|
A|--------|--------|--------|--------|--------|--------|--------|--------|--------|


A|--------|----------------|-------------------------------------|-----------------------------------|
E|--------|----------------|-------------------------------------|-----------------------------------|
C|--------|----------------|-------------------------------------|-----------------------------------|
G|--------|----------------|-------------------------------------|-----------------------------------|
D|--------|----------------|---------------------------------3---|-2-------5-------------------------|
A|--------|------------0---|-0--0--0---0---2---3---3--3--3-------|-----5-------3---2---0---0--0--0---|


A|-------------------------------------|-----------------------------------|-----------------------------------|
E|-------------------------------------|-----------------------------------|-----------------------------------|
C|-------------------------------------|-----------------------------------|-----------------------------------|
G|-------------------------------------|-----------------------------------|-----------------------------------|
D|-7---------------------------10--9---|-----7-----------------------------|---------7---7--7--7---9---10--5---|
A|-----10-8--7---7--7--7---10----------|-10------10--8---7---8---8--8--8---|-8---10----------------------------|


A|-------------------------------------|-------------------------------------|-----------------------------------|
E|-------------------------------------|-------------------------------------|-----------------------------------|
C|-------------------------------------|-------------------------------------|-----------------------------------|
G|-------------------------------------|-------------------5-------------5---|-4---------------------------------|
D|-5--5--------------------------------|---------------7-------5---5--5------|-----7---5-------------------------|
A|-------8---7---5---5--5--5---5---7---|-8---8--8--8-------------------------|-------------7---7--7--7---8---10--|


A|-----------------------------------|---------------------------------|-------------------------------------|
E|-----------------------------------|---------------------------------|-------------------------------------|
C|-----------------------------------|---------------------------------|-------------------------------------|
G|-----------------------7---9---10--|-----------------7---9---10------|-------------------------------------|
D|-7---7--7--7---9---10--------------|-5---7---9---10--------------8---|-------------------------------------|
A|-----------------------------------|---------------------------------|-8---0---0--0--0---0---2---3---3--3--|


A|---------------------------------|-------------------------------------|---------------------------------|
E|---------------------------------|-------------------------------------|---------------------------------|
C|---------------------------------|-------------------------------------|---------------------------------|
G|---------------------------------|-------------------------------------|-----4-------2-------------------|
D|-----3---2-------5---------------|---------------------------------3---|-2-------5-------5---3---2-------|
A|-3-----------5-------3---2---0---|-0--0--0---0---2---3---3--3--3-------|-----------------------------0---|


A|-------------------------------------|-----------------------------------|-----------------------------------|
E|-------------------------------------|-----------------------------------|-----------------------------------|
C|-------------------------------------|-----------------------------------|-----------------------------------|
G|-------------------------------------|-----------------------------------|-------------------------------4---|
D|---------------------------------3---|-2-------5-------------------------|-----------------------3---2-------|
A|-0--0--0---0---2---3---3--3--3-------|-----5-------3---2---0---0--0--0---|-0---2---3---3--3--3---------------|


A|-----------------------------------|-----------------------------------|-------------------------------------|
E|-----------------------------------|-----------------------------------|-------------------------------------|
C|-----------------------------------|-----------------------------------|-------------------------------------|
G|-----2---------------9-------------|-9---11--12------------12--12--7---|-----------7---7---4-------------4---|
D|-5-------5---3---2---7---7--7--7---|-7---9---10--10-10-10--10--10--5---|-5--5--5---5---5---2---2--2--2---2---|
A|-----------------------------------|-----------------------------------|-------------------------------------|


A|-------------------------------------|-----------------------------------|---------------------------------------|
E|-------------------------------------|-----------------------------------|---------------------------------------|
C|-------------------------------------|-----------------------------------|---------------------------------------|
G|-4---9-------------9---11--12--------|-----12--12--7-------------7---7---|---------------------------------------|
D|-2---7---7--7--7---7---9---10--10-10-|-10--10--10--5---5--5--5---5---5---|-3---2--0------------------------------|
A|-------------------------------------|-----------------------------------|-----------3---2--3--0---0--0--0---0---|


A|-----------------------------------|-----------------------------------|-----------------------------------|
E|-----------------------------------|-----------------------------------|-----------------------------------|
C|-----------------------------------|-----------------------------------|-----------------------------------|
G|-----------------------------------|-----------------------------------|-------------------4-------2-------|
D|-------------------3---2-------5---|-----------------------------------|-----------3---2-------5-------5---|
A|-2---3---3--3--3-----------5-------|-3---2---0---0--0--0---0---2---3---|-3--3--3---------------------------|


A|-----------------------------------|-----------------------------------|---------------------------------|
E|-----------------------------------|-----------------------------------|---------------------------------|
C|-----------------------------------|-----------------------------------|---------------------------------|
G|-----------------------------------|-------------------7---9---10------|-------------7---9---10----------|
D|-3---5-------------------------7---|-7--7--7---9---10--------------5---|-7---9---10--------------8-------|
A|---------7---7--7--7---8---10------|-----------------------------------|-----------------------------8---|


A|---------------------------------|---------------------------------|---------------------------------|
E|---------------------------------|---------------------------------|---------------------------------|
C|-4-----------4---4-------4-------|-------------------------4-------|-----4---4-------4-------7-------|
G|-2----0--0---2---2--0----2---5---|-7----0--0---5---5--4----2----0--|-0---2---2--0----2---5--------5--|
D|---------------------------------|---------------------------------|---------------------------------|
A|---------------------------------|---------------------------------|---------------------------------|


A|-----------------------------------|-----------------------------------|---------------------------------|
E|-----------------------------------|-----------------------------------|---------------------------------|
C|-------------4-----------4---4-----|-----4-----------------------------|-----4-----------4---4-------4---|
G|-5---7---0---2----0--0---2---2--0--|-----2---5---7----0--0---5---5--4--|-----2----0--0---2---2--0----2---|
D|-----------------------------------|-----------------------------------|---------------------------------|
A|-----------------------------------|-----------------------------------|---------------------------------|


A|---------------------------------|---------------------------------|---------------------------------|
E|---------------------------------|---------------------------------|---------------------------------|
C|-----7----6--6-----------4-------|-----4---4-------4---------------|-----------------4-----------4---|
G|-5---------------7---5---2----0--|-0---2---2--0----2---5---7----0--|-0---5---5--4----2----0--0---2---|
D|---------------------------------|---------------------------------|---------------------------------|
A|---------------------------------|---------------------------------|---------------------------------|


A|---------------------------------|---------------------------------|---------------------------------|
E|---------------------------------|---------------------------------|---------------------------------|
C|-4-------4-------7---------------|-----4-----------4---4-------4---|-----------------------------4---|
G|-2--0----2---5--------5--5---7---|-0---2----0--0---2---2--0----2---|-5---7----0--0---5---5--4----2---|
D|---------------------------------|---------------------------------|---------------------------------|
A|---------------------------------|---------------------------------|---------------------------------|


A|-----------------------------------|---------------------------------------|-----------------------------------------|
E|-----------------------------------|---------------------------------------|-----------------------------------------|
C|-----------4---4-------4-------7---|----6--6-------------------------------|-----------------------------------------|
G|----0--0---2---2--0----2---5-------|-----------7---5-----------------------|-----------------------------------------|
D|-----------------------------------|---------------------------------------|-----------------------------------------|
A|-----------------------------------|-------------------5---5--5--5--5--5---|-3---3--3--3--3--3---2---2--2--2--2--2---|


A|-----------------------------------------|-----------------------------------------|
E|-----------------------------------------|-----------------------------------------|
C|-----------------------------------------|-----------------------------------------|
G|-----------------------------------------|-----------------------------------------|
D|---------------------12--12-12-12-12-12--|-10--10-10-10-10-10--9---9--9--9--9--9---|
A|-1---1--1--1--1--1-----------------------|-----------------------------------------|


A|---------------------------------|-----------------------|---------------------------|
E|---------------------------------|-----------------------|---------------------------|
C|---------------------------------|-----------------------|---------------------------|
G|---------------------------------|-------7----7--7---7---|-7-------------------------|
D|-8---8--8--8--8--8--0--5-----5---|-5-----5----5--5---5---|-5-------------------------|
A|-----------------------3-----3---|-3---------------------|-------5---5--5--5--5--5---|


A|-----------------------------------------|-----------------------------------------|
E|-----------------------------------------|-----------------------------------------|
C|-----------------------------------------|-----------------------------------------|
G|-----------------------------------------|-----------------------------------------|
D|-----------------------------------------|---------------------12--12-12-12-12-12--|
A|-3---3--3--3--3--3---2---2--2--2--2--2---|-1---1--1--1--1--1-----------------------|


A|-----------------------------------------|---------------------------------|-----------------------|
E|-----------------------------------------|---------------------------------|-----------------------|
C|-----------------------------------------|---------------------------------|-----------------------|
G|-----------------------------------------|---------------------------------|-------7----7--7---7---|
D|-10--10-10-10-10-10--9---9--9--9--9--9---|-8---8--8--8--8--8--0--5-----5---|-5-----5----5--5---5---|
A|-----------------------------------------|-----------------------3-----3---|-3---------------------|


A|--------------------|--------------------|-----------------------|-----------------------0---|
E|--------------------|--------------------|-------------------3---|-3-----------------3-------|
C|------------6---7---|-7----------6---7---|-7-------------2-------|-----2---------2-----------|
G|-7----------7-------|------------7-------|-----------0-----------|-----------0---0-----------|
D|-5-----0------------|-------0----0-------|-----------------------|---------------------------|
A|--------------------|--------------------|-------3---3-----------|---------------------------|


A|-0----------------------|--------------------|---------------------------|-----------------------0---|
E|-----3------------------|--------------------|-----------------------3---|-3-----------------3-------|
C|----------------6---7---|-7----------6---7---|-7----6------------2-------|-----2---------2-----------|
G|----------------7-------|------------7-------|---------------0-----------|-----------0---0-----------|
D|-----------0----0-------|-------0----0-------|---------------------------|---------------------------|
A|------------------------|--------------------|-----------3---3-----------|---------------------------|


A|-0----------------------|--------------------|---------------------------|-----------------------------0---|
E|-----3------------------|--------------------|-----------------------3---|-3-------------------------------|
C|----------------6---7---|-7----------6---7---|-7----6------------2-------|-----2---0---------------2-------|
G|----------------7-------|------------7-------|---------------0-----------|-------------0-------0-----------|
D|-----------0----0-------|-------0----0-------|---------------------------|---------------------------------|
A|------------------------|--------------------|-----------3---3-----------|-----------------2---2-----------|


A|-0---------------------------0---|-0---------------------------0---|-0----------------------------|
E|-----3-------------------0-------|-----0-------0-----------0-------|-----0--------------------3---|
C|---------2-----------------------|---------------------------------|----------------------2-------|
G|-------------0-------7-----------|---------7-----------6-----------|----------6-------0-----------|
D|---------------------------------|---------------------------------|------------------------------|
A|-----------------5---5-----------|-----------------4---4-----------|--------------3---3-----------|


A|-----------------------------0---|-0-------------------------------|------------------------------|
E|-3-------------------------------|-----3---------------------------|---------------------8----8---|
C|-----2---0---------------2-------|---------2-------------------4---|-4---5---5---10--10-----------|
G|-------------0-------0-----------|-------------0-----------5-------|------------------------------|
D|---------------------------------|---------------------3-----------|------------------------------|
A|-----------------2---2-----------|-----------------1---1-----------|------------------------------|


A|------------------------------|------------------------------|---------------------------------|
E|-8---10---10------------------|------------------------------|---------------------------------|
C|------------------------------|------------------------------|---------------------------------|
G|------------------------------|------------------------------|-----------------7---9---9-------|
D|----------------------5---7---|-7----------------------------|-----------------5---7---7-------|
A|--------------0---3-----------|-----5---7----3---5---5---5---|-5---3---0---3---------------5---|


A|---------------------------|------------------------------|---------------------------------|
E|---------------------------|------------------------------|---------------------------------|
C|---------------------------|------------------------------|---------------------------------|
G|---------------------------|------------------------------|-------------------------7---9---|
D|------5---7---7------------|-5---7---7--------------------|-------------------------5---7---|
A|-7----3---5---5----0---3---|-------------5---7----3---5---|-5---5---5---3---0---3-----------|


A|---------------------------|------------------------------|---------------------------------|
E|---------------------------|------------------------------|---------------------------------|
C|---------------------------|------------------------------|---------------------------------|
G|-9-------------------------|------------------------------|---------------------------------|
D|-7------------5---7---7----|---------5---7---7------------|---------------------------------|
A|-----5---7----3---5---5----|-0---3---------------5---7----|-3---5---5---5---5---3---0---3---|


A|------------------------------|------------------------------|------------------------------|
E|------------------------------|------------------------------|------------------------------|
C|------------------------------|------------------------------|------------------------------|
G|-7---9---9--------------------|------------------------------|------------------------------|
D|-5---7---7------------5---7---|-7------------5---7---7-------|------------------------------|
A|-------------5---7----3---5---|-5----0---3---------------5---|-7----3---5---5---5---5---3---|


A|------------------------------|---------------------------------|--------|--------|
E|------------------------------|---------------------------------|--------|--------|
C|------------------------------|---------------------------------|-2------|-2------|
G|---------7---9---9------------|-------------7---7---------------|-2------|-2------|
D|---------5---7---7------------|-------------5---5-------3---2---|-0------|-0------|
A|-0---3---------------5---7----|-3---5---3-----------0-----------|--------|--------|


A|--------|--------|--------|--------|--------|--------|--------|--------|--------|
E|--------|--------|--------|--------|--------|--------|--------|--------|--------|
C|-2------|-2------|--------|--------|--------|--------|--------|--------|--------|
G|-2------|-2------|--------|--------|--------|--------|--------|--------|--------|
D|-0------|-0------|--------|--------|--------|--------|--------|--------|--------|
A|--------|--------|--------|--------|--------|--------|--------|--------|--------|


A|--------|--------|--------|--------|--------|--------|
E|--------|--------|--------|--------|--------|--------|
C|--------|--------|--------|--------|--------|--------|
G|--------|--------|--------|--------|--------|--------|
D|--------|--------|--------|--------|--------|--------|
A|--------|--------|--------|--------|--------|--------|





Track 4: Distorted Electric, Standard Tuning

E|--------|--------|--------|--------|--------|--------|--------|--------|--------|
B|--------|--------|--------|--------|--------|--------|--------|--------|--------|
G|--------|--------|--------|--------|--------|--------|--------|--------|--------|
D|--------|--------|--------|--------|--------|--------|--------|--------|--------|
A|--------|--------|--------|--------|--------|--------|--------|--------|--------|
E|--------|--------|--------|--------|--------|--------|--------|--------|--------|


E|--------|--------|--------|--------|--------|--------|--------|--------|--------|
B|--------|--------|--------|--------|--------|--------|--------|--------|--------|
G|--------|--------|--------|--------|--------|--------|--------|--------|--------|
D|--------|--------|--------|--------|--------|--------|--------|--------|--------|
A|--------|--------|--------|--------|--------|--------|--------|--------|--------|
E|--------|--------|--------|--------|--------|--------|--------|--------|--------|


E|--------|--------|--------|--------|--------|--------|--------|--------|--------|
B|--------|--------|--------|--------|--------|--------|--------|--------|--------|
G|--------|--------|--------|--------|--------|--------|--------|--------|--------|
D|--------|--------|--------|--------|--------|--------|--------|--------|--------|
A|--------|--------|--------|--------|--------|--------|--------|--------|--------|
E|--------|--------|--------|--------|--------|--------|--------|--------|--------|


E|--------|--------|--------|--------|--------|--------|--------|--------|--------|
B|--------|--------|--------|--------|--------|--------|--------|--------|--------|
G|--------|--------|--------|--------|--------|--------|--------|--------|--------|
D|--------|--------|--------|--------|--------|--------|--------|--------|--------|
A|--------|--------|--------|--------|--------|--------|--------|--------|--------|
E|--------|--------|--------|--------|--------|--------|--------|--------|--------|


E|--------|--------|--------|--------|--------|--------|--------|--------|--------|
B|--------|--------|--------|--------|--------|--------|--------|--------|--------|
G|--------|--------|--------|--------|--------|--------|--------|--------|--------|
D|--------|--------|--------|--------|--------|--------|--------|--------|--------|
A|--------|--------|--------|--------|--------|--------|--------|--------|--------|
E|--------|--------|--------|--------|--------|--------|--------|--------|--------|


E|--------|--------|--------|--------|--------|--------|--------|--------|--------|
B|--------|--------|--------|--------|--------|--------|--------|--------|--------|
G|--------|--------|--------|--------|--------|--------|--------|--------|--------|
D|--------|--------|--------|--------|--------|--------|--------|--------|--------|
A|--------|--------|--------|--------|--------|--------|--------|--------|--------|
E|--------|--------|--------|--------|--------|--------|--------|--------|--------|


E|--------|--------|--------|--------|--------|--------|--------|--------|--------|
B|--------|--------|--------|--------|--------|--------|--------|--------|--------|
G|--------|--------|--------|--------|--------|--------|--------|--------|--------|
D|--------|--------|--------|--------|--------|--------|--------|--------|--------|
A|--------|--------|--------|--------|--------|--------|--------|--------|--------|
E|--------|--------|--------|--------|--------|--------|--------|--------|--------|


E|--------|--------|------------------------------|---------------------------------|
B|--------|--------|------------------------------|---------------------------------|
G|--------|--------|------------------------------|---------------------------------|
D|--------|--------|---------5---7---7------------|---------------------------------|
A|--------|--------|-0---3---------------5---7----|-3---5---5---5---5---3---0---3---|
E|--------|--------|------------------------------|---------------------------------|


E|------------------------------|------------------------------|------------------------------|
B|------------------------------|------------------------------|------------------------------|
G|------------------------------|-14---------------------------|------------------------------|
D|----------------------5---7---|-14-----------5---7---7-------|------------------------------|
A|-5---7---7---5---7----3---5---|------0---3---------------5---|-7----3---5---5---5---5---3---|
E|-3---5---5--------------------|------------------------------|------------------------------|


E|------------------------------|---------------------------------|--------|--------|
B|------------------------------|---------------------------------|-3------|-3------|
G|------------------------------|---------------------------------|-2------|-2------|
D|------------------------------|---------------------------------|-0------|-0------|
A|-0---3---5---7---7---5---7----|-3---5---3---5---5---0-----------|-0------|-0------|
E|---------3---5---5------------|-------------3---3-------1---0---|--------|--------|


E|--------|--------|--------|--------|--------|--------|--------|--------|--------|
B|-3------|-3------|--------|--------|--------|--------|--------|--------|--------|
G|-2------|-2------|--------|--------|--------|--------|--------|--------|--------|
D|-0------|-0------|--------|--------|--------|--------|--------|--------|--------|
A|-0------|-0------|--------|--------|--------|--------|--------|--------|--------|
E|--------|--------|--------|--------|--------|--------|--------|--------|--------|


E|--------|--------|--------|--------|--------|--------|--------|--------|--------|
B|--------|--------|--------|--------|--------|--------|--------|--------|--------|
G|--------|--------|--------|--------|--------|--------|--------|--------|--------|
D|--------|--------|--------|--------|--------|--------|--------|--------|--------|
A|--------|--------|--------|--------|--------|--------|--------|--------|--------|
E|--------|--------|--------|--------|--------|--------|--------|--------|--------|


E|--------|--------|--------|--------|--------|--------|--------|--------|--------|
B|--------|--------|--------|--------|--------|--------|--------|--------|--------|
G|--------|--------|--------|--------|--------|--------|--------|--------|--------|
D|--------|--------|--------|--------|--------|--------|--------|--------|--------|
A|--------|--------|--------|--------|--------|--------|--------|--------|--------|
E|--------|--------|--------|--------|--------|--------|--------|--------|--------|


E|--------|--------|--------|------------------------------|---------------------------------|
B|--------|--------|--------|------------------------------|---------------------------------|
G|--------|--------|--------|------------------------------|---------------------------------|
D|--------|--------|--------|---------5---7---7------------|---------------------------------|
A|--------|--------|--------|-0---3---------------5---7----|-3---5---5---5---5---3---0---3---|
E|--------|--------|--------|------------------------------|---------------------------------|


E|------------------------------|------------------------------|------------------------------|
B|------------------------------|------------------------------|------------------------------|
G|------------------------------|-14---------------------------|------------------------------|
D|----------------------5---7---|-14-----------5---7---7-------|------------------------------|
A|-5---7---7---5---7----3---5---|------0---3---------------5---|-7----3---5---5---5---5---3---|
E|-3---5---5--------------------|------------------------------|------------------------------|


E|------------------------------|------------------------------|------------------------------|
B|------------------------------|------------------------------|------------------------------|
G|------------------------------|------------------------------|------------------------------|
D|------------------------------|-5---7---7------------5---7---|-7----------------------------|
A|-0---3---5---7---7---5---7----|-3---5---5----0---3-----------|-----5---7----3---5---5---5---|
E|---------3---5---5------------|------------------------------|------------------------------|


E|---------------------------------|---------------------------|------------------------------|
B|---------------------------------|---------------------------|------------------------------|
G|---------------------------------|--------------14-----------|------------------------------|
D|---------------------------------|------5---7---14-----------|-5---7---7--------------------|
A|-5---3---0---3---5---7---7---5---|-7----3---5--------0---3---|-------------5---7----3---5---|
E|-----------------3---5---5-------|---------------------------|------------------------------|


E|---------------------------------|------------------------------|-----------------------|
B|---------------------------------|------------------------------|-----------------------|
G|---------------------------------|------------------------------|-----------------------|
D|---------------------------------|------------------------------|-----------------------|
A|-5---5---5---3---0---3---5---7---|-7---5---7----3---5---3---5---|-5---0---3---2---------|
E|-------------------------3---5---|-5------------------------3---|-3---------------------|


E|--------|--------|--------|--------|--------|--------|--------|--------|--------|
B|--------|--------|--------|--------|--------|--------|--------|--------|--------|
G|--------|--------|--------|--------|--------|--------|--------|--------|--------|
D|--------|--------|--------|--------|--------|--------|--------|--------|--------|
A|--------|--------|--------|--------|--------|--------|--------|--------|--------|
E|--------|--------|--------|--------|--------|--------|--------|--------|--------|


E|--------|--------|--------|--------|--------|--------|--------|--------|--------|
B|--------|--------|--------|--------|--------|--------|--------|--------|--------|
G|--------|--------|--------|--------|--------|--------|--------|--------|--------|
D|--------|--------|--------|--------|--------|--------|--------|--------|--------|
A|--------|--------|--------|--------|--------|--------|--------|--------|--------|
E|--------|--------|--------|--------|--------|--------|--------|--------|--------|


E|--------|--------|--------|--------|--------|--------|--------|--------|--------|
B|--------|--------|--------|--------|--------|--------|--------|--------|--------|
G|--------|--------|--------|--------|--------|--------|--------|--------|--------|
D|--------|--------|--------|--------|--------|--------|--------|--------|--------|
A|--------|--------|--------|--------|--------|--------|--------|--------|--------|
E|--------|--------|--------|--------|--------|--------|--------|--------|--------|


E|--------|--------|--------|--------|--------|--------|--------|--------|-------------------------|
B|--------|--------|--------|--------|--------|--------|--------|--------|-------------------------|
G|--------|--------|--------|--------|--------|--------|--------|--------|-------------------------|
D|--------|--------|--------|--------|--------|--------|--------|--------|-------2-------------2---|
A|--------|--------|--------|--------|--------|--------|--------|--------|-------0---0--0--0---0---|
E|--------|--------|--------|--------|--------|--------|--------|--------|-------------------------|


E|-----------------------------------|-----------------------------------|-----------------------------------|
B|-----------------------------------|-----------------------------------|-----------------------------------|
G|-------------------5---4-----------|-----------------------------------|-----------5---4---4-------2-------|
D|-4---5-------------3---2-------5---|---------2-------------2---4---5---|-----------3---2-------5-------5---|
A|-2---3---3--3--3-----------5-------|-3---2---0---0--0--0---0---2---3---|-3--3--3---------------------------|
E|-----------------------------------|-----------------------------------|-----------------------------------|


E|-----------------------------------|-----------------------------------|-------------------------------------|
B|-----------------------------------|-----------------------------------|-------------------------------------|
G|-----------------------------------|-----------5---4-------------------|-------------------------------------|
D|-3---2---2-------------2---4---5---|-----------3---2-------5-----------|-2-------------2---4---5-------------|
A|---------0---0--0--0---0---2---3---|-3--3--3-----------5-------3---2---|-0---0--0--0---0---2---3---3--3--3---|
E|-----------------------------------|-----------------------------------|-------------------------------------|


E|---------------------------------|-------------------------------------|-----------------------------------|
B|---------------------------------|-------------------------------------|-----------------------------------|
G|-5---4---4-------2---------------|-------------------------------------|-----------------------------------|
D|-3---2-------5-------5---3---2---|-------------------------------------|-----------------------------------|
A|---------------------------------|-7-------------7---9---10------------|-10--10--5-------------5---5---2---|
E|---------------------------------|-5---5--5--5---5---7---8---8--8--8---|-8---8---3---3--3--3---3---3---0---|


E|-------------------------------------|-------------------------------------|-------------------------------------|
B|-------------------------------------|-------------------------------------|-------------------------------------|
G|-------------------------------------|-------------------------------------|-------------------------------------|
D|-------------------------------------|-------------------------------------|-------------3---2--0------------2---|
A|-----------2---2---7-------------7---|-9---10------------10--10--5---------|-----5---5-------------3---2--3--0---|
E|-0--0--0---0---0---5---5--5--5---5---|-7---8---8--8--8---8---8---3---3--3--|-3---3---3---------------------------|


E|-------------------------------------|-----------------------------------|-----------------------------------|
B|-------------------------------------|-----------------------------------|-----------------------------------|
G|---------------------------------5---|-4---------------------------------|-----------------------5---4---4---|
D|-----------2---4---5-------------3---|-2-------5-----------2-------------|-2---4---5-------------3---2-------|
A|-0--0--0---0---2---3---3--3--3-------|-----5-------3---2---0---0--0--0---|-0---2---3---3--3--3---------------|
E|-------------------------------------|-----------------------------------|-----------------------------------|


E|---------------------------|--------|--------|--------|--------|--------|--------|
B|---------------------------|--------|--------|--------|--------|--------|--------|
G|-----2---------------------|--------|--------|--------|--------|--------|--------|
D|-5-------5---3---2---------|--------|--------|--------|--------|--------|--------|
A|---------------------------|--------|--------|--------|--------|--------|--------|
E|---------------------------|--------|--------|--------|--------|--------|--------|


E|--------|--------|--------|--------|--------|--------|--------|--------|--------|
B|--------|--------|--------|--------|--------|--------|--------|--------|--------|
G|--------|--------|--------|--------|--------|--------|--------|--------|--------|
D|--------|--------|--------|--------|--------|--------|--------|--------|--------|
A|--------|--------|--------|--------|--------|--------|--------|--------|--------|
E|--------|--------|--------|--------|--------|--------|--------|--------|--------|


E|--------|--------|--------|--------|--------|--------|-------------------------------------|
B|--------|--------|--------|--------|--------|--------|-------------------------------------|
G|--------|--------|--------|--------|--------|--------|-------------------------------------|
D|--------|--------|--------|--------|--------|--------|-----2-------------2---4---5---------|
A|--------|--------|--------|--------|--------|--------|-----0---0--0--0---0---2---3---3--3--|
E|--------|--------|--------|--------|--------|--------|-------------------------------------|


E|---------------------------------|-------------------------------------|---------------------------------|
B|---------------------------------|-------------------------------------|---------------------------------|
G|-----5---4-----------------------|---------------------------------5---|-4---4-------2-------------------|
D|-----3---2-------5-----------2---|-----------2---4---5-------------3---|-2-------5-------5---3---2---2---|
A|-3-----------5-------3---2---0---|-0--0--0---0---2---3---3--3--3-------|-----------------------------0---|
E|---------------------------------|-------------------------------------|---------------------------------|


E|-------------------------------------|-----------------------------------|-----------------------------------|
B|-------------------------------------|-----------------------------------|-----------------------------------|
G|---------------------------------5---|-4---------------------------------|-----------------------5---4---4---|
D|-----------2---4---5-------------3---|-2-------5-----------2-------------|-2---4---5-------------3---2-------|
A|-0--0--0---0---2---3---3--3--3-------|-----5-------3---2---0---0--0--0---|-0---2---3---3--3--3---------------|
E|-------------------------------------|-----------------------------------|-----------------------------------|


E|-----------------------------------|-----------------------------------|-------------------------------------|
B|-----------------------------------|-----------------------------------|-------------------------------------|
G|-----2-----------------------------|-----------------------------------|-------------------------------------|
D|-5-------5---3---2-----------------|-----------------------------------|-------------------------------------|
A|---------------------7-------------|-7---9---10------------10--10--5---|-----------5---5---2-------------2---|
E|---------------------5---5--5--5---|-5---7---8---8--8--8---8---8---3---|-3--3--3---3---3---0---0--0--0---0---|


E|-------------------------------------|-----------------------------------|---------------------------------------|
B|-------------------------------------|-----------------------------------|---------------------------------------|
G|-------------------------------------|-----------------------------------|---------------------------------------|
D|-------------------------------------|-----------------------------------|-3---2--0------------2-------------2---|
A|-2---7-------------7---9---10--------|-----10--10--5-------------5---5---|-----------3---2--3--0---0--0--0---0---|
E|-0---5---5--5--5---5---7---8---8--8--|-8---8---8---3---3--3--3---3---3---|---------------------------------------|


E|-----------------------------------|-----------------------------------|-----------------------------------|
B|-----------------------------------|-----------------------------------|-----------------------------------|
G|-------------------5---4-----------|-----------------------------------|-----------5---4---4-------2-------|
D|-4---5-------------3---2-------5---|---------2-------------2---4---5---|-----------3---2-------5-------5---|
A|-2---3---3--3--3-----------5-------|-3---2---0---0--0--0---0---2---3---|-3--3--3---------------------------|
E|-----------------------------------|-----------------------------------|-----------------------------------|


E|-----------------------------------|-----------------------------------|---------------------------------|
B|-----------------------------------|-----------------------------------|---------------------------------|
G|-----------------------------------|-----------------------------------|---------------------------------|
D|-3---5-----------------------------|-----------------------------------|---------------------3-----------|
A|-----------------------------------|-------------------5---7---8-------|---------3---5---7-------1-------|
E|---------0---0--0--0---1---3---5---|-5--5--5---7---8---------------3---|-5---7-----------------------1---|


E|--------|--------|--------|--------|--------|--------|--------|--------|--------|
B|--------|--------|--------|--------|--------|--------|--------|--------|--------|
G|--------|--------|--------|--------|--------|--------|--------|--------|--------|
D|--------|--------|--------|--------|--------|--------|--------|--------|--------|
A|--------|--------|--------|--------|--------|--------|--------|--------|--------|
E|--------|--------|--------|--------|--------|--------|--------|--------|--------|


E|--------|--------|--------|--------|----------------15-------19-20-|-19-20-19-15-17-19-17-19-17----------------15-14-------10-|
B|--------|--------|--------|--------|-------------------19-15-------|----------------------------19-------------------15-10----|
G|--------|--------|--------|--------|----------14-19----------------|----------------------------------------------------------|
D|--------|--------|--------|--------|-------------------------------|-------------------------------17-16----------------------|
A|--------|--------|--------|--------|-------------------------------|-------------------------------------17-12----------------|
E|--------|--------|--------|--------|-------------------------------|----------------------------------------------------------|


E|-------------------------------------------15-------19-20-|-22-19----17-19-17-19-17-------------------------------10-12-14-|
B|----------------------------------------------19-15-------|-------20----------------19-------------------------------------|
G|-12-10-9--10-12----------------------14-19----------------|----------------------------------------------12-14-16----------|
D|----------------10-12-14----------------------------------|-------------------------------------12-14-16-------------------|
A|-------------------------10-------------------------------|----------------------------------------------------------------|
E|----------------------------13-12-------------------------|----------------------------15-17-19----------------------------|


E|-15-13-12-----------------------------------------------|-17-15-14----14-15-14----------------------------------17-19-|
B|----------15-13-17--------------------15-------------15-|----------17----------15-------------------------------------|
G|-------------------14--------------------17-16-14-------|-------------------------14-------------------------19-------|
D|----------------------171514----12-17-------------17----|----------------------------17-16-17-19----------17----------|
A|--------------------------------------------------------|----------------------------------------17-19-21-------------|
E|--------------------------------------------------------|-------------------------------------------------------------|


E|-20-19-15-------12--------------------------------------------------|----------15-----------------------------------------15-|
B|----------15-13----15----------------------------------15-----12-13-|-12-----------------------------------------------15----|
G|----------------------14-12-------------11-12-11-----------14-------|----14-12-----11-12-14-12-11-------------14-11-12-------|
D|----------------------------16-14-12-14----------14-12--------------|-----------------------------12-------12----------------|
A|--------------------------------------------------------------------|--------------------------------10-12-------------------|
E|--------------------------------------------------------------------|--------------------------------------------------------|


E|-12-13----------------------------------------------------|-------------------------------------------15-14-------10-|
B|-------15-13-11----13-11----------------------------------|-------------------------------------------------15-10----|
G|----------------14-------------------------12-------16-17-|-16-17-16-12-14-16-14-16-14-------------------------------|
D|-------------------------14-15-12-------------16-12-------|----------------------------16-17-16----------------------|
A|-------------------------------------12-17----------------|-------------------------------------17-12----------------|
E|----------------------------------------------------------|----------------------------------------------------------|


E|-------------------------------------------------------------|-17-15-14----14-15-14----------------------------------17-19-|
B|-------------------------------------------15-------------15-|----------17----------15-------------------------------------|
G|-12-10-9--10-12-------------------------------17-16-14-------|-------------------------14-------------------------19-------|
D|----------------10-12-14-------------12-17-------------17----|----------------------------17-16-17-19----------17----------|
A|-------------------------10----------------------------------|----------------------------------------17-19-21-------------|
E|----------------------------13-12----------------------------|-------------------------------------------------------------|


E|-20-19-15-------12--------------------------------------------------|----------22---------------------------------------------------|
B|----------15-13----15----------------------------------15-----19-20-|-19------------------------------------------------------------|
G|----------------------14-12-------------11-12-11-----------21-------|----21-19-----17-19-16----------------------------19-----------|
D|----------------------------16-14-12-14----------14-12--------------|-----------------------17-19-16----16-17-16--------------------|
A|--------------------------------------------------------------------|--------------------------------19----------19-17-----17-19-21-|
E|--------------------------------------------------------------------|---------------------------------------------------------------|


E|----------------------------19-20-22-22----|-------22----|-------------|-------------|
B|-------------------19-20-22----------------|-------------|-------------|-------------|
G|----------17-19-21-------------------------|-------------|-------------|-------------|
D|-17-19-21----------------------------------|-------------|-------------|-------------|
A|-------------------------------------------|-------------|-------------|-------------|
E|-------------------------------------------|-------------|-------------|-------------|


E|--------|--------|--------|--------|--------|--------|--------|--------|--------|
B|--------|--------|--------|--------|--------|--------|--------|--------|--------|
G|--------|--------|--------|--------|--------|--------|--------|--------|--------|
D|--------|--------|--------|--------|--------|--------|--------|--------|--------|
A|--------|--------|--------|--------|--------|--------|--------|--------|--------|
E|--------|--------|--------|--------|--------|--------|--------|--------|--------|


E|--------|-----------------|------------------------------|------------------------------|
B|--------|-----------------|------------------------------|------------------------------|
G|--------|-------------9---|-9---10--------------9----9---|-9---10---10------------------|
D|--------|-----------------|---------12--12--12-----------|----------------------5---7---|
A|--------|-----------------|------------------------------|--------------0---3-----------|
E|--------|-----------------|------------------------------|------------------------------|


E|------------------------------|---------------------------------|---------------------------|
B|------------------------------|---------------------------------|---------------------------|
G|------------------------------|---------------------------------|--------------14-----------|
D|-7----------------------------|---------------------------------|------5---7---14-----------|
A|-----5---7----3---5---5---5---|-5---3---0---3---5---7---7---5---|-7----3---5--------0---3---|
E|------------------------------|-----------------3---5---5-------|---------------------------|


E|------------------------------|---------------------------------|---------------------------|
B|------------------------------|---------------------------------|---------------------------|
G|------------------------------|---------------------------------|---------------------------|
D|-5---7---7--------------------|---------------------------------|--------------5---7---7----|
A|-------------5---7----3---5---|-5---5---5---3---0---3---5---7---|-7---5---7----3---5---5----|
E|------------------------------|-------------------------3---5---|-5-------------------------|


E|------------------------------|---------------------------------|------------------------------|
B|------------------------------|---------------------------------|------------------------------|
G|------------------------------|---------------------------------|------------------------------|
D|---------5---7---7------------|---------------------------------|----------------------5---7---|
A|-0---3---------------5---7----|-3---5---5---5---5---3---0---3---|-5---7---7---5---7----3---5---|
E|------------------------------|---------------------------------|-3---5---5--------------------|


E|------------------------------|------------------------------|------------------------------|
B|------------------------------|------------------------------|------------------------------|
G|-14---------------------------|------------------------------|------------------------------|
D|-14-----------5---7---7-------|------------------------------|------------------------------|
A|------0---3---------------5---|-7----3---5---5---5---5---3---|-0---3---5---7---7---5---7----|
E|------------------------------|------------------------------|---------3---5---5------------|


E|---------------------------------|--------|--------|--------|--------|--------|--------|
B|---------------------------------|-3------|-3------|-3------|-3------|--------|--------|
G|---------------------------------|-2------|-2------|-2------|-2------|--------|--------|
D|---------------------------------|-0------|-0------|-0------|-0------|--------|--------|
A|-3---5---3---5---5---0-----------|-0------|-0------|-0------|-0------|--------|--------|
E|-------------3---3-------1---0---|--------|--------|--------|--------|--------|--------|


E|--------|--------|--------|--------|--------|--------|--------|--------|--------|
B|--------|--------|--------|--------|--------|--------|--------|--------|--------|
G|--------|--------|--------|--------|--------|--------|--------|--------|--------|
D|--------|--------|--------|--------|--------|--------|--------|--------|--------|
A|--------|--------|--------|--------|--------|--------|--------|--------|--------|
E|--------|--------|--------|--------|--------|--------|--------|--------|--------|


E|--------|--------|
B|--------|--------|
G|--------|--------|
D|--------|--------|
A|--------|--------|
E|--------|--------|





Track 5: Baritone (solo)

A|--------|--------|--------|--------|--------|--------|--------|--------|--------|
E|--------|--------|--------|--------|--------|--------|--------|--------|--------|
C|--------|--------|--------|--------|--------|--------|--------|--------|--------|
G|--------|--------|--------|--------|--------|--------|--------|--------|--------|
D|--------|--------|--------|--------|--------|--------|--------|--------|--------|
A|--------|--------|--------|--------|--------|--------|--------|--------|--------|


A|--------|--------|--------|--------|--------|--------|--------|--------|--------|
E|--------|--------|--------|--------|--------|--------|--------|--------|--------|
C|--------|--------|--------|--------|--------|--------|--------|--------|--------|
G|--------|--------|--------|--------|--------|--------|--------|--------|--------|
D|--------|--------|--------|--------|--------|--------|--------|--------|--------|
A|--------|--------|--------|--------|--------|--------|--------|--------|--------|


A|--------|--------|--------|--------|--------|--------|--------|--------|--------|
E|--------|--------|--------|--------|--------|--------|--------|--------|--------|
C|--------|--------|--------|--------|--------|--------|--------|--------|--------|
G|--------|--------|--------|--------|--------|--------|--------|--------|--------|
D|--------|--------|--------|--------|--------|--------|--------|--------|--------|
A|--------|--------|--------|--------|--------|--------|--------|--------|--------|


A|--------|--------|--------|--------|--------|--------|--------|--------|--------|
E|--------|--------|--------|--------|--------|--------|--------|--------|--------|
C|--------|--------|--------|--------|--------|--------|--------|--------|--------|
G|--------|--------|--------|--------|--------|--------|--------|--------|--------|
D|--------|--------|--------|--------|--------|--------|--------|--------|--------|
A|--------|--------|--------|--------|--------|--------|--------|--------|--------|


A|--------|--------|--------|--------|--------|--------|--------|--------|--------|
E|--------|--------|--------|--------|--------|--------|--------|--------|--------|
C|--------|--------|--------|--------|--------|--------|--------|--------|--------|
G|--------|--------|--------|--------|--------|--------|--------|--------|--------|
D|--------|--------|--------|--------|--------|--------|--------|--------|--------|
A|--------|--------|--------|--------|--------|--------|--------|--------|--------|


A|--------|--------|--------|--------|--------|--------|--------|--------|--------|
E|--------|--------|--------|--------|--------|--------|--------|--------|--------|
C|--------|--------|--------|--------|--------|--------|--------|--------|--------|
G|--------|--------|--------|--------|--------|--------|--------|--------|--------|
D|--------|--------|--------|--------|--------|--------|--------|--------|--------|
A|--------|--------|--------|--------|--------|--------|--------|--------|--------|


A|--------|--------|--------|--------|--------|--------|--------|--------|--------|
E|--------|--------|--------|--------|--------|--------|--------|--------|--------|
C|--------|--------|--------|--------|--------|--------|--------|--------|--------|
G|--------|--------|--------|--------|--------|--------|--------|--------|--------|
D|--------|--------|--------|--------|--------|--------|--------|--------|--------|
A|--------|--------|--------|--------|--------|--------|--------|--------|--------|


A|--------|--------|--------|--------|--------|--------|--------|--------|--------|
E|--------|--------|--------|--------|--------|--------|--------|--------|--------|
C|--------|--------|--------|--------|--------|--------|--------|--------|--------|
G|--------|--------|--------|--------|--------|--------|--------|--------|--------|
D|--------|--------|--------|--------|--------|--------|--------|--------|--------|
A|--------|--------|--------|--------|--------|--------|--------|--------|--------|


A|--------|--------|--------|--------|--------|--------|--------|--------|--------|
E|--------|--------|--------|--------|--------|--------|--------|--------|--------|
C|--------|--------|--------|--------|--------|--------|--------|--------|--------|
G|--------|--------|--------|--------|--------|--------|--------|--------|--------|
D|--------|--------|--------|--------|--------|--------|--------|--------|--------|
A|--------|--------|--------|--------|--------|--------|--------|--------|--------|


A|--------|--------|--------|--------|--------|--------|--------|--------|--------|
E|--------|--------|--------|--------|--------|--------|--------|--------|--------|
C|--------|--------|--------|--------|--------|--------|--------|--------|--------|
G|--------|--------|--------|--------|--------|--------|--------|--------|--------|
D|--------|--------|--------|--------|--------|--------|--------|--------|--------|
A|--------|--------|--------|--------|--------|--------|--------|--------|--------|


A|--------|--------|--------|--------|--------|--------|--------|--------|--------|
E|--------|--------|--------|--------|--------|--------|--------|--------|--------|
C|--------|--------|--------|--------|--------|--------|--------|--------|--------|
G|--------|--------|--------|--------|--------|--------|--------|--------|--------|
D|--------|--------|--------|--------|--------|--------|--------|--------|--------|
A|--------|--------|--------|--------|--------|--------|--------|--------|--------|


A|--------|--------|--------|--------|--------|--------|--------|--------|--------|
E|--------|--------|--------|--------|--------|--------|--------|--------|--------|
C|--------|--------|--------|--------|--------|--------|--------|--------|--------|
G|--------|--------|--------|--------|--------|--------|--------|--------|--------|
D|--------|--------|--------|--------|--------|--------|--------|--------|--------|
A|--------|--------|--------|--------|--------|--------|--------|--------|--------|


A|--------|--------|--------|--------|--------|--------|--------|--------|--------|
E|--------|--------|--------|--------|--------|--------|--------|--------|--------|
C|--------|--------|--------|--------|--------|--------|--------|--------|--------|
G|--------|--------|--------|--------|--------|--------|--------|--------|--------|
D|--------|--------|--------|--------|--------|--------|--------|--------|--------|
A|--------|--------|--------|--------|--------|--------|--------|--------|--------|


A|--------|--------|--------|--------|--------|--------|--------|--------|--------|
E|--------|--------|--------|--------|--------|--------|--------|--------|--------|
C|--------|--------|--------|--------|--------|--------|--------|--------|--------|
G|--------|--------|--------|--------|--------|--------|--------|--------|--------|
D|--------|--------|--------|--------|--------|--------|--------|--------|--------|
A|--------|--------|--------|--------|--------|--------|--------|--------|--------|


A|--------|--------|--------|--------|--------|--------|--------|--------|--------|
E|--------|--------|--------|--------|--------|--------|--------|--------|--------|
C|--------|--------|--------|--------|--------|--------|--------|--------|--------|
G|--------|--------|--------|--------|--------|--------|--------|--------|--------|
D|--------|--------|--------|--------|--------|--------|--------|--------|--------|
A|--------|--------|--------|--------|--------|--------|--------|--------|--------|


A|--------|--------|--------|-----0--3--3--0--------0-----------------------|------------------------------------------|
E|--------|--------|--------|-----------------3--0-----3--0-----------------|------------------------------------------|
C|--------|--------|--------|--------------------------------3--2--0--------|-0----------------------------------------|
G|--------|--------|--------|-----------------------------------------2--0--|----2--0-----2-----0-----------------2----|
D|--------|--------|--------|-----------------------------------------------|----------2-----2-----2--1--0-------------|
A|--------|--------|--------|-----------------------------------------------|-------------------------------3--0-------|


A|-----12----------12----------12----------12----------12----------|-12----------12----------12----------12-------15---|
E|-15-----15-12-15----15-12-15----15-12-15----15-12-15----15-12-15-|----15-12-15----15-12-15----15-12-15----15-12------|
C|-----------------------------------------------------------------|---------------------------------------------------|
G|-----------------------------------------------------------------|---------------------------------------------------|
D|-----------------------------------------------------------------|---------------------------------------------------|
A|-----------------------------------------------------------------|---------------------------------------------------|


A|-15-12----------15--------15----------------------------|---------------------------------------------10-7--|
E|-------15-12-17----17--17----17-15----17----15----------|-----------------------------10--10-8-----8--------|
C|-----------------------------------16----16----14-14-12-|---------------------------------------9-----------|
G|--------------------------------------------------------|-14-12---------------------------------------------|
D|--------------------------------------------------------|-------12-12-10------------------------------------|
A|--------------------------------------------------------|----------------12-10--10--------------------------|


A|-9--109-7--------7-----------------------------7--|-0--------0--12-0--15-0--17-0--19-0--22-15-12----|
E|-----------10-8-----10-9--8--7--------------------|----------------------------------------------15-|
C|--------------------------------9--8--7--8--9-----|----7--8-----------------------------------------|
G|--------------------------------------------------|-------------------------------------------------|
D|--------------------------------------------------|-------------------------------------------------|
A|--------------------------------------------------|-------------------------------------------------|


A|----17-12-10-------14-5--3--------------------10-|----------------14----------------12-14-15----10-12-19-|
E|-12----------12-10----------5--3--0-----7--8-----|-8--7-----10-12----12-10-12-14-15----------12----------|
C|-------------------------------------9-----------|-------12----------------------------------------------|
G|-------------------------------------------------|-------------------------------------------------------|
D|-------------------------------------------------|-------------------------------------------------------|
A|-------------------------------------------------|-------------------------------------------------------|


A|-12-10----12-15-22-15-12-22-15-12-21-15-12-------------------|-19-15-14-17-15-14-------------------15-12-10----------------------------|
E|-------15----------------------------------------------------|----------------------------------------------15-12-10-------------------|
C|-------------------------------------------19-14-12-18-14-12-|-------------------------------------------------------14-9--7-----------|
G|-------------------------------------------------------------|-------------------17-14-9--16-14-9-----------------------------14-9--7--|
D|-------------------------------------------------------------|-------------------------------------------------------------------------|
A|-------------------------------------------------------------|-------------------------------------------------------------------------|


A|--------------12-15-15-12-------12-1412---12-------|----------------------------------------------------|
E|--------------12----------15-12--------15----15-14-|-12-15-14-12----------------------------------------|
C|---------------------------------------------------|-------------15-14-13-12-------14-11----------------|
G|----------7----------------------------------------|-------------------------14-12-------12-------------|
D|-14-9--7--7----------------------------------------|----------------------------------------14----------|
A|---------------------------------------------------|-------------------------------------------14-15-17-|


A|-------------------------------------------------------------------------|-------------------19-21-22-19-21-22-22---22--22--|
E|-------------------------------------------------------------------------|-19-20-22-19-20-22--------------------------------|
C|-------------------------------------------------------16-18-19-18-19-21-|--------------------------------------------------|
G|-------------------14-16-17----------16-17-19-16-17-19-------------------|--------------------------------------------------|
D|-14-16-17-14-16-17----------16-17-19-------------------------------------|--------------------------------------------------|
A|-------------------------------------------------------------------------|--------------------------------------------------|


A|---------------------|---------------------|-----------------|--------|--------|
E|---------------------|---------------------|-----------------|--------|--------|
C|---------------------|---------------------|-----------------|--------|--------|
G|---------------------|---------------------|-----------------|--------|--------|
D|---------------------|---------------------|-----------------|--------|--------|
A|---------------------|---------------------|-----------------|--------|--------|


A|--------|--------|--------|--------|--------|--------|--------|--------|--------|
E|--------|--------|--------|--------|--------|--------|--------|--------|--------|
C|--------|--------|--------|--------|--------|--------|--------|--------|--------|
G|--------|--------|--------|--------|--------|--------|--------|--------|--------|
D|--------|--------|--------|--------|--------|--------|--------|--------|--------|
A|--------|--------|--------|--------|--------|--------|--------|--------|--------|


A|--------|--------|--------|--------|--------|--------|--------|--------|--------|
E|--------|--------|--------|--------|--------|--------|--------|--------|--------|
C|--------|--------|--------|--------|--------|--------|--------|--------|--------|
G|--------|--------|--------|--------|--------|--------|--------|--------|--------|
D|--------|--------|--------|--------|--------|--------|--------|--------|--------|
A|--------|--------|--------|--------|--------|--------|--------|--------|--------|


A|--------|--------|--------|--------|--------|--------|--------|--------|--------|
E|--------|--------|--------|--------|--------|--------|--------|--------|--------|
C|--------|--------|--------|--------|--------|--------|--------|--------|--------|
G|--------|--------|--------|--------|--------|--------|--------|--------|--------|
D|--------|--------|--------|--------|--------|--------|--------|--------|--------|
A|--------|--------|--------|--------|--------|--------|--------|--------|--------|


A|--------|--------|--------|--------|--------|--------|--------|--------|--------|
E|--------|--------|--------|--------|--------|--------|--------|--------|--------|
C|--------|--------|--------|--------|--------|--------|--------|--------|--------|
G|--------|--------|--------|--------|--------|--------|--------|--------|--------|
D|--------|--------|--------|--------|--------|--------|--------|--------|--------|
A|--------|--------|--------|--------|--------|--------|--------|--------|--------|


A|--------|--------|--------|--------|--------|--------|--------|--------|--------|
E|--------|--------|--------|--------|--------|--------|--------|--------|--------|
C|--------|--------|--------|--------|--------|--------|--------|--------|--------|
G|--------|--------|--------|--------|--------|--------|--------|--------|--------|
D|--------|--------|--------|--------|--------|--------|--------|--------|--------|
A|--------|--------|--------|--------|--------|--------|--------|--------|--------|


A|--------|--------|--------|--------|--------|--------|--------|--------|--------|
E|--------|--------|--------|--------|--------|--------|--------|--------|--------|
C|--------|--------|--------|--------|--------|--------|--------|--------|--------|
G|--------|--------|--------|--------|--------|--------|--------|--------|--------|
D|--------|--------|--------|--------|--------|--------|--------|--------|--------|
A|--------|--------|--------|--------|--------|--------|--------|--------|--------|


A|--------|--------|--------|--------|--------|--------|--------|--------|--------|
E|--------|--------|--------|--------|--------|--------|--------|--------|--------|
C|--------|--------|--------|--------|--------|--------|--------|--------|--------|
G|--------|--------|--------|--------|--------|--------|--------|--------|--------|
D|--------|--------|--------|--------|--------|--------|--------|--------|--------|
A|--------|--------|--------|--------|--------|--------|--------|--------|--------|


A|--------|--------|--------|--------|--------|--------|--------|--------|--------|
E|--------|--------|--------|--------|--------|--------|--------|--------|--------|
C|--------|--------|--------|--------|--------|--------|--------|--------|--------|
G|--------|--------|--------|--------|--------|--------|--------|--------|--------|
D|--------|--------|--------|--------|--------|--------|--------|--------|--------|
A|--------|--------|--------|--------|--------|--------|--------|--------|--------|


A|--------|--------|--------|--------|--------|--------|--------|--------|--------|
E|--------|--------|--------|--------|--------|--------|--------|--------|--------|
C|--------|--------|--------|--------|--------|--------|--------|--------|--------|
G|--------|--------|--------|--------|--------|--------|--------|--------|--------|
D|--------|--------|--------|--------|--------|--------|--------|--------|--------|
A|--------|--------|--------|--------|--------|--------|--------|--------|--------|


A|--------|--------|--------|--------|--------|--------|--------|--------|--------|
E|--------|--------|--------|--------|--------|--------|--------|--------|--------|
C|--------|--------|--------|--------|--------|--------|--------|--------|--------|
G|--------|--------|--------|--------|--------|--------|--------|--------|--------|
D|--------|--------|--------|--------|--------|--------|--------|--------|--------|
A|--------|--------|--------|--------|--------|--------|--------|--------|--------|


A|--------|--------|--------|--------|--------|--------|--------|--------|--------|
E|--------|--------|--------|--------|--------|--------|--------|--------|--------|
C|--------|--------|--------|--------|--------|--------|--------|--------|--------|
G|--------|--------|--------|--------|--------|--------|--------|--------|--------|
D|--------|--------|--------|--------|--------|--------|--------|--------|--------|
A|--------|--------|--------|--------|--------|--------|--------|--------|--------|


A|--------|--------|--------|--------|--------|--------|--------|--------|--------|
E|--------|--------|--------|--------|--------|--------|--------|--------|--------|
C|--------|--------|--------|--------|--------|--------|--------|--------|--------|
G|--------|--------|--------|--------|--------|--------|--------|--------|--------|
D|--------|--------|--------|--------|--------|--------|--------|--------|--------|
A|--------|--------|--------|--------|--------|--------|--------|--------|--------|


A|--------|--------|--------|--------|--------|--------|--------|--------|--------|
E|--------|--------|--------|--------|--------|--------|--------|--------|--------|
C|--------|--------|--------|--------|--------|--------|--------|--------|--------|
G|--------|--------|--------|--------|--------|--------|--------|--------|--------|
D|--------|--------|--------|--------|--------|--------|--------|--------|--------|
A|--------|--------|--------|--------|--------|--------|--------|--------|--------|


A|--------|--------|--------|--------|--------|--------|--------|--------|
E|--------|--------|--------|--------|--------|--------|--------|--------|
C|--------|--------|--------|--------|--------|--------|--------|--------|
G|--------|--------|--------|--------|--------|--------|--------|--------|
D|--------|--------|--------|--------|--------|--------|--------|--------|
A|--------|--------|--------|--------|--------|--------|--------|--------|





Track 6: Classical

E|--------|--------|--------|--------|--------|--------|--------|--------|--------|
B|--------|--------|--------|--------|--------|--------|--------|--------|--------|
G|--------|--------|--------|--------|--------|--------|--------|--------|--------|
D|--------|--------|--------|--------|--------|--------|--------|--------|--------|
A|--------|--------|--------|--------|--------|--------|--------|--------|--------|
E|--------|--------|--------|--------|--------|--------|--------|--------|--------|


E|--------|--------|--------|--------|--------|--------|--------|--------|--------|
B|--------|--------|--------|--------|--------|--------|--------|--------|--------|
G|--------|--------|--------|--------|--------|--------|--------|--------|--------|
D|--------|--------|--------|--------|--------|--------|--------|--------|--------|
A|--------|--------|--------|--------|--------|--------|--------|--------|--------|
E|--------|--------|--------|--------|--------|--------|--------|--------|--------|


E|--------|--------|--------|--------|--------|--------|--------|--------|--------|
B|--------|--------|--------|--------|--------|--------|--------|--------|--------|
G|--------|--------|--------|--------|--------|--------|--------|--------|--------|
D|--------|--------|--------|--------|--------|--------|--------|--------|--------|
A|--------|--------|--------|--------|--------|--------|--------|--------|--------|
E|--------|--------|--------|--------|--------|--------|--------|--------|--------|


E|--------|--------|--------|--------|--------|--------|--------|--------|--------|
B|--------|--------|--------|--------|--------|--------|--------|--------|--------|
G|--------|--------|--------|--------|--------|--------|--------|--------|--------|
D|--------|--------|--------|--------|--------|--------|--------|--------|--------|
A|--------|--------|--------|--------|--------|--------|--------|--------|--------|
E|--------|--------|--------|--------|--------|--------|--------|--------|--------|


E|--------|--------|--------|--------|--------|--------|--------|--------|--------|
B|--------|--------|--------|--------|--------|--------|--------|--------|--------|
G|--------|--------|--------|--------|--------|--------|--------|--------|--------|
D|--------|--------|--------|--------|--------|--------|--------|--------|--------|
A|--------|--------|--------|--------|--------|--------|--------|--------|--------|
E|--------|--------|--------|--------|--------|--------|--------|--------|--------|


E|--------|--------|--------|--------|--------|--------|--------|--------|--------|
B|--------|--------|--------|--------|--------|--------|--------|--------|--------|
G|--------|--------|--------|--------|--------|--------|--------|--------|--------|
D|--------|--------|--------|--------|--------|--------|--------|--------|--------|
A|--------|--------|--------|--------|--------|--------|--------|--------|--------|
E|--------|--------|--------|--------|--------|--------|--------|--------|--------|


E|--------|--------|--------|--------|--------|--------|--------|--------|--------|
B|--------|--------|--------|--------|--------|--------|--------|--------|--------|
G|--------|--------|--------|--------|--------|--------|--------|--------|--------|
D|--------|--------|--------|--------|--------|--------|--------|--------|--------|
A|--------|--------|--------|--------|--------|--------|--------|--------|--------|
E|--------|--------|--------|--------|--------|--------|--------|--------|--------|


E|--------|--------|--------|--------|--------|--------|--------|--------|--------|
B|--------|--------|--------|--------|--------|--------|--------|--------|--------|
G|--------|--------|--------|--------|--------|--------|--------|--------|--------|
D|--------|--------|--------|--------|--------|--------|--------|--------|--------|
A|--------|--------|--------|--------|--------|--------|--------|--------|--------|
E|--------|--------|--------|--------|--------|--------|--------|--------|--------|


E|--------|--------|--------|--------|--------|--------|--------|--------|--------|
B|--------|--------|--------|--------|--------|--------|--------|--------|--------|
G|--------|--------|--------|--------|--------|--------|--------|--------|--------|
D|--------|--------|--------|--------|--------|--------|--------|--------|--------|
A|--------|--------|--------|--------|--------|--------|--------|--------|--------|
E|--------|--------|--------|--------|--------|--------|--------|--------|--------|


E|--------|--------|--------|--------|--------|--------|--------|--------|--------|
B|--------|--------|--------|--------|--------|--------|--------|--------|--------|
G|--------|--------|--------|--------|--------|--------|--------|--------|--------|
D|--------|--------|--------|--------|--------|--------|--------|--------|--------|
A|--------|--------|--------|--------|--------|--------|--------|--------|--------|
E|--------|--------|--------|--------|--------|--------|--------|--------|--------|


E|--------|--------|--------|--------|--------|--------|--------|--------|--------|
B|--------|--------|--------|--------|--------|--------|--------|--------|--------|
G|--------|--------|--------|--------|--------|--------|--------|--------|--------|
D|--------|--------|--------|--------|--------|--------|--------|--------|--------|
A|--------|--------|--------|--------|--------|--------|--------|--------|--------|
E|--------|--------|--------|--------|--------|--------|--------|--------|--------|


E|--------|--------|--------|--------|--------|--------|--------|--------|--------|
B|--------|--------|--------|--------|--------|--------|--------|--------|--------|
G|--------|--------|--------|--------|--------|--------|--------|--------|--------|
D|--------|--------|--------|--------|--------|--------|--------|--------|--------|
A|--------|--------|--------|--------|--------|--------|--------|--------|--------|
E|--------|--------|--------|--------|--------|--------|--------|--------|--------|


E|--------|--------|--------|--------|--------|--------|--------|--------|--------|
B|--------|--------|--------|--------|--------|--------|--------|--------|--------|
G|--------|--------|--------|--------|--------|--------|--------|--------|--------|
D|--------|--------|--------|--------|--------|--------|--------|--------|--------|
A|--------|--------|--------|--------|--------|--------|--------|--------|--------|
E|--------|--------|--------|--------|--------|--------|--------|--------|--------|


E|--------|--------|--------|--------|--------|--------|--------|--------|--------|
B|--------|--------|--------|--------|--------|--------|--------|--------|--------|
G|--------|--------|--------|--------|--------|--------|--------|--------|--------|
D|--------|--------|--------|--------|--------|--------|--------|--------|--------|
A|--------|--------|--------|--------|--------|--------|--------|--------|--------|
E|--------|--------|--------|--------|--------|--------|--------|--------|--------|


E|--------|--------|--------|--------|--------|--------|--------|--------|--------|
B|--------|--------|--------|--------|--------|--------|--------|--------|--------|
G|--------|--------|--------|--------|--------|--------|--------|--------|--------|
D|--------|--------|--------|--------|--------|--------|--------|--------|--------|
A|--------|--------|--------|--------|--------|--------|--------|--------|--------|
E|--------|--------|--------|--------|--------|--------|--------|--------|--------|


E|--------|--------|--------|--------|--------|--------|--------|--------|--------|
B|--------|--------|--------|--------|--------|--------|--------|--------|--------|
G|--------|--------|--------|--------|--------|--------|--------|--------|--------|
D|--------|--------|--------|--------|--------|--------|--------|--------|--------|
A|--------|--------|--------|--------|--------|--------|--------|--------|--------|
E|--------|--------|--------|--------|--------|--------|--------|--------|--------|


E|--------|--------|--------|--------|--------|--------|--------|--------|--------|
B|--------|--------|--------|--------|--------|--------|--------|--------|--------|
G|--------|--------|--------|--------|--------|--------|--------|--------|--------|
D|--------|--------|--------|--------|--------|--------|--------|--------|--------|
A|--------|--------|--------|--------|--------|--------|--------|--------|--------|
E|--------|--------|--------|--------|--------|--------|--------|--------|--------|


E|--------|--------|--------|--------|--------|--------|--------|--------|--------|
B|--------|--------|--------|--------|--------|--------|--------|--------|--------|
G|--------|--------|--------|--------|--------|--------|--------|--------|--------|
D|--------|--------|--------|--------|--------|--------|--------|--------|--------|
A|--------|--------|--------|--------|--------|--------|--------|--------|--------|
E|--------|--------|--------|--------|--------|--------|--------|--------|--------|


E|--------|--------|--------|--------|--------|--------|--------|---------------5--3--5---|
B|--------|--------|--------|--------|--------|--------|--------|-------------------------|
G|--------|--------|--------|--------|--------|--------|--------|-----------2-------------|
D|--------|--------|--------|--------|--------|--------|--------|-------------------------|
A|--------|--------|--------|--------|--------|--------|--------|-----------0-------------|
E|--------|--------|--------|--------|--------|--------|--------|-------------------------|


E|-------------3--1--3---1---0---3---|----------------------5--3--5-----------|-----3--1--3---1---0---3----------------|
B|-----0---1---------------------3---|-----1--3--1--0---------------------0---|-1---------------------3-------1--3--1--|
G|-2---------------------------------|-0----------------2-------------2-------|---------------------------0------------|
D|-----------------------3-----------|----------------------------------------|----------------------------------------|
A|-0---------------------------------|------------------0-------------0-------|-------------------------------3--------|
E|-----0---1-----------------1---3---|-----3------------------------------0---|-1-------------1-------3----------------|


E|----------------------5--3--5-----------|-----3--1--3---1---0---3----------------|
B|-0----------------------------------0---|-1---------------------3-------1--3--1--|
G|-----2--4--2--0---2-------------2-------|---------------------------0------------|
D|----------------------------------------|---------------3---2---0----------------|
A|-2---0------------0-------------0---2---|-3-----------------------------3--------|
E|--------------3-------------------------|---------------------------3------------|


E|---------5--3--5-----------------3--1--|-3---1---0------------3-----------------------------------|
B|-0---------------------0-----1---------|-------------3--0--------3--0--------------------0--1--3--|
G|-----2-------------2-------------------|-------------------0-----------------------0--2-----------|
D|---------------------------------------|----------------------------------0--2--3-----------------|
A|-2---0-------------0-------------------|---------3---2-----------------3--------------------------|
E|-----------------------3--1--0---------|-----3----------------3--------5--------3--------1--------|


E|-0--1--3--1-----------------------------------------|-------------0-------------------------------------|
B|-------------1-----------------0--1--3--1--0--------|----1--3-----1---3--1--0---------------------------|
G|----------------2--0--2-----------------------2-----|----------0---------------2--4--0--------0---0--2--|
D|----------------------------------0--------------0--|--------------------------------------0------------|
A|-------------------------2--3-----------0-----------|-3-----2-----3---------------------3---------5-----|
E|-0--------1-----------------1-----3-----------------|-----------------3-----------------1-----0---------|


E|-------------------------------0---------3--1--|-0------------------------------------0-----------7--8--10-----|
B|-------------------------1--3------------1--1--|----3--1--3--3--3---------------1--3-----6--8--10--------------|
G|----2-----------0--2--4--0--0--0--2--2---------|----------0--2--0------0--2--4--------------------0------------|
D|-3--2--------3-----2---------------------------|-------------------0-------------------------------------------|
A|-------5--3--5--------------------3--3---3-----|-3---------------------3--------2--------0---------------------|
E|-------------------------1---------------------|----------3----------------------------------------------------|


E|--------|--------|--------|--------|--------|--------|--------|--------|--------|
B|--------|--------|--------|--------|--------|--------|--------|--------|--------|
G|--------|--------|--------|--------|--------|--------|--------|--------|--------|
D|--------|--------|--------|--------|--------|--------|--------|--------|--------|
A|--------|--------|--------|--------|--------|--------|--------|--------|--------|
E|--------|--------|--------|--------|--------|--------|--------|--------|--------|


E|--------|--------|--------|--------|--------|--------|--------|--------|--------|
B|--------|--------|--------|--------|--------|--------|--------|--------|--------|
G|--------|--------|--------|--------|--------|--------|--------|--------|--------|
D|--------|--------|--------|--------|--------|--------|--------|--------|--------|
A|--------|--------|--------|--------|--------|--------|--------|--------|--------|
E|--------|--------|--------|--------|--------|--------|--------|--------|--------|


E|--------|--------|--------|--------|--------|--------|--------|--------|--------|
B|--------|--------|--------|--------|--------|--------|--------|--------|--------|
G|--------|--------|--------|--------|--------|--------|--------|--------|--------|
D|--------|--------|--------|--------|--------|--------|--------|--------|--------|
A|--------|--------|--------|--------|--------|--------|--------|--------|--------|
E|--------|--------|--------|--------|--------|--------|--------|--------|--------|


E|--------|--------|--------|--------|--------|--------|--------|--------|--------|
B|--------|--------|--------|--------|--------|--------|--------|--------|--------|
G|--------|--------|--------|--------|--------|--------|--------|--------|--------|
D|--------|--------|--------|--------|--------|--------|--------|--------|--------|
A|--------|--------|--------|--------|--------|--------|--------|--------|--------|
E|--------|--------|--------|--------|--------|--------|--------|--------|--------|


E|--------|--------|--------|--------|--------|--------|--------|--------|--------|
B|--------|--------|--------|--------|--------|--------|--------|--------|--------|
G|--------|--------|--------|--------|--------|--------|--------|--------|--------|
D|--------|--------|--------|--------|--------|--------|--------|--------|--------|
A|--------|--------|--------|--------|--------|--------|--------|--------|--------|
E|--------|--------|--------|--------|--------|--------|--------|--------|--------|


E|--------|--------|--------|--------|--------|--------|--------|--------|--------|
B|--------|--------|--------|--------|--------|--------|--------|--------|--------|
G|--------|--------|--------|--------|--------|--------|--------|--------|--------|
D|--------|--------|--------|--------|--------|--------|--------|--------|--------|
A|--------|--------|--------|--------|--------|--------|--------|--------|--------|
E|--------|--------|--------|--------|--------|--------|--------|--------|--------|


E|--------|--------|--------|--------|--------|--------|--------|--------|--------|
B|--------|--------|--------|--------|--------|--------|--------|--------|--------|
G|--------|--------|--------|--------|--------|--------|--------|--------|--------|
D|--------|--------|--------|--------|--------|--------|--------|--------|--------|
A|--------|--------|--------|--------|--------|--------|--------|--------|--------|
E|--------|--------|--------|--------|--------|--------|--------|--------|--------|


E|--------|--------|--------|--------|--------|--------|--------|--------|--------|
B|--------|--------|--------|--------|--------|--------|--------|--------|--------|
G|--------|--------|--------|--------|--------|--------|--------|--------|--------|
D|--------|--------|--------|--------|--------|--------|--------|--------|--------|
A|--------|--------|--------|--------|--------|--------|--------|--------|--------|
E|--------|--------|--------|--------|--------|--------|--------|--------|--------|


E|--------|--------|--------|--------|--------|--------|--------|--------|--------|
B|--------|--------|--------|--------|--------|--------|--------|--------|--------|
G|--------|--------|--------|--------|--------|--------|--------|--------|--------|
D|--------|--------|--------|--------|--------|--------|--------|--------|--------|
A|--------|--------|--------|--------|--------|--------|--------|--------|--------|
E|--------|--------|--------|--------|--------|--------|--------|--------|--------|


E|--------|--------|--------|--------|--------|--------|--------|--------|--------|
B|--------|--------|--------|--------|--------|--------|--------|--------|--------|
G|--------|--------|--------|--------|--------|--------|--------|--------|--------|
D|--------|--------|--------|--------|--------|--------|--------|--------|--------|
A|--------|--------|--------|--------|--------|--------|--------|--------|--------|
E|--------|--------|--------|--------|--------|--------|--------|--------|--------|


E|--------|--------|--------|--------|--------|--------|--------|--------|--------|
B|--------|--------|--------|--------|--------|--------|--------|--------|--------|
G|--------|--------|--------|--------|--------|--------|--------|--------|--------|
D|--------|--------|--------|--------|--------|--------|--------|--------|--------|
A|--------|--------|--------|--------|--------|--------|--------|--------|--------|
E|--------|--------|--------|--------|--------|--------|--------|--------|--------|


E|--------|--------|--------|--------|
B|--------|--------|--------|--------|
G|--------|--------|--------|--------|
D|--------|--------|--------|--------|
A|--------|--------|--------|--------|
E|--------|--------|--------|--------|





Track 7: Baritone, Semi Clean tone

A|--------|--------|--------|--------|--------|--------|--------|--------|--------|
E|--------|--------|--------|--------|--------|--------|--------|--------|--------|
C|--------|--------|--------|--------|--------|--------|--------|--------|--------|
G|--------|--------|--------|--------|--------|--------|--------|--------|--------|
D|--------|--------|--------|--------|--------|--------|--------|--------|--------|
A|--------|--------|--------|--------|--------|--------|--------|--------|--------|


A|--------|--------|--------|--------|--------|--------|--------|--------|--------|
E|--------|--------|--------|--------|--------|--------|--------|--------|--------|
C|--------|--------|--------|--------|--------|--------|--------|--------|--------|
G|--------|--------|--------|--------|--------|--------|--------|--------|--------|
D|--------|--------|--------|--------|--------|--------|--------|--------|--------|
A|--------|--------|--------|--------|--------|--------|--------|--------|--------|


A|--------|--------|--------|--------|--------|--------|--------|--------|--------|
E|--------|--------|--------|--------|--------|--------|--------|--------|--------|
C|--------|--------|--------|--------|--------|--------|--------|--------|--------|
G|--------|--------|--------|--------|--------|--------|--------|--------|--------|
D|--------|--------|--------|--------|--------|--------|--------|--------|--------|
A|--------|--------|--------|--------|--------|--------|--------|--------|--------|


A|--------|--------|--------|--------|--------|--------|--------|--------|--------|
E|--------|--------|--------|--------|--------|--------|--------|--------|--------|
C|--------|--------|--------|--------|--------|--------|--------|--------|--------|
G|--------|--------|--------|--------|--------|--------|--------|--------|--------|
D|--------|--------|--------|--------|--------|--------|--------|--------|--------|
A|--------|--------|--------|--------|--------|--------|--------|--------|--------|


A|--------|--------|--------|--------|--------|--------|--------|--------|--------|
E|--------|--------|--------|--------|--------|--------|--------|--------|--------|
C|--------|--------|--------|--------|--------|--------|--------|--------|--------|
G|--------|--------|--------|--------|--------|--------|--------|--------|--------|
D|--------|--------|--------|--------|--------|--------|--------|--------|--------|
A|--------|--------|--------|--------|--------|--------|--------|--------|--------|


A|--------|--------|--------|--------|--------|--------|--------|--------|--------|
E|--------|--------|--------|--------|--------|--------|--------|--------|--------|
C|--------|--------|--------|--------|--------|--------|--------|--------|--------|
G|--------|--------|--------|--------|--------|--------|--------|--------|--------|
D|--------|--------|--------|--------|--------|--------|--------|--------|--------|
A|--------|--------|--------|--------|--------|--------|--------|--------|--------|


A|--------|--------|--------|--------|--------|--------|--------|--------|--------|
E|--------|--------|--------|--------|--------|--------|--------|--------|--------|
C|--------|--------|--------|--------|--------|--------|--------|--------|--------|
G|--------|--------|--------|--------|--------|--------|--------|--------|--------|
D|--------|--------|--------|--------|--------|--------|--------|--------|--------|
A|--------|--------|--------|--------|--------|--------|--------|--------|--------|


A|--------|--------|--------|--------|--------|--------|--------|--------|--------|
E|--------|--------|--------|--------|--------|--------|--------|--------|--------|
C|--------|--------|--------|--------|--------|--------|--------|--------|--------|
G|--------|--------|--------|--------|--------|--------|--------|--------|--------|
D|--------|--------|--------|--------|--------|--------|--------|--------|--------|
A|--------|--------|--------|--------|--------|--------|--------|--------|--------|


A|--------|--------|--------|--------|--------|--------|--------|--------|--------|
E|--------|--------|--------|--------|--------|--------|--------|--------|--------|
C|--------|--------|--------|--------|--------|--------|--------|--------|--------|
G|--------|--------|--------|--------|--------|--------|--------|--------|--------|
D|--------|--------|--------|--------|--------|--------|--------|--------|--------|
A|--------|--------|--------|--------|--------|--------|--------|--------|--------|


A|--------|--------|--------|--------|--------|--------|--------|--------|--------|
E|--------|--------|--------|--------|--------|--------|--------|--------|--------|
C|--------|--------|--------|--------|--------|--------|--------|--------|--------|
G|--------|--------|--------|--------|--------|--------|--------|--------|--------|
D|--------|--------|--------|--------|--------|--------|--------|--------|--------|
A|--------|--------|--------|--------|--------|--------|--------|--------|--------|


A|--------|--------|--------|--------|--------|--------|--------|--------|--------|
E|--------|--------|--------|--------|--------|--------|--------|--------|--------|
C|--------|--------|--------|--------|--------|--------|--------|--------|--------|
G|--------|--------|--------|--------|--------|--------|--------|--------|--------|
D|--------|--------|--------|--------|--------|--------|--------|--------|--------|
A|--------|--------|--------|--------|--------|--------|--------|--------|--------|


A|--------|--------|--------|--------|--------|--------|--------|--------|--------|
E|--------|--------|--------|--------|--------|--------|--------|--------|--------|
C|--------|--------|--------|--------|--------|--------|--------|--------|--------|
G|--------|--------|--------|--------|--------|--------|--------|--------|--------|
D|--------|--------|--------|--------|--------|--------|--------|--------|--------|
A|--------|--------|--------|--------|--------|--------|--------|--------|--------|


A|--------|--------|--------|--------|--------|--------|--------|--------|--------|
E|--------|--------|--------|--------|--------|--------|--------|--------|--------|
C|--------|--------|--------|--------|--------|--------|--------|--------|--------|
G|--------|--------|--------|--------|--------|--------|--------|--------|--------|
D|--------|--------|--------|--------|--------|--------|--------|--------|--------|
A|--------|--------|--------|--------|--------|--------|--------|--------|--------|


A|--------|--------|--------|--------|--------|--------|--------|--------|--------|
E|--------|--------|--------|--------|--------|--------|--------|--------|--------|
C|--------|--------|--------|--------|--------|--------|--------|--------|--------|
G|--------|--------|--------|--------|--------|--------|--------|--------|--------|
D|--------|--------|--------|--------|--------|--------|--------|--------|--------|
A|--------|--------|--------|--------|--------|--------|--------|--------|--------|


A|--------|--------|--------|--------|--------|--------|--------|--------|--------|
E|--------|--------|--------|--------|--------|--------|--------|--------|--------|
C|--------|--------|--------|--------|--------|--------|--------|--------|--------|
G|--------|--------|--------|--------|--------|--------|--------|--------|--------|
D|--------|--------|--------|--------|--------|--------|--------|--------|--------|
A|--------|--------|--------|--------|--------|--------|--------|--------|--------|


A|--------|--------|--------|--------|--------|--------|--------|--------|--------|
E|--------|--------|--------|--------|--------|--------|--------|--------|--------|
C|--------|--------|--------|--------|--------|--------|--------|--------|--------|
G|--------|--------|--------|--------|--------|--------|--------|--------|--------|
D|--------|--------|--------|--------|--------|--------|--------|--------|--------|
A|--------|--------|--------|--------|--------|--------|--------|--------|--------|


A|--------|--------|--------|--------|--------|--------|--------|--------|--------|
E|--------|--------|--------|--------|--------|--------|--------|--------|--------|
C|--------|--------|--------|--------|--------|--------|--------|--------|--------|
G|--------|--------|--------|--------|--------|--------|--------|--------|--------|
D|--------|--------|--------|--------|--------|--------|--------|--------|--------|
A|--------|--------|--------|--------|--------|--------|--------|--------|--------|


A|--------|--------|--------|--------|--------|--------|--------|--------|--------|
E|--------|--------|--------|--------|--------|--------|--------|--------|--------|
C|--------|--------|--------|--------|--------|--------|--------|--------|--------|
G|--------|--------|--------|--------|--------|--------|--------|--------|--------|
D|--------|--------|--------|--------|--------|--------|--------|--------|--------|
A|--------|--------|--------|--------|--------|--------|--------|--------|--------|


A|--------|--------|--------|--------|--------|--------|--------|--------|--------|
E|--------|--------|--------|--------|--------|--------|--------|--------|--------|
C|--------|--------|--------|--------|--------|--------|--------|--------|--------|
G|--------|--------|--------|--------|--------|--------|--------|--------|--------|
D|--------|--------|--------|--------|--------|--------|--------|--------|--------|
A|--------|--------|--------|--------|--------|--------|--------|--------|--------|


A|--------|--------|--------|--------|--------|--------|--------|--------|--------|
E|--------|--------|--------|--------|--------|--------|--------|--------|--------|
C|--------|--------|--------|--------|--------|--------|--------|--------|--------|
G|--------|--------|--------|--------|--------|--------|--------|--------|--------|
D|--------|--------|--------|--------|--------|--------|--------|--------|--------|
A|--------|--------|--------|--------|--------|--------|--------|--------|--------|


A|--------|--------|--------|--------|--------|--------|--------|--------|--------|
E|--------|--------|--------|--------|--------|--------|--------|--------|--------|
C|--------|--------|--------|--------|--------|--------|--------|--------|--------|
G|--------|--------|--------|--------|--------|--------|--------|--------|--------|
D|--------|--------|--------|--------|--------|--------|--------|--------|--------|
A|--------|--------|--------|--------|--------|--------|--------|--------|--------|


A|--------|--------|--------|--------|--------|--------|--------|--------|--------|
E|--------|--------|--------|--------|--------|--------|--------|--------|--------|
C|--------|--------|--------|--------|--------|--------|--------|--------|--------|
G|--------|--------|--------|--------|--------|--------|--------|--------|--------|
D|--------|--------|--------|--------|--------|--------|--------|--------|--------|
A|--------|--------|--------|--------|--------|--------|--------|--------|--------|


A|--------|--------|--------|--------|--------|--------|--------|--------|--------|
E|--------|--------|--------|--------|--------|--------|--------|--------|--------|
C|--------|--------|--------|--------|--------|--------|--------|--------|--------|
G|--------|--------|--------|--------|--------|--------|--------|--------|--------|
D|--------|--------|--------|--------|--------|--------|--------|--------|--------|
A|--------|--------|--------|--------|--------|--------|--------|--------|--------|


A|--------|--------|--------|--------|--------|--------|--------|--------|--------|
E|--------|--------|--------|--------|--------|--------|--------|--------|--------|
C|--------|--------|--------|--------|--------|--------|--------|--------|--------|
G|--------|--------|--------|--------|--------|--------|--------|--------|--------|
D|--------|--------|--------|--------|--------|--------|--------|--------|--------|
A|--------|--------|--------|--------|--------|--------|--------|--------|--------|


A|--------|--------|--------|--------|--------|--------|--------|--------|--------|
E|--------|--------|--------|--------|--------|--------|--------|--------|--------|
C|--------|--------|--------|--------|--------|--------|--------|--------|--------|
G|--------|--------|--------|--------|--------|--------|--------|--------|--------|
D|--------|--------|--------|--------|--------|--------|--------|--------|--------|
A|--------|--------|--------|--------|--------|--------|--------|--------|--------|


A|--------|--------|--------|--------|--------|--------|--------|--------|--------|
E|--------|--------|--------|--------|--------|--------|--------|--------|--------|
C|--------|--------|--------|--------|--------|--------|--------|--------|--------|
G|--------|--------|--------|--------|--------|--------|--------|--------|--------|
D|--------|--------|--------|--------|--------|--------|--------|--------|--------|
A|--------|--------|--------|--------|--------|--------|--------|--------|--------|


A|--------|--------|--------|--------|--------|--------|--------|--------|--------|
E|--------|--------|--------|--------|--------|--------|--------|--------|--------|
C|--------|--------|--------|--------|--------|--------|--------|--------|--------|
G|--------|--------|--------|--------|--------|--------|--------|--------|--------|
D|--------|--------|--------|--------|--------|--------|--------|--------|--------|
A|--------|--------|--------|--------|--------|--------|--------|--------|--------|


A|--------|--------|--------|--------|--------|--------|-------------|-------------|
E|--------|--------|--------|--------|--------|--------|-------------|-------------|
C|--------|--------|--------|--------|--------|--------|-------------|-------------|
G|--------|--------|--------|--------|--------|--------|-------------|-------------|
D|--------|--------|--------|--------|--------|--------|-------------|-------------|
A|--------|--------|--------|--------|--------|--------|-------------|-------------|


A|--------|--------|--------|--------|--------|--------|--------|--------|--------|
E|--------|--------|--------|--------|--------|--------|--------|--------|--------|
C|--------|--------|--------|--------|--------|--------|--------|--------|--------|
G|--------|--------|--------|--------|--------|--------|--------|--------|--------|
D|--------|--------|--------|--------|--------|--------|--------|--------|--------|
A|--------|--------|--------|--------|--------|--------|--------|--------|--------|


A|--------|--------|--------|--------|--------|--------|--------|--------|--------|
E|--------|--------|--------|--------|--------|--------|--------|--------|--------|
C|--------|--------|--------|--------|--------|--------|--------|--------|--------|
G|--------|--------|--------|--------|--------|--------|--------|--------|--------|
D|--------|--------|--------|--------|--------|--------|--------|--------|--------|
A|--------|--------|--------|--------|--------|--------|--------|--------|--------|


A|--------|--------|--------|--------|--------|--------|--------|--------|--------|
E|--------|--------|--------|--------|--------|--------|--------|--------|--------|
C|--------|--------|--------|--------|--------|--------|--------|--------|--------|
G|--------|--------|--------|--------|--------|--------|--------|--------|--------|
D|--------|--------|--------|--------|--------|--------|--------|--------|--------|
A|--------|--------|--------|--------|--------|--------|--------|--------|--------|


A|--------|--------|--------|--------|--------|--------|
E|--------|--------|--------|--------|--------|--------|
C|--------|--------|--------|--------|--------|--------|
G|--------|--------|--------|--------|--------|--------|
D|--------|--------|--------|--------|--------|--------|
A|--------|--------|--------|--------|--------|--------|





Track 8: Untitled

G|--------|--------|--------|--------|--------|--------|--------|--------|--------|
D|--------|--------|--------|--------|--------|--------|--------|--------|--------|
A|--------|--------|--------|--------|--------|--------|--------|--------|--------|
E|--------|--------|--------|--------|--------|--------|--------|--------|--------|


G|--------|--------|--------|--------|--------|--------|--------|--------|--------|
D|--------|--------|--------|--------|--------|--------|--------|--------|--------|
A|--------|--------|--------|--------|--------|--------|--------|--------|--------|
E|--------|--------|--------|--------|--------|--------|--------|--------|--------|


G|--------|--------|--------|--------|--------|--------|--------|--------|--------|
D|--------|--------|--------|--------|--------|--------|--------|--------|--------|
A|--------|--------|--------|--------|--------|--------|--------|--------|--------|
E|--------|--------|--------|--------|--------|--------|--------|--------|--------|


G|--------|--------|--------|--------|--------|--------|--------|--------|--------|
D|--------|--------|--------|--------|--------|--------|--------|--------|--------|
A|--------|--------|--------|--------|--------|--------|--------|--------|--------|
E|--------|--------|--------|--------|--------|--------|--------|--------|--------|


G|--------|--------|--------|--------|--------|--------|--------|--------|--------|
D|--------|--------|--------|--------|--------|--------|--------|--------|--------|
A|--------|--------|--------|--------|--------|--------|--------|--------|--------|
E|--------|--------|--------|--------|--------|--------|--------|--------|--------|


G|--------|--------|--------|--------|--------|--------|--------|--------|--------|
D|--------|--------|--------|--------|--------|--------|--------|--------|--------|
A|--------|--------|--------|--------|--------|--------|--------|--------|--------|
E|--------|--------|--------|--------|--------|--------|--------|--------|--------|


G|--------|--------|--------|--------|--------|--------|--------|--------|--------|
D|--------|--------|--------|--------|--------|--------|--------|--------|--------|
A|--------|--------|--------|--------|--------|--------|--------|--------|--------|
E|--------|--------|--------|--------|--------|--------|--------|--------|--------|


G|--------|--------|--------|--------|--------|--------|--------|--------|--------|
D|--------|--------|--------|--------|--------|--------|--------|--------|--------|
A|--------|--------|--------|--------|--------|--------|--------|--------|--------|
E|--------|--------|--------|--------|--------|--------|--------|--------|--------|


G|--------|--------|--------|--------|--------|--------|--------|--------|--------|
D|--------|--------|--------|--------|--------|--------|--------|--------|--------|
A|--------|--------|--------|--------|--------|--------|--------|--------|--------|
E|--------|--------|--------|--------|--------|--------|--------|--------|--------|


G|--------|--------|--------|--------|--------|--------|--------|--------|--------|
D|--------|--------|--------|--------|--------|--------|--------|--------|--------|
A|--------|--------|--------|--------|--------|--------|--------|--------|--------|
E|--------|--------|--------|--------|--------|--------|--------|--------|--------|


G|--------|--------|--------|--------|--------|--------|--------|--------|--------|
D|--------|--------|--------|--------|--------|--------|--------|--------|--------|
A|--------|--------|--------|--------|--------|--------|--------|--------|--------|
E|--------|--------|--------|--------|--------|--------|--------|--------|--------|


G|--------|--------|--------|--------|--------|--------|--------|--------|--------|
D|--------|--------|--------|--------|--------|--------|--------|--------|--------|
A|--------|--------|--------|--------|--------|--------|--------|--------|--------|
E|--------|--------|--------|--------|--------|--------|--------|--------|--------|


G|--------|--------|--------|--------|--------|--------|--------|--------|--------|
D|--------|--------|--------|--------|--------|--------|--------|--------|--------|
A|--------|--------|--------|--------|--------|--------|--------|--------|--------|
E|--------|--------|--------|--------|--------|--------|--------|--------|--------|


G|--------|--------|--------|--------|--------|--------|--------|--------|--------|
D|--------|--------|--------|--------|--------|--------|--------|--------|--------|
A|--------|--------|--------|--------|--------|--------|--------|--------|--------|
E|--------|--------|--------|--------|--------|--------|--------|--------|--------|


G|--------|--------|--------|--------|--------|--------|--------|--------|--------|
D|--------|--------|--------|--------|--------|--------|--------|--------|--------|
A|--------|--------|--------|--------|--------|--------|--------|--------|--------|
E|--------|--------|--------|--------|--------|--------|--------|--------|--------|


G|--------|--------|--------|--------|--------|--------|--------|--------|--------|
D|--------|--------|--------|--------|--------|--------|--------|--------|--------|
A|--------|--------|--------|--------|--------|--------|--------|--------|--------|
E|--------|--------|--------|--------|--------|--------|--------|--------|--------|


G|--------|--------|--------|--------|--------|--------|--------|--------|--------|
D|--------|--------|--------|--------|--------|--------|--------|--------|--------|
A|--------|--------|--------|--------|--------|--------|--------|--------|--------|
E|--------|--------|--------|--------|--------|--------|--------|--------|--------|


G|--------|--------|--------|--------|--------|--------|--------|--------|--------|
D|--------|--------|--------|--------|--------|--------|--------|--------|--------|
A|--------|--------|--------|--------|--------|--------|--------|--------|--------|
E|--------|--------|--------|--------|--------|--------|--------|--------|--------|


G|--------|--------|--------|--------|--------|--------|--------|--------|--------|
D|--------|--------|--------|--------|--------|--------|--------|--------|--------|
A|--------|--------|--------|--------|--------|--------|--------|--------|--------|
E|--------|--------|--------|--------|--------|--------|--------|--------|--------|


G|--------|--------|--------|--------|--------|--------|--------|--------|--------|
D|--------|--------|--------|--------|--------|--------|--------|--------|--------|
A|--------|--------|--------|--------|--------|--------|--------|--------|--------|
E|--------|--------|--------|--------|--------|--------|--------|--------|--------|


G|--------|--------|--------|--------|--------|--------|--------|--------|--------|
D|--------|--------|--------|--------|--------|--------|--------|--------|--------|
A|--------|--------|--------|--------|--------|--------|--------|--------|--------|
E|--------|--------|--------|--------|--------|--------|--------|--------|--------|


G|--------|--------|--------|--------|--------|--------|--------|--------|--------|
D|--------|--------|--------|--------|--------|--------|--------|--------|--------|
A|--------|--------|--------|--------|--------|--------|--------|--------|--------|
E|--------|--------|--------|--------|--------|--------|--------|--------|--------|


G|--------|--------|--------|--------|--------|--------|--------|--------|--------|
D|--------|--------|--------|--------|--------|--------|--------|--------|--------|
A|--------|--------|--------|--------|--------|--------|--------|--------|--------|
E|--------|--------|--------|--------|--------|--------|--------|--------|--------|


G|--------|--------|--------|--------|--------|--------|--------|--------|--------|
D|--------|--------|--------|--------|--------|--------|--------|--------|--------|
A|--------|--------|--------|--------|--------|--------|--------|--------|--------|
E|--------|--------|--------|--------|--------|--------|--------|--------|--------|


G|--------|--------|--------|--------|--------|--------|--------|--------|--------|
D|--------|--------|--------|--------|--------|--------|--------|--------|--------|
A|--------|--------|--------|--------|--------|--------|--------|--------|--------|
E|--------|--------|--------|--------|--------|--------|--------|--------|--------|


G|--------|--------|--------|--------|--------|--------|--------|--------|--------|
D|--------|--------|--------|--------|--------|--------|--------|--------|--------|
A|--------|--------|--------|--------|--------|--------|--------|--------|--------|
E|--------|--------|--------|--------|--------|--------|--------|--------|--------|


G|--------|--------|--------|--------|--------|--------|--------|--------|--------|
D|--------|--------|--------|--------|--------|--------|--------|--------|--------|
A|--------|--------|--------|--------|--------|--------|--------|--------|--------|
E|--------|--------|--------|--------|--------|--------|--------|--------|--------|


G|--------|--------|--------|--------|--------|--------|--------|--------|--------|
D|--------|--------|--------|--------|--------|--------|--------|--------|--------|
A|--------|--------|--------|--------|--------|--------|--------|--------|--------|
E|--------|--------|--------|--------|--------|--------|--------|--------|--------|


G|--------|--------|--------|--------|--------|--------|--------|--------|--------|
D|--------|--------|--------|--------|--------|--------|--------|--------|--------|
A|--------|--------|--------|--------|--------|--------|--------|--------|--------|
E|--------|--------|--------|--------|--------|--------|--------|--------|--------|


G|--------|--------|--------|--------|--------|--------|--------|--------|--------|
D|--------|--------|--------|--------|--------|--------|--------|--------|--------|
A|--------|--------|--------|--------|--------|--------|--------|--------|--------|
E|--------|--------|--------|--------|--------|--------|--------|--------|--------|


G|--------|--------|--------|--------|--------|--------|--------|--------|--------|
D|--------|--------|--------|--------|--------|--------|--------|--------|--------|
A|--------|--------|--------|--------|--------|--------|--------|--------|--------|
E|--------|--------|--------|--------|--------|--------|--------|--------|--------|


G|--------|--------|--------|--------|--------|
D|--------|--------|--------|--------|--------|
A|--------|--------|--------|--------|--------|
E|--------|--------|--------|--------|--------|