Menu:

 

Search:

 

dream theater - blind faith:

 



Title: Blind Faith
Artist: 
Album: Six Degrees of Inner Turbulence
Author: Dream Theater


Track 1: Clean

A|---------------------------|---------------------------|---------------------------|
E|---------------------------|---------------------------|---------------------------|
C|------2--------------------|------2--------------------|------0--------------------|
G|----------2---2--------2---|----------2---2--------2---|----------2---2--------2---|
D|-0----------------0--------|-0----------------0--------|-0----------------0--------|
A|---------------------------|---------------------------|---------------------------|


A|------------------------------|---------------------------|---------------------------|
E|------------------------------|---------------------------|---------------------------|
C|---------0--------------------|------2--------------------|------2--------------------|
G|-----2-------2---2--------2---|----------2---2--------2---|----------2---2--------2---|
D|-3-------------------3--------|-0----------------0--------|-0----------------0--------|
A|------------------------------|---------------------------|---------------------------|


A|---------------------------|------------------------------|---------------------------|
E|---------------------------|------------------------------|---------------------------|
C|------0--------------------|---------0--------------------|------2--------------------|
G|----------2---2--------2---|-----2-------2---2--------2---|----------2---2--------2---|
D|-0----------------0--------|-3-------------------3--------|-0----------------0--------|
A|---------------------------|------------------------------|---------------------------|


A|---------------------------|---------------------------|------------------------------|
E|---------------------------|---------------------------|------------------------------|
C|------2--------------------|------0--------------------|---------0--------------------|
G|----------2---2--------2---|----------2---2--------2---|-----2-------2---2--------2---|
D|-0----------------0--------|-0----------------0--------|-3-------------------3--------|
A|---------------------------|---------------------------|------------------------------|


A|---------------------------|---------------------------|---------------------------|
E|---------------------------|---------------------------|---------------------------|
C|------2--------------------|------2--------------------|------0--------------------|
G|----------2---2--------2---|----------2---2--------2---|----------2---2--------2---|
D|-0----------------0--------|-0----------------0--------|-0----------------0--------|
A|---------------------------|---------------------------|---------------------------|


A|------------------------------|---------------------------|---------------------------|
E|------------------------------|---------------------------|---------------------------|
C|---------0--------------------|------2--------------------|------2--------------------|
G|-----2-------2---2--------2---|----------2---2--------2---|----------2---2--------2---|
D|-3-------------------3--------|-0----------------0--------|-0----------------0--------|
A|------------------------------|---------------------------|---------------------------|


A|---------------------------|------------------------------|---------------------------|
E|---------------------------|------------------------------|---------------------------|
C|------0--------------------|---------0--------------------|------2--------------------|
G|----------2---2--------2---|-----2-------2---2--------2---|----------2---2--------2---|
D|-0----------------0--------|-3-------------------3--------|-0----------------0--------|
A|---------------------------|------------------------------|---------------------------|


A|---------------------------|---------------------------|------------------------------|
E|---------------------------|---------------------------|------------------------------|
C|------2--------------------|------0--------------------|---------0--------------------|
G|----------2---2--------2---|----------2---2--------2---|-----2-------2---2--------2---|
D|-0----------------0--------|-0----------------0--------|-3-------------------3--------|
A|---------------------------|---------------------------|------------------------------|


A|-----------------------|-------------0---0-----|-----------------------|-----------------------|
E|-------------3---3-----|---------3-------------|---------2---3---3-----|---------2---3---3-----|
C|---------2-------------|-----2-----------------|-------------2---2-----|-------------2---2-----|
G|-----0-----------------|-0---------------------|-----2-----------------|-----2-----------------|
D|-----------------------|-----------------------|-0---------------------|-0---------------------|
A|-3---------------------|-----------------------|-----------------------|-----------------------|


A|-----------------------|-------------0---0-----|-----------------------|-----------------------|
E|-------------3---3-----|---------3-------------|---------2---3---3-----|---------2---3---3-----|
C|---------2-------------|-----2-----------------|-------------2---2-----|-------------2---2-----|
G|-----0-----------------|-0---------------------|-----2-----------------|-----2-----------------|
D|-----------------------|-----------------------|-0---------------------|-0---------------------|
A|-3---------------------|-----------------------|-----------------------|-----------------------|


A|---------------------------|---------------------------|---------------------------|
E|---------------------------|---------------------------|---------------------------|
C|------2--------------------|------2--------------------|------0--------------------|
G|----------2---2--------2---|----------2---2--------2---|----------2---2--------2---|
D|-0----------------0--------|-0----------------0--------|-0----------------0--------|
A|---------------------------|---------------------------|---------------------------|


A|------------------------------|---------------------------|---------------------------|
E|------------------------------|---------------------------|---------------------------|
C|---------0--------------------|------2--------------------|------2--------------------|
G|-----2-------2---2--------2---|----------2---2--------2---|----------2---2--------2---|
D|-3-------------------3--------|-0----------------0--------|-0----------------0--------|
A|------------------------------|---------------------------|---------------------------|


A|---------------------------|------------------------------|---------------------------------|
E|---------------------------|------------------------------|---------------------------------|
C|------0--------------------|---------0--------------------|---------2-------------------2---|
G|----------2---2--------2---|-----2-------2---2--------2---|-----2-------2---2-------2-------|
D|-0----------------0--------|-3-------------------3--------|-0-------------------0-----------|
A|---------------------------|------------------------------|---------------------------------|


A|-----------------------------------|---------------------------------|---------------------------------|
E|-----------------------------------|---------------------------------|---------------------------------|
C|---------2---------------------2---|---------0-------------------0---|---------0-------------------0---|
G|-----2-------2---2---------2-------|-----2-------2---2-------2-------|-----2-------2---2-------2-------|
D|-0------------------0--0-----------|-0-------------------0-----------|-3-------------------3-----------|
A|-----------------------------------|---------------------------------|---------------------------------|


A|---------------------------------|-----------------------------------|---------------------------------|
E|---------------------------------|-----------------------------------|---------------------------------|
C|---------2-------------------2---|---------2---------------------2---|---------0-------------------0---|
G|-----2-------2---2-------2-------|-----2-------2---2---------2-------|-----2-------2---2-------2-------|
D|-0-------------------0-----------|-0------------------0--0-----------|-0-------------------0-----------|
A|---------------------------------|-----------------------------------|---------------------------------|


A|---------------------------------|-----------------------|-------------0---0-----|
E|---------------------------------|-------------3---3-----|---------3-------------|
C|---------0-------------------0---|---------2-------------|-----2-----------------|
G|-----2-------2---2-------2-------|-----0-----------------|-0---------------------|
D|-3-------------------3-----------|-----------------------|-----------------------|
A|---------------------------------|-3---------------------|-----------------------|


A|-----------------------|-----------------------|-----------------------|-------------0---0-----|
E|---------2---3---3-----|---------2---3---3-----|-------------3---3-----|---------3-------------|
C|-------------2---2-----|-------------2---2-----|---------2-------------|-----2-----------------|
G|-----2-----------------|-----2-----------------|-----0-----------------|-0---------------------|
D|-0---------------------|-0---------------------|-----------------------|-----------------------|
A|-----------------------|-----------------------|-3---------------------|-----------------------|


A|-----------------------|-----------------------|------------------------------|-------------0---0------------|
E|---------2---3---3-----|---------2---3---3-----|-------------3---3--------3---|---------3-----------3--------|
C|-------------2---2-----|-------------2---2-----|---------2-----------2--------|-----2--------------------2---|
G|-----2-----------------|-----2-----------------|-----0------------------------|-0----------------------------|
D|-0---------------------|-0---------------------|------------------------------|------------------------------|
A|-----------------------|-----------------------|-3----------------------------|------------------------------|


A|-------------0---0------------|------------------------------|------------------------------|
E|---------0-----------0----0---|-------------5---5------------|-------------3---3--------3---|
C|------------------------------|---------4-----------4--------|---------2-----------2--------|
G|-----2------------------------|-----2------------------------|-----0------------------------|
D|-0----------------------------|------------------------------|------------------------------|
A|------------------------------|-4----------------------------|-3----------------------------|


A|-------------0---0------------|---------------------------------|---------------------------------|
E|---------3-----------3--------|---------------------------------|---------------------------------|
C|-----2--------------------2---|-2---2---2---2---2---2---2---2---|-2---2---2---2---2---2---2---2---|
G|-0----------------------------|-3---3---3---3---3---3---3---3---|-3---3---3---3---3---3---3---3---|
D|------------------------------|-3---3---3---3---3---3---3---3---|-3---3---3---3---3---3---3---3---|
A|------------------------------|-1---1---1---1---1---1---1---1---|-1---1---1---1---1---1---1---1---|


A|--------|--------|--------|--------|--------|--------|--------|---------------------------|
E|--------|--------|--------|--------|--------|--------|--------|---------------------------|
C|--------|--------|--------|--------|--------|--------|--------|------2--------------------|
G|--------|--------|--------|--------|--------|--------|--------|----------2---2--------2---|
D|--------|--------|--------|--------|--------|--------|--------|-0----------------0--------|
A|--------|--------|--------|--------|--------|--------|--------|---------------------------|


A|---------------------------|---------------------------|------------------------------|
E|---------------------------|---------------------------|------------------------------|
C|------2--------------------|------0--------------------|---------0--------------------|
G|----------2---2--------2---|----------2---2--------2---|-----2-------2---2--------2---|
D|-0----------------0--------|-0----------------0--------|-3-------------------3--------|
A|---------------------------|---------------------------|------------------------------|


A|--------|--------|--------|--------|--------|--------|--------|--------|--------|
E|--------|--------|--------|--------|--------|--------|--------|--------|--------|
C|--------|--------|--------|--------|--------|--------|--------|--------|--------|
G|--------|--------|--------|--------|--------|--------|--------|--------|--------|
D|--------|--------|--------|--------|--------|--------|--------|--------|--------|
A|--------|--------|--------|--------|--------|--------|--------|--------|--------|


A|--------|--------|--------|-----------------------|-------------0---0-----|-----------------------|
E|--------|--------|--------|-------------3---3-----|---------3-------------|---------2---3---3-----|
C|--------|--------|--------|---------2-------------|-----2-----------------|-------------2---2-----|
G|--------|--------|--------|-----0-----------------|-0---------------------|-----2-----------------|
D|--------|--------|--------|-----------------------|-----------------------|-0---------------------|
A|--------|--------|--------|-3---------------------|-----------------------|-----------------------|


A|-----------------------|-----------------------|-------------0---0-----|-----------------------|
E|---------2---3---3-----|-------------3---3-----|---------3-------------|---------2---3---3-----|
C|-------------2---2-----|---------2-------------|-----2-----------------|-------------2---2-----|
G|-----2-----------------|-----0-----------------|-0---------------------|-----2-----------------|
D|-0---------------------|-----------------------|-----------------------|-0---------------------|
A|-----------------------|-3---------------------|-----------------------|-----------------------|


A|-----------------------|------------------------------|-------------0---0------------|
E|---------2---3---3-----|-------------3---3--------3---|---------3-----------3--------|
C|-------------2---2-----|---------2-----------2--------|-----2--------------------2---|
G|-----2-----------------|-----0------------------------|-0----------------------------|
D|-0---------------------|------------------------------|------------------------------|
A|-----------------------|-3----------------------------|------------------------------|


A|-------------0---0------------|------------------------------|------------------------------|
E|---------0-----------0----0---|-------------5---5------------|-------------3---3--------3---|
C|------------------------------|---------4-----------4--------|---------2-----------2--------|
G|-----2------------------------|-----2------------------------|-----0------------------------|
D|-0----------------------------|------------------------------|------------------------------|
A|------------------------------|-4----------------------------|-3----------------------------|


A|-------------0---0------------|---------------------------------|---------------------------------|
E|---------3-----------3--------|---------------------------------|---------------------------------|
C|-----2--------------------2---|-2---2---2---2---2---2---2---2---|-2---2---2---2---2---2---2---2---|
G|-0----------------------------|-3---3---3---3---3---3---3---3---|-3---3---3---3---3---3---3---3---|
D|------------------------------|-3---3---3---3---3---3---3---3---|-3---3---3---3---3---3---3---3---|
A|------------------------------|-1---1---1---1---1---1---1---1---|-1---1---1---1---1---1---1---1---|


A|--------|--------|--------|--------|--------|--------|--------|--------|--------|
E|--------|--------|--------|--------|--------|--------|--------|--------|--------|
C|--------|--------|--------|--------|--------|--------|--------|--------|--------|
G|--------|--------|--------|--------|--------|--------|--------|--------|--------|
D|--------|--------|--------|--------|--------|--------|--------|--------|--------|
A|--------|--------|--------|--------|--------|--------|--------|--------|--------|


A|--------|--------|--------|--------|--------|--------|--------|--------|--------|
E|--------|--------|--------|--------|--------|--------|--------|--------|--------|
C|--------|--------|--------|--------|--------|--------|--------|--------|--------|
G|--------|--------|--------|--------|--------|--------|--------|--------|--------|
D|--------|--------|--------|--------|--------|--------|--------|--------|--------|
A|--------|--------|--------|--------|--------|--------|--------|--------|--------|


A|--------|--------|--------|--------|--------|--------|--------|--------|--------|
E|--------|--------|--------|--------|--------|--------|--------|--------|--------|
C|--------|--------|--------|--------|--------|--------|--------|--------|--------|
G|--------|--------|--------|--------|--------|--------|--------|--------|--------|
D|--------|--------|--------|--------|--------|--------|--------|--------|--------|
A|--------|--------|--------|--------|--------|--------|--------|--------|--------|


A|--------|--------|--------|--------|--------|--------|--------|--------|--------|
E|--------|--------|--------|--------|--------|--------|--------|--------|--------|
C|--------|--------|--------|--------|--------|--------|--------|--------|--------|
G|--------|--------|--------|--------|--------|--------|--------|--------|--------|
D|--------|--------|--------|--------|--------|--------|--------|--------|--------|
A|--------|--------|--------|--------|--------|--------|--------|--------|--------|


A|--------|--------|--------|--------|--------|--------|--------|--------|--------|
E|--------|--------|--------|--------|--------|--------|--------|--------|--------|
C|--------|--------|--------|--------|--------|--------|--------|--------|--------|
G|--------|--------|--------|--------|--------|--------|--------|--------|--------|
D|--------|--------|--------|--------|--------|--------|--------|--------|--------|
A|--------|--------|--------|--------|--------|--------|--------|--------|--------|


A|--------|--------|--------|--------|--------|--------|--------|--------|--------|
E|--------|--------|--------|--------|--------|--------|--------|--------|--------|
C|--------|--------|--------|--------|--------|--------|--------|--------|--------|
G|--------|--------|--------|--------|--------|--------|--------|--------|--------|
D|--------|--------|--------|--------|--------|--------|--------|--------|--------|
A|--------|--------|--------|--------|--------|--------|--------|--------|--------|


A|--------|--------|--------|--------|--------|--------|--------|--------|--------|
E|--------|--------|--------|--------|--------|--------|--------|--------|--------|
C|--------|--------|--------|--------|--------|--------|--------|--------|--------|
G|--------|--------|--------|--------|--------|--------|--------|--------|--------|
D|--------|--------|--------|--------|--------|--------|--------|--------|--------|
A|--------|--------|--------|--------|--------|--------|--------|--------|--------|


A|--------|--------|--------|--------|--------|--------|--------|--------|--------|
E|--------|--------|--------|--------|--------|--------|--------|--------|--------|
C|--------|--------|--------|--------|--------|--------|--------|--------|--------|
G|--------|--------|--------|--------|--------|--------|--------|--------|--------|
D|--------|--------|--------|--------|--------|--------|--------|--------|--------|
A|--------|--------|--------|--------|--------|--------|--------|--------|--------|


A|--------|--------|--------|--------|--------|--------|--------|--------|--------|
E|--------|--------|--------|--------|--------|--------|--------|--------|--------|
C|--------|--------|--------|--------|--------|--------|--------|--------|--------|
G|--------|--------|--------|--------|--------|--------|--------|--------|--------|
D|--------|--------|--------|--------|--------|--------|--------|--------|--------|
A|--------|--------|--------|--------|--------|--------|--------|--------|--------|


A|--------|--------|--------|--------|--------|--------|--------|--------|--------|
E|--------|--------|--------|--------|--------|--------|--------|--------|--------|
C|--------|--------|--------|--------|--------|--------|--------|--------|--------|
G|--------|--------|--------|--------|--------|--------|--------|--------|--------|
D|--------|--------|--------|--------|--------|--------|--------|--------|--------|
A|--------|--------|--------|--------|--------|--------|--------|--------|--------|


A|--------|--------|--------|--------|--------|--------|--------|--------|--------|
E|--------|--------|--------|--------|--------|--------|--------|--------|--------|
C|--------|--------|--------|--------|--------|--------|--------|--------|--------|
G|--------|--------|--------|--------|--------|--------|--------|--------|--------|
D|--------|--------|--------|--------|--------|--------|--------|--------|--------|
A|--------|--------|--------|--------|--------|--------|--------|--------|--------|


A|--------|--------|--------|--------|--------|--------|--------|--------|--------|
E|--------|--------|--------|--------|--------|--------|--------|--------|--------|
C|--------|--------|--------|--------|--------|--------|--------|--------|--------|
G|--------|--------|--------|--------|--------|--------|--------|--------|--------|
D|--------|--------|--------|--------|--------|--------|--------|--------|--------|
A|--------|--------|--------|--------|--------|--------|--------|--------|--------|


A|--------|--------|--------|--------|--------|--------|--------|--------|--------|
E|--------|--------|--------|--------|--------|--------|--------|--------|--------|
C|--------|--------|--------|--------|--------|--------|--------|--------|--------|
G|--------|--------|--------|--------|--------|--------|--------|--------|--------|
D|--------|--------|--------|--------|--------|--------|--------|--------|--------|
A|--------|--------|--------|--------|--------|--------|--------|--------|--------|


A|--------|--------|--------|--------|--------|--------|--------|--------|--------|
E|--------|--------|--------|--------|--------|--------|--------|--------|--------|
C|--------|--------|--------|--------|--------|--------|--------|--------|--------|
G|--------|--------|--------|--------|--------|--------|--------|--------|--------|
D|--------|--------|--------|--------|--------|--------|--------|--------|--------|
A|--------|--------|--------|--------|--------|--------|--------|--------|--------|


A|--------|--------|--------|--------|--------|--------|--------|--------|--------|
E|--------|--------|--------|--------|--------|--------|--------|--------|--------|
C|--------|--------|--------|--------|--------|--------|--------|--------|--------|
G|--------|--------|--------|--------|--------|--------|--------|--------|--------|
D|--------|--------|--------|--------|--------|--------|--------|--------|--------|
A|--------|--------|--------|--------|--------|--------|--------|--------|--------|


A|--------|--------|--------|--------|--------|--------|--------|--------|--------|
E|--------|--------|--------|--------|--------|--------|--------|--------|--------|
C|--------|--------|--------|--------|--------|--------|--------|--------|--------|
G|--------|--------|--------|--------|--------|--------|--------|--------|--------|
D|--------|--------|--------|--------|--------|--------|--------|--------|--------|
A|--------|--------|--------|--------|--------|--------|--------|--------|--------|


A|--------|--------|--------|--------|--------|--------|--------|--------|--------|
E|--------|--------|--------|--------|--------|--------|--------|--------|--------|
C|--------|--------|--------|--------|--------|--------|--------|--------|--------|
G|--------|--------|--------|--------|--------|--------|--------|--------|--------|
D|--------|--------|--------|--------|--------|--------|--------|--------|--------|
A|--------|--------|--------|--------|--------|--------|--------|--------|--------|


A|--------|--------|--------|--------|--------|--------|--------|--------|--------|
E|--------|--------|--------|--------|--------|--------|--------|--------|--------|
C|--------|--------|--------|--------|--------|--------|--------|--------|--------|
G|--------|--------|--------|--------|--------|--------|--------|--------|--------|
D|--------|--------|--------|--------|--------|--------|--------|--------|--------|
A|--------|--------|--------|--------|--------|--------|--------|--------|--------|


A|--------|--------|--------|--------|--------|--------|--------|--------|--------|
E|--------|--------|--------|--------|--------|--------|--------|--------|--------|
C|--------|--------|--------|--------|--------|--------|--------|--------|--------|
G|--------|--------|--------|--------|--------|--------|--------|--------|--------|
D|--------|--------|--------|--------|--------|--------|--------|--------|--------|
A|--------|--------|--------|--------|--------|--------|--------|--------|--------|


A|--------|--------|--------|--------|--------|--------|--------|--------|--------|
E|--------|--------|--------|--------|--------|--------|--------|--------|--------|
C|--------|--------|--------|--------|--------|--------|--------|--------|--------|
G|--------|--------|--------|--------|--------|--------|--------|--------|--------|
D|--------|--------|--------|--------|--------|--------|--------|--------|--------|
A|--------|--------|--------|--------|--------|--------|--------|--------|--------|


A|--------|--------|--------|---------------------------|------------------0---0----|
E|--------|--------|--------|------------------3---3----|--------------3------------|
C|--------|--------|--------|--------------2------------|----------2----------------|
G|--------|--------|--------|----------0----------------|------0--------------------|
D|--------|--------|--------|---------------------------|---------------------------|
A|--------|--------|--------|------3--------------------|---------------------------|


A|---------------------------|---------------------------|---------------------------|
E|--------------2---3---3----|--------------2---3---3----|------------------3---3----|
C|------------------2---2----|------------------2---2----|--------------2------------|
G|----------2----------------|----------2----------------|----------0----------------|
D|------0--------------------|------0--------------------|---------------------------|
A|---------------------------|---------------------------|------3--------------------|


A|------------------0---0----|---------------------------|---------------------------|
E|--------------3------------|--------------2---3---3----|--------------2---3---3----|
C|----------2----------------|------------------2---2----|------------------2---2----|
G|------0--------------------|----------2----------------|----------2----------------|
D|---------------------------|------0--------------------|------0--------------------|
A|---------------------------|---------------------------|---------------------------|


A|------------------------------|---------------------0---0-------|---------------------0---0-------|
E|------------------3---3-------|-----3-----------3-----------3---|-----------------0-----------0---|
C|--------------2-----------2---|-------------2-------------------|-----2---------------------------|
G|----------0-------------------|---------0-----------------------|-------------2-------------------|
D|------------------------------|---------------------------------|---------0-----------------------|
A|------3-----------------------|---------------------------------|---------------------------------|


A|---------------------------------|---------------------------------|---------------------0---0-------|
E|-----0---------------5---5-------|---------------------3---3-------|-----3-----------3-----------3---|
C|-----------------4-----------4---|-----------------2-----------2---|-------------2-------------------|
G|-------------2-------------------|-------------0-------------------|---------0-----------------------|
D|---------------------------------|---------------------------------|---------------------------------|
A|---------4-----------------------|---------3-----------------------|---------------------------------|


A|---------------------------------|---------------------------------|----------------|
E|---------------------------------|---------------------------------|----------------|
C|-----2---2---2---2---2---2---2---|-2---2---2---2---2---2---2---2---|-2---2----------|
G|---------3---3---3---3---3---3---|-3---3---3---3---3---3---3---3---|-3---3----------|
D|---------3---3---3---3---3---3---|-3---3---3---3---3---3---3---3---|-3---3----------|
A|---------1---1---1---1---1---1---|-1---1---1---1---1---1---1---1---|-1---1----------|


A|--------|--------|--------|--------|--------|--------|--------|--------|--------|
E|--------|--------|--------|--------|--------|--------|--------|--------|--------|
C|--------|--------|--------|--------|--------|--------|--------|--------|--------|
G|--------|--------|--------|--------|--------|--------|--------|--------|--------|
D|--------|--------|--------|--------|--------|--------|--------|--------|--------|
A|--------|--------|--------|--------|--------|--------|--------|--------|--------|


A|--------|--------|--------|-------------|---------------------------|---------------------------|
E|--------|--------|--------|-------------|---------------------------|---------------------------|
C|--------|--------|--------|-------------|-2-------------------------|-2-------------------------|
G|--------|--------|--------|-------------|-----2---2--------2--------|-----2---2--------2--------|
D|--------|--------|--------|--------0----|-------------0--------0----|-------------0--------0----|
A|--------|--------|--------|-------------|---------------------------|---------------------------|


A|------------------------------|---------------------------|---------------------------|
E|------------------------------|---------------------------|---------------------------|
C|-0----------------------------|-0-------------------------|-2-------------------------|
G|-----2---2--------2-------2---|-----2---2--------2--------|-----2---2--------2--------|
D|-------------0--------3-------|-------------3--------0----|-------------0--------0----|
A|------------------------------|---------------------------|---------------------------|


A|---------------------------|------------------------------|---------------------------|
E|---------------------------|------------------------------|---------------------------|
C|-2-------------------------|-0----------------------------|-0-------------------------|
G|-----2---2--------2--------|-----2---2--------2-------2---|-----2---2--------2--------|
D|-------------0--------0----|-------------0--------3-------|-------------3--------0----|
A|---------------------------|------------------------------|---------------------------|


A|---------------------------|---------------------------|------------------------------|
E|---------------------------|---------------------------|------------------------------|
C|-2-------------------------|-2-------------------------|-0----------------------------|
G|-----2---2--------2--------|-----2---2--------2--------|-----2---2--------2-------2---|
D|-------------0--------0----|-------------0--------0----|-------------0--------3-------|
A|---------------------------|---------------------------|------------------------------|


A|------------------------------|-------------|
E|------------------------------|-------------|
C|-0----------------------------|-0-----------|
G|-----2---2--------2-------2---|-------------|
D|-------------3--------3-------|-------------|
A|------------------------------|-------------|





Track 2: Clean II

A|--------|--------|--------|--------|--------|--------|--------|--------|--------|
E|--------|--------|--------|--------|--------|--------|--------|--------|--------|
C|--------|--------|--------|--------|--------|--------|--------|--------|--------|
G|--------|--------|--------|--------|--------|--------|--------|--------|--------|
D|--------|--------|--------|--------|--------|--------|--------|--------|--------|
A|--------|--------|--------|--------|--------|--------|--------|--------|--------|


A|--------|--------|--------|--------|--------|--------|--------|---------------------------------|
E|--------|--------|--------|--------|--------|--------|--------|---------------------------------|
C|--------|--------|--------|--------|--------|--------|--------|---------2-------------------2---|
G|--------|--------|--------|--------|--------|--------|--------|-----2-------2---2-------2-------|
D|--------|--------|--------|--------|--------|--------|--------|-0-------------------0-----------|
A|--------|--------|--------|--------|--------|--------|--------|---------------------------------|


A|-----------------------------------|---------------------------------|---------------------------------|
E|-----------------------------------|---------------------------------|---------------------------------|
C|---------2---------------------2---|---------0-------------------0---|---------0-------------------0---|
G|-----2-------2---2---------2-------|-----2-------2---2-------2-------|-----2-------2---2-------2-------|
D|-0------------------0--0-----------|-0-------------------0-----------|-3-------------------3-----------|
A|-----------------------------------|---------------------------------|---------------------------------|


A|---------------------------------|-----------------------------------|---------------------------------|
E|---------------------------------|-----------------------------------|---------------------------------|
C|---------2-------------------2---|---------2---------------------2---|---------0-------------------0---|
G|-----2-------2---2-------2-------|-----2-------2---2---------2-------|-----2-------2---2-------2-------|
D|-0-------------------0-----------|-0------------------0--0-----------|-0-------------------0-----------|
A|---------------------------------|-----------------------------------|---------------------------------|


A|---------------------------------|--------|--------|--------|--------|--------|--------|
E|---------------------------------|--------|--------|--------|--------|--------|--------|
C|---------0-------------------0---|--------|--------|--------|--------|--------|--------|
G|-----2-------2---2-------2-------|--------|--------|--------|--------|--------|--------|
D|-3-------------------3-----------|--------|--------|--------|--------|--------|--------|
A|---------------------------------|--------|--------|--------|--------|--------|--------|


A|--------|--------|--------|--------|--------|--------|--------|--------|--------|
E|--------|--------|--------|--------|--------|--------|--------|--------|--------|
C|--------|--------|--------|--------|--------|--------|--------|--------|--------|
G|--------|--------|--------|--------|--------|--------|--------|--------|--------|
D|--------|--------|--------|--------|--------|--------|--------|--------|--------|
A|--------|--------|--------|--------|--------|--------|--------|--------|--------|


A|--------|--------|--------|--------|--------|--------|--------|--------|--------|
E|--------|--------|--------|--------|--------|--------|--------|--------|--------|
C|--------|--------|--------|--------|--------|--------|--------|--------|--------|
G|--------|--------|--------|--------|--------|--------|--------|--------|--------|
D|--------|--------|--------|--------|--------|--------|--------|--------|--------|
A|--------|--------|--------|--------|--------|--------|--------|--------|--------|


A|--------|--------|--------|--------|--------|--------|--------|--------|--------|
E|--------|--------|--------|--------|--------|--------|--------|--------|--------|
C|--------|--------|--------|--------|--------|--------|--------|--------|--------|
G|--------|--------|--------|--------|--------|--------|--------|--------|--------|
D|--------|--------|--------|--------|--------|--------|--------|--------|--------|
A|--------|--------|--------|--------|--------|--------|--------|--------|--------|


A|--------|--------|--------|--------|--------|--------|--------|--------|--------|
E|--------|--------|--------|--------|--------|--------|--------|--------|--------|
C|--------|--------|--------|--------|--------|--------|--------|--------|--------|
G|--------|--------|--------|--------|--------|--------|--------|--------|--------|
D|--------|--------|--------|--------|--------|--------|--------|--------|--------|
A|--------|--------|--------|--------|--------|--------|--------|--------|--------|


A|--------|--------|--------|--------|--------|--------|--------|--------|--------|
E|--------|--------|--------|--------|--------|--------|--------|--------|--------|
C|--------|--------|--------|--------|--------|--------|--------|--------|--------|
G|--------|--------|--------|--------|--------|--------|--------|--------|--------|
D|--------|--------|--------|--------|--------|--------|--------|--------|--------|
A|--------|--------|--------|--------|--------|--------|--------|--------|--------|


A|------------------------|------------------------|------------------------|------------------------|
E|------------------------|------------------------|------------------------|------------------------|
C|-------2---2--------2---|-------2---2--------2---|-------0---0--------0---|-------0---0--------0---|
G|---------------2--------|---------------2--------|---------------2--------|---------------2--------|
D|-0----------------------|-0----------------------|-0----------------------|-3----------------------|
A|------------------------|------------------------|------------------------|------------------------|


A|--------|--------|--------|--------|--------|--------|--------|--------|--------|
E|--------|--------|--------|--------|--------|--------|--------|--------|--------|
C|--------|--------|--------|--------|--------|--------|--------|--------|--------|
G|--------|--------|--------|--------|--------|--------|--------|--------|--------|
D|--------|--------|--------|--------|--------|--------|--------|--------|--------|
A|--------|--------|--------|--------|--------|--------|--------|--------|--------|


A|--------|--------|--------|--------|--------|--------|--------|--------|--------|
E|--------|--------|--------|--------|--------|--------|--------|--------|--------|
C|--------|--------|--------|--------|--------|--------|--------|--------|--------|
G|--------|--------|--------|--------|--------|--------|--------|--------|--------|
D|--------|--------|--------|--------|--------|--------|--------|--------|--------|
A|--------|--------|--------|--------|--------|--------|--------|--------|--------|


A|--------|--------|--------|--------|--------|--------|--------|--------|--------|
E|--------|--------|--------|--------|--------|--------|--------|--------|--------|
C|--------|--------|--------|--------|--------|--------|--------|--------|--------|
G|--------|--------|--------|--------|--------|--------|--------|--------|--------|
D|--------|--------|--------|--------|--------|--------|--------|--------|--------|
A|--------|--------|--------|--------|--------|--------|--------|--------|--------|


A|--------|--------|--------|--------|--------|--------|--------|--------|--------|
E|--------|--------|--------|--------|--------|--------|--------|--------|--------|
C|--------|--------|--------|--------|--------|--------|--------|--------|--------|
G|--------|--------|--------|--------|--------|--------|--------|--------|--------|
D|--------|--------|--------|--------|--------|--------|--------|--------|--------|
A|--------|--------|--------|--------|--------|--------|--------|--------|--------|


A|--------|--------|--------|--------|--------|--------|--------|--------|--------|
E|--------|--------|--------|--------|--------|--------|--------|--------|--------|
C|--------|--------|--------|--------|--------|--------|--------|--------|--------|
G|--------|--------|--------|--------|--------|--------|--------|--------|--------|
D|--------|--------|--------|--------|--------|--------|--------|--------|--------|
A|--------|--------|--------|--------|--------|--------|--------|--------|--------|


A|--------|--------|--------|--------|--------|--------|--------|--------|--------|
E|--------|--------|--------|--------|--------|--------|--------|--------|--------|
C|--------|--------|--------|--------|--------|--------|--------|--------|--------|
G|--------|--------|--------|--------|--------|--------|--------|--------|--------|
D|--------|--------|--------|--------|--------|--------|--------|--------|--------|
A|--------|--------|--------|--------|--------|--------|--------|--------|--------|


A|--------|--------|--------|--------|--------|--------|--------|--------|--------|
E|--------|--------|--------|--------|--------|--------|--------|--------|--------|
C|--------|--------|--------|--------|--------|--------|--------|--------|--------|
G|--------|--------|--------|--------|--------|--------|--------|--------|--------|
D|--------|--------|--------|--------|--------|--------|--------|--------|--------|
A|--------|--------|--------|--------|--------|--------|--------|--------|--------|


A|--------|--------|--------|--------|--------|--------|--------|--------|--------|
E|--------|--------|--------|--------|--------|--------|--------|--------|--------|
C|--------|--------|--------|--------|--------|--------|--------|--------|--------|
G|--------|--------|--------|--------|--------|--------|--------|--------|--------|
D|--------|--------|--------|--------|--------|--------|--------|--------|--------|
A|--------|--------|--------|--------|--------|--------|--------|--------|--------|


A|--------|--------|--------|--------|--------|--------|--------|--------|--------|
E|--------|--------|--------|--------|--------|--------|--------|--------|--------|
C|--------|--------|--------|--------|--------|--------|--------|--------|--------|
G|--------|--------|--------|--------|--------|--------|--------|--------|--------|
D|--------|--------|--------|--------|--------|--------|--------|--------|--------|
A|--------|--------|--------|--------|--------|--------|--------|--------|--------|


A|--------|--------|--------|--------|--------|--------|--------|--------|--------|
E|--------|--------|--------|--------|--------|--------|--------|--------|--------|
C|--------|--------|--------|--------|--------|--------|--------|--------|--------|
G|--------|--------|--------|--------|--------|--------|--------|--------|--------|
D|--------|--------|--------|--------|--------|--------|--------|--------|--------|
A|--------|--------|--------|--------|--------|--------|--------|--------|--------|


A|--------|--------|--------|--------|--------|--------|--------|--------|--------|
E|--------|--------|--------|--------|--------|--------|--------|--------|--------|
C|--------|--------|--------|--------|--------|--------|--------|--------|--------|
G|--------|--------|--------|--------|--------|--------|--------|--------|--------|
D|--------|--------|--------|--------|--------|--------|--------|--------|--------|
A|--------|--------|--------|--------|--------|--------|--------|--------|--------|


A|--------|--------|--------|--------|--------|--------|--------|--------|--------|
E|--------|--------|--------|--------|--------|--------|--------|--------|--------|
C|--------|--------|--------|--------|--------|--------|--------|--------|--------|
G|--------|--------|--------|--------|--------|--------|--------|--------|--------|
D|--------|--------|--------|--------|--------|--------|--------|--------|--------|
A|--------|--------|--------|--------|--------|--------|--------|--------|--------|


A|--------|--------|--------|--------|--------|--------|--------|--------|--------|
E|--------|--------|--------|--------|--------|--------|--------|--------|--------|
C|--------|--------|--------|--------|--------|--------|--------|--------|--------|
G|--------|--------|--------|--------|--------|--------|--------|--------|--------|
D|--------|--------|--------|--------|--------|--------|--------|--------|--------|
A|--------|--------|--------|--------|--------|--------|--------|--------|--------|


A|--------|--------|--------|--------|--------|--------|--------|--------|--------|
E|--------|--------|--------|--------|--------|--------|--------|--------|--------|
C|--------|--------|--------|--------|--------|--------|--------|--------|--------|
G|--------|--------|--------|--------|--------|--------|--------|--------|--------|
D|--------|--------|--------|--------|--------|--------|--------|--------|--------|
A|--------|--------|--------|--------|--------|--------|--------|--------|--------|


A|--------|--------|--------|--------|--------|--------|--------|--------|--------|
E|--------|--------|--------|--------|--------|--------|--------|--------|--------|
C|--------|--------|--------|--------|--------|--------|--------|--------|--------|
G|--------|--------|--------|--------|--------|--------|--------|--------|--------|
D|--------|--------|--------|--------|--------|--------|--------|--------|--------|
A|--------|--------|--------|--------|--------|--------|--------|--------|--------|


A|--------|--------|--------|--------|--------|--------|--------|--------|--------|
E|--------|--------|--------|--------|--------|--------|--------|--------|--------|
C|--------|--------|--------|--------|--------|--------|--------|--------|--------|
G|--------|--------|--------|--------|--------|--------|--------|--------|--------|
D|--------|--------|--------|--------|--------|--------|--------|--------|--------|
A|--------|--------|--------|--------|--------|--------|--------|--------|--------|


A|--------|--------|--------|--------|--------|--------|--------|--------|--------|
E|--------|--------|--------|--------|--------|--------|--------|--------|--------|
C|--------|--------|--------|--------|--------|--------|--------|--------|--------|
G|--------|--------|--------|--------|--------|--------|--------|--------|--------|
D|--------|--------|--------|--------|--------|--------|--------|--------|--------|
A|--------|--------|--------|--------|--------|--------|--------|--------|--------|


A|--------|--------|--------|--------|--------|--------|--------|--------|--------|
E|--------|--------|--------|--------|--------|--------|--------|--------|--------|
C|--------|--------|--------|--------|--------|--------|--------|--------|--------|
G|--------|--------|--------|--------|--------|--------|--------|--------|--------|
D|--------|--------|--------|--------|--------|--------|--------|--------|--------|
A|--------|--------|--------|--------|--------|--------|--------|--------|--------|


A|--------|--------|--------|--------|--------|--------|--------|--------|--------|
E|--------|--------|--------|--------|--------|--------|--------|--------|--------|
C|--------|--------|--------|--------|--------|--------|--------|--------|--------|
G|--------|--------|--------|--------|--------|--------|--------|--------|--------|
D|--------|--------|--------|--------|--------|--------|--------|--------|--------|
A|--------|--------|--------|--------|--------|--------|--------|--------|--------|


A|--------|--------|--------|--------|--------|--------|--------|--------|--------|
E|--------|--------|--------|--------|--------|--------|--------|--------|--------|
C|--------|--------|--------|--------|--------|--------|--------|--------|--------|
G|--------|--------|--------|--------|--------|--------|--------|--------|--------|
D|--------|--------|--------|--------|--------|--------|--------|--------|--------|
A|--------|--------|--------|--------|--------|--------|--------|--------|--------|


A|--------|--------|--------|--------|--------|--------|--------|--------|--------|
E|--------|--------|--------|--------|--------|--------|--------|--------|--------|
C|--------|--------|--------|--------|--------|--------|--------|--------|--------|
G|--------|--------|--------|--------|--------|--------|--------|--------|--------|
D|--------|--------|--------|--------|--------|--------|--------|--------|--------|
A|--------|--------|--------|--------|--------|--------|--------|--------|--------|


A|--------|--------|--------|--------|--------|--------|--------|--------|--------|
E|--------|--------|--------|--------|--------|--------|--------|--------|--------|
C|--------|--------|--------|--------|--------|--------|--------|--------|--------|
G|--------|--------|--------|--------|--------|--------|--------|--------|--------|
D|--------|--------|--------|--------|--------|--------|--------|--------|--------|
A|--------|--------|--------|--------|--------|--------|--------|--------|--------|


A|--------|--------|--------|--------|--------|--------|--------|--------|--------|
E|--------|--------|--------|--------|--------|--------|--------|--------|--------|
C|--------|--------|--------|--------|--------|--------|--------|--------|--------|
G|--------|--------|--------|--------|--------|--------|--------|--------|--------|
D|--------|--------|--------|--------|--------|--------|--------|--------|--------|
A|--------|--------|--------|--------|--------|--------|--------|--------|--------|


A|--------|--------|--------|--------|--------|--------|--------|--------|--------|
E|--------|--------|--------|--------|--------|--------|--------|--------|--------|
C|--------|--------|--------|--------|--------|--------|--------|--------|--------|
G|--------|--------|--------|--------|--------|--------|--------|--------|--------|
D|--------|--------|--------|--------|--------|--------|--------|--------|--------|
A|--------|--------|--------|--------|--------|--------|--------|--------|--------|


A|--------|--------|--------|--------|--------|--------|--------|--------|--------|
E|--------|--------|--------|--------|--------|--------|--------|--------|--------|
C|--------|--------|--------|--------|--------|--------|--------|--------|--------|
G|--------|--------|--------|--------|--------|--------|--------|--------|--------|
D|--------|--------|--------|--------|--------|--------|--------|--------|--------|
A|--------|--------|--------|--------|--------|--------|--------|--------|--------|


A|--------|--------|--------|--------|--------|--------|--------|--------|--------|
E|--------|--------|--------|--------|--------|--------|--------|--------|--------|
C|--------|--------|--------|--------|--------|--------|--------|--------|--------|
G|--------|--------|--------|--------|--------|--------|--------|--------|--------|
D|--------|--------|--------|--------|--------|--------|--------|--------|--------|
A|--------|--------|--------|--------|--------|--------|--------|--------|--------|


A|--------|--------|--------|--------|--------|--------|----------------|------------------------------|
E|--------|--------|--------|--------|--------|--------|----------------|------------------------------|
C|--------|--------|--------|--------|--------|--------|----------------|-2----2-----------------------|
G|--------|--------|--------|--------|--------|--------|------------2---|----------2-------2-------2---|
D|--------|--------|--------|--------|--------|--------|--------0-------|--------------0-------0-------|
A|--------|--------|--------|--------|--------|--------|----------------|------------------------------|


A|------------------------------|------------------------------|------------------------------|
E|------------------------------|------------------------------|------------------------------|
C|-2----2-----------------------|-0----0-----------------------|-0----0-----------------------|
G|----------2-------2-------2---|----------2-------2-------2---|----------2-------2-------2---|
D|--------------0-------0-------|--------------0-------3-------|--------------3-------0-------|
A|------------------------------|------------------------------|------------------------------|


A|------------------------------|------------------------------|------------------------------|
E|------------------------------|------------------------------|------------------------------|
C|-2----2-----------------------|-2----2-----------------------|-0----0-----------------------|
G|----------2-------2-------2---|----------2-------2-------2---|----------2-------2-------2---|
D|--------------0-------0-------|--------------0-------0-------|--------------0-------3-------|
A|------------------------------|------------------------------|------------------------------|


A|------------------------------|-------------|
E|------------------------------|-------------|
C|-0----0-----------------------|-0-----------|
G|----------2-------2-------2---|-------------|
D|--------------3-------3-------|-------------|
A|------------------------------|-------------|





Track 3: Distortion II

A|--------|--------|--------|--------|--------|--------|--------|--------|--------|
E|--------|--------|--------|--------|--------|--------|--------|--------|--------|
C|--------|--------|--------|--------|--------|--------|--------|--------|--------|
G|--------|--------|--------|--------|--------|--------|--------|--------|--------|
D|--------|--------|--------|--------|--------|--------|--------|--------|--------|
A|--------|--------|--------|--------|--------|--------|--------|--------|--------|


A|--------|--------|--------|--------|--------|--------|--------|--------|--------|
E|--------|--------|--------|--------|--------|--------|--------|--------|--------|
C|--------|--------|--------|--------|--------|--------|--------|--------|--------|
G|--------|--------|--------|--------|--------|--------|--------|--------|--------|
D|--------|--------|--------|--------|--------|--------|--------|--------|--------|
A|--------|--------|--------|--------|--------|--------|--------|--------|--------|


A|--------|--------|--------|--------|--------|--------|--------|--------|--------|
E|--------|--------|--------|--------|--------|--------|--------|--------|--------|
C|--------|--------|--------|--------|--------|--------|--------|--------|--------|
G|--------|--------|--------|--------|--------|--------|--------|--------|--------|
D|--------|--------|--------|--------|--------|--------|--------|--------|--------|
A|--------|--------|--------|--------|--------|--------|--------|--------|--------|


A|--------|--------|--------|--------|--------|--------|--------|--------|--------|
E|--------|--------|--------|--------|--------|--------|--------|--------|--------|
C|--------|--------|--------|--------|--------|--------|--------|--------|--------|
G|--------|--------|--------|--------|--------|--------|--------|--------|--------|
D|--------|--------|--------|--------|--------|--------|--------|--------|--------|
A|--------|--------|--------|--------|--------|--------|--------|--------|--------|


A|--------|--------|--------|--------|--------|--------|--------|--------|--------|
E|--------|--------|--------|--------|--------|--------|--------|--------|--------|
C|--------|--------|--------|--------|--------|--------|--------|--------|--------|
G|--------|--------|--------|--------|--------|--------|--------|--------|--------|
D|--------|--------|--------|--------|--------|--------|--------|--------|--------|
A|--------|--------|--------|--------|--------|--------|--------|--------|--------|


A|--------|--------|--------|--------|--------|--------|--------|--------|--------|
E|--------|--------|--------|--------|--------|--------|--------|--------|--------|
C|--------|--------|--------|--------|--------|--------|--------|--------|--------|
G|--------|--------|--------|--------|--------|--------|--------|--------|--------|
D|--------|--------|--------|--------|--------|--------|--------|--------|--------|
A|--------|--------|--------|--------|--------|--------|--------|--------|--------|


A|--------|--------|--------|--------|--------|--------|--------|--------|------------------------------|
E|--------|--------|--------|--------|--------|--------|--------|--------|------------------------------|
C|--------|--------|--------|--------|--------|--------|--------|--------|-------------4---4---5----2---|
G|--------|--------|--------|--------|--------|--------|--------|--------|---------5--------------------|
D|--------|--------|--------|--------|--------|--------|--------|--------|-----3------------------------|
A|--------|--------|--------|--------|--------|--------|--------|--------|-1----------------------------|


A|---------------------------|------------------------------|------------------------------|
E|---------------------------|------------------------------|------------------------------|
C|-2-------------------------|------------------------------|------------------------------|
G|-----3-----------3---------|---------0---2---2------------|------------------------------|
D|---------3-----------------|---------------------0---2----|------------------------------|
A|-------------1--------1----|-0---3------------------------|-3---5---5----5---3---0---3---|


A|------------------------------|------------------------------|---------------------------|
E|------------------------------|------------------------------|---------------------------|
C|------------------------------|------------------------------|---------------------------|
G|-0---2---2--------------------|--------------0---2---2-------|---------------------------|
D|-0---2---2---0---2----5---7---|-7------------------------0---|-2-------------------------|
A|----------------------3---5---|-5----0---3-------------------|------3---5---5----5---3---|


A|------------------------------|---------------------------------|--------|--------|
E|------------------------------|---------------------------------|--------|--------|
C|------------------------------|---------------------------------|--------|--------|
G|---------0---2---2------------|---------------------------------|--------|--------|
D|---------0---2---2---0---2----|-------------5---5-------3---2---|--------|--------|
A|-0---3------------------------|-3---5---3---5---5---0-----------|--------|--------|


A|--------|--------|--------|--------|--------|--------|----------------------|----------------------|
E|--------|--------|--------|--------|--------|--------|----------------------|----------------------|
C|--------|--------|--------|--------|--------|--------|-2----0--0--2---------|-2----0--0--2---------|
G|--------|--------|--------|--------|--------|--------|-2----0--0--2---------|-2----0--0--2---------|
D|--------|--------|--------|--------|--------|--------|-0----------0---------|-0----------0---------|
A|--------|--------|--------|--------|--------|--------|----------------------|----------------------|


A|----------------------|----------------------------------|----------------------|
E|----------------------|----------------------------------|----------------------|
C|-2----0--0--2---------|-0----0--0--0---------------------|-2----0--0--2---------|
G|-2----0--0--2---------|-2----0--0--2-----------4--5--4---|-2----0--0--2---------|
D|-0----------0---------|-3----------3-------3-------------|-0----------0---------|
A|----------------------|----------------------------------|----------------------|


A|----------------------|----------------------|----------------------------------|
E|----------------------|----------------------|----------------------------------|
C|-2----0--0--2---------|-2----0--0--2---------|-0----0--0--0---------------------|
G|-2----0--0--2---------|-2----0--0--2---------|-2----0--0--2-----------4--5--4---|
D|-0----------0---------|-0----------0---------|-3----------3-------3-------------|
A|----------------------|----------------------|----------------------------------|


A|--------|--------|--------|--------|--------|--------|--------|--------|--------|
E|--------|--------|--------|--------|--------|--------|--------|--------|--------|
C|--------|--------|--------|--------|--------|--------|--------|--------|--------|
G|--------|--------|--------|--------|--------|--------|--------|--------|--------|
D|--------|--------|--------|--------|--------|--------|--------|--------|--------|
A|--------|--------|--------|--------|--------|--------|--------|--------|--------|


A|--------|--------|--------|--------|--------|--------|--------|------------------------------|
E|--------|--------|--------|--------|--------|--------|--------|------------------------------|
C|--------|--------|--------|--------|--------|--------|--------|------------------------------|
G|--------|--------|--------|--------|--------|--------|--------|---------0---2---2------------|
D|--------|--------|--------|--------|--------|--------|--------|---------------------0---2----|
A|--------|--------|--------|--------|--------|--------|--------|-0---3------------------------|


A|------------------------------|------------------------------|------------------------------|
E|------------------------------|------------------------------|------------------------------|
C|------------------------------|------------------------------|------------------------------|
G|------------------------------|-0---2---2--------------------|--------------0---2---2-------|
D|------------------------------|-0---2---2---0---2----5---7---|-7------------------------0---|
A|-3---5---5----5---3---0---3---|----------------------3---5---|-5----0---3-------------------|


A|---------------------------|------------------------------|------------------------------|
E|---------------------------|------------------------------|------------------------------|
C|---------------------------|------------------------------|------------------------------|
G|---------------------------|---------0---2---2------------|----------------------0---2---|
D|-2-------------------------|---------0---2---2---0---2----|-5---7---7--------------------|
A|------3---5---5----5---3---|-0---3------------------------|-3---5---5----0---3-----------|


A|---------------------------|---------------------------------|---------------------------|
E|---------------------------|---------------------------------|---------------------------|
C|---------------------------|---------------------------------|---------------------------|
G|-2-------------------------|-----------------0---2---2-------|---------------------------|
D|-----0---2-----------------|-----------------0---2---2---0---|-2----5---7---7------------|
A|--------------3---5---5----|-5---3---0---3-------------------|------3---5---5----0---3---|


A|------------------------------|------------------------------|------------------------------|
E|------------------------------|------------------------------|------------------------------|
C|------------------------------|------------------------------|------------------------------|
G|-0---2---2--------------------|----------------------0---2---|-2----------------------------|
D|-------------0---2------------|----------------------0---2---|-2---0---2----------------5---|
A|----------------------3---5---|-5----5---3---0---3-----------|--------------3---5---3---5---|


A|-----------------------|--------|--------|--------|--------|--------|--------|--------|
E|-----------------------|--------|--------|--------|--------|--------|--------|--------|
C|-----------------------|--------|--------|--------|--------|--------|--------|--------|
G|-----------------------|--------|--------|--------|--------|--------|--------|--------|
D|-5---------------------|--------|--------|--------|--------|--------|--------|--------|
A|-5---0---3---2---------|--------|--------|--------|--------|--------|--------|--------|


A|--------|--------|--------|--------|--------|--------|---------------------|---------------------|
E|--------|--------|--------|--------|--------|--------|---------------------|---------------------|
C|--------|--------|--------|--------|--------|--------|------4--------------|-4----4--------------|
G|--------|--------|--------|--------|--------|--------|------2-----0---0----|-2----2---0-----2----|
D|--------|--------|--------|--------|--------|--------|---------------------|---------------------|
A|--------|--------|--------|--------|--------|--------|---------------------|---------------------|


A|---------------------|---------------------|---------------------------|---------------------|
E|---------------------|---------------------|---------------------------|---------------------|
C|---------------------|----------------4----|--------------4----4-------|----------------7----|
G|-5----7--------------|-5----5---4-----2----|-----0---0----2----2---0---|------2----5---------|
D|------------5---5----|---------------------|---------------------------|---------------------|
A|---------------------|---------------------|---------------------------|---------------------|


A|------------------------|---------------------|---------------------|---------------------|
E|------------------------|---------------------|---------------------|---------------------|
C|------------------------|-4--------------4----|-4-------------------|---------------------|
G|-----5---5----7----0----|-2-----0---0----2----|-2---0-----2----5----|-7--------------5----|
D|------------------------|---------------------|---------------------|-------5---5---------|
A|------------------------|---------------------|---------------------|---------------------|


A|---------------------|---------------------|---------------------|---------------------|
E|---------------------|---------------------|---------------------|---------------------|
C|-----------4---------|------4----4---------|-----------7-----6---|-6--------------4----|
G|-5---4-----2-----0---|-0----2----2---0-----|-2----5--------------|------7----5----2----|
D|---------------------|---------------------|---------------------|---------------------|
A|---------------------|---------------------|---------------------|---------------------|


A|-----------------|-------------|-------------|--------|--------|--------|--------|
E|-----------------|-------------|-------------|--------|--------|--------|--------|
C|-----------------|-------------|-------------|--------|--------|--------|--------|
G|-----------------|-------------|-------------|--------|--------|--------|--------|
D|-----------------|-------------|-------------|--------|--------|--------|--------|
A|-----------------|-------------|-------------|--------|--------|--------|--------|


A|--------|--------|--------|--------|--------|--------|--------|--------|--------|
E|--------|--------|--------|--------|--------|--------|--------|--------|--------|
C|--------|--------|--------|--------|--------|--------|--------|--------|--------|
G|--------|--------|--------|--------|--------|--------|--------|--------|--------|
D|--------|--------|--------|--------|--------|--------|--------|--------|--------|
A|--------|--------|--------|--------|--------|--------|--------|--------|--------|


A|--------|--------|--------|--------|--------|--------|--------|--------|--------|
E|--------|--------|--------|--------|--------|--------|--------|--------|--------|
C|--------|--------|--------|--------|--------|--------|--------|--------|--------|
G|--------|--------|--------|--------|--------|--------|--------|--------|--------|
D|--------|--------|--------|--------|--------|--------|--------|--------|--------|
A|--------|--------|--------|--------|--------|--------|--------|--------|--------|


A|--------|--------|--------|-------------|-------------|--------22---|--------------------------------|
E|--------|--------|--------|-------------|-------------|-------------|--------------------------------|
C|--------|--------|--------|-------------|-------------|-------------|--------------0--0--0---5---4---|
G|--------|--------|--------|-------------|-------------|-------------|----------5---0--0--0-----------|
D|--------|--------|--------|-------------|-------------|-------------|--------------------------------|
A|--------|--------|--------|-------------|-------------|-------------|--------------------------------|


A|-----------------------------------|---------------------------2-------|-----------------------------------|
E|-----3-----------------------------|-------------------------------3---|-5---3-----------------------------|
C|-2---------------4---0--0--0-------|---------0--0--0---5---4-----------|---------5---4---4---0--0--0-------|
G|---------5---4---2---0--0--0---2---|-4---5---0--0--0-------------------|-----------------2---0--0--0---2---|
D|-----------------------------------|-----------------------------------|-----------------------------------|
A|-----------------------------------|-----------------------------------|-----------------------------------|


A|-----------------------------------|-----------------------------------|-------------------2---------------|
E|-------------------------------3---|-----------------------------------|-----------------------3---5---3---|
C|---------0--0--0---5---4---2-------|---------4---0--0--0---------------|-0--0--0---5---4-------------------|
G|-4---5---0--0--0-------------------|-5---4---2---0--0--0---2---4---5---|-0--0--0---------------------------|
D|-----------------------------------|-----------------------------------|-----------------------------------|
A|-----------------------------------|-----------------------------------|-----------------------------------|


A|-----------------------------------|-------------------------------------|-------------------------------------|
E|-----------------------------------|-------------------------------------|-------------------------------------|
C|-5---4---4---0--0--0---4---6---7---|-0--0--0---7---7---------------------|---------------------------4---0--0--|
G|---------2---0--0--0---2---4---5---|-0--0--0---5---5---7---0--0--0---7---|-7---4---0--0--0---4---4---2---0--0--|
D|-----------------------------------|-------------------5---0--0--0---5---|-5---2---0--0--0---2---2-------------|
A|-----------------------------------|-------------------------------------|-------------------------------------|


A|-----------------------------------|-------------------------------------|---------------------------------------|
E|-----------------------------------|-------------------------------------|---------------------------------------|
C|-0---4---6---7---0--0--0---7---7---|-----------------------5---4--2------|-------4---0--0--0---------------0--0--|
G|-0---2---4---5---0--0--0---5---5---|-7---0--0--0---7---7-------------5---|-4--5--2---0--0--0---2---4---5---0--0--|
D|-----------------------------------|-5---0--0--0---5---5-----------------|---------------------------------------|
A|-----------------------------------|-------------------------------------|---------------------------------------|


A|---------------------------------|-------------------------------------|-----2---------------------------|
E|-----------------3---------------|-------------------------------------|---------3---5---3---------------|
C|-0---5---4---2---------------4---|-0--0--0---------------0--0--0---5---|-4-------------------5---4-------|
G|-0-------------------5---4---2---|-0--0--0---2---4---5---0--0--0-------|---------------------------------|
D|---------------------------------|-------------------------------------|---------------------------------|
A|---------------------------------|-------------------------------------|---------------------------------|


A|--------|--------|--------|--------|--------|--------|--------|--------|--------|
E|--------|--------|--------|--------|--------|--------|--------|--------|--------|
C|--------|--------|--------|--------|--------|--------|--------|--------|--------|
G|--------|--------|--------|--------|--------|--------|--------|--------|--------|
D|--------|--------|--------|--------|--------|--------|--------|--------|--------|
A|--------|--------|--------|--------|--------|--------|--------|--------|--------|


A|--------|--------|-------------------------------------|---------------------------------|
E|--------|--------|-------------------------------------|---------------------------------|
C|--------|--------|-------------------------------------|---------------------------------|
G|--------|--------|-------------------------------------|-----------------0---------------|
D|--------|--------|-------------------------------------|-----3---2---0-------------------|
A|--------|--------|-----0---0--0--0---0---2---3---3--3--|-3-------------------3---2---0---|


A|---------------------------------------|---------------------------------|-------------------------------------|
E|---------------------------------------|---------------------------------|-------------------------------------|
C|---------------------------------------|---------------------------------|-------------------------------------|
G|-----------2---------------------------|-5---4-------2-------------------|-------------------2---2--2--2---4---|
D|---------------5--3--2---2--2--2---5---|---------5-------5---3---2---3---|-3--3--3---3---5---------------------|
A|-0--0--0-------------------------------|---------------------------------|-------------------------------------|


A|-------------------------------------|-----------------------------------|-------------------------------------|
E|-------------------------------------|-----------------------------------|-------------------------------------|
C|-------------------------------------|-----------------------------------|-------------------------------------|
G|-5-----------------------------------|-----------------------2---5-------|-------5---4---2---------------------|
D|-----5---5--5--3---2---0---0--0--0---|-0---2---3---3--3--3-----------5---|-5--5--------------5---2---2--2--2---|
A|-------------------------------------|-----------------------------------|-------------------------------------|


A|-----------------------------------|---------------------------------|-----------------------------------|
E|-----------------------------------|---------------------------------|-----------------------------------|
C|-------------------------------2---|-4---5-------------------2---4---|-5-----------4---4--4--4-----------|
G|---------2---2--2--2---4---5-------|-------------2---4---5-----------|-----3-------2---2--2--2---2---4---|
D|-3---5-----------------------------|---------5-----------------------|---------3-------------------------|
A|-----------------------------------|---------------------------------|-----------------------------------|


A|-----------------------------------|-------------------------------------|-------------2-------------------|
E|---------------------------3-------|-------------------------------------|-----------------3---5---3-------|
C|-----0--0--0---5---4---2-----------|-----4---0--0--0---------------0--0--|-0---5---4-------------------5---|
G|-5---0--0--0-------------------5---|-4---2---0--0--0---2---4---5---0--0--|-0-------------------------------|
D|-----------------------------------|-------------------------------------|---------------------------------|
A|-----------------------------------|-------------------------------------|---------------------------------|


A|-------------------------------------|---------------------------------|-------------------------------------|
E|-------------------------------------|-----------------3---------------|-------------------------------------|
C|-4---4---0--0--0---------------0--0--|-0---5---4---2---------------4---|-0--0--0---------------0--0--0---5---|
G|-----2---0--0--0---2---4---5---0--0--|-0-------------------5---4---2---|-0--0--0---2---4---5---0--0--0-------|
D|-------------------------------------|---------------------------------|-------------------------------------|
A|-------------------------------------|---------------------------------|-------------------------------------|


A|-----2---------------------------|-------------------------------------|-------------------------------------|
E|---------3---5---3---------------|-------------------------------------|-------------------------------------|
C|-4-------------------5---4---4---|-0--0--0---4---6---7---0--0--0---7---|-7-----------------------------------|
G|-----------------------------2---|-0--0--0---2---4---5---0--0--0---5---|-5---7---0--0--0---7---7---4---0--0--|
D|---------------------------------|-------------------------------------|-----5---0--0--0---5---5---2---0--0--|
A|---------------------------------|-------------------------------------|-------------------------------------|


A|-----------------------------------|-------------------------------------|---------------------------------------|
E|-----------------------------------|-------------------------------------|---------------------------------------|
C|-------------4---0--0--0---4---6---|-7---0--0--0---7---7-----------------|---------5---4--2------------4---0--0--|
G|-0---4---4---2---0--0--0---2---4---|-5---0--0--0---5---5---7---0--0--0---|-7---7-------------5---4--5--2---0--0--|
D|-0---2---2-------------------------|-----------------------5---0--0--0---|-5---5---------------------------------|
A|-----------------------------------|-------------------------------------|---------------------------------------|


A|-----------------------------------|-----------------------------------|---------------------------2-------|
E|-----------------------------------|-----3-----------------------------|-------------------------------3---|
C|-0---------------0--0--0---5---4---|-2---------------4---0--0--0-------|---------0--0--0---5---4-----------|
G|-0---2---4---5---0--0--0-----------|---------5---4---2---0--0--0---2---|-4---5---0--0--0-------------------|
D|-----------------------------------|-----------------------------------|-----------------------------------|
A|-----------------------------------|-----------------------------------|-----------------------------------|


A|-----------------------------------|-----------------------------------|---------------------------------|
E|-5---3-----------------------------|-----------------------------------|---------------------------------|
C|---------5---4---------------------|---------------------------2---4---|-5-------------------2---4---5---|
G|-----------------------------------|-----2---2--2--2---4---5-----------|---------2---4---5---------------|
D|-----------------2---2--2--2---3---|-5---------------------------------|-----5---------------------------|
A|-----------------------------------|-----------------------------------|---------------------------------|


A|------------------------|---------------------|---------------------|---------------------|
E|------------------------|---------------------|---------------------|---------------------|
C|---------4--------------|-4----4--------------|---------------------|----------------4----|
G|-3-------2-----0---0----|-2----2---0-----2----|-5----7--------------|-5----5---4-----2----|
D|-----3------------------|---------------------|------------5---5----|---------------------|
A|------------------------|---------------------|---------------------|---------------------|


A|---------------------------|---------------------|------------------------|---------------------|
E|---------------------------|---------------------|------------------------|---------------------|
C|--------------4----4-------|----------------7----|------------------------|-4--------------4----|
G|-----0---0----2----2---0---|------2----5---------|-----5---5----7----0----|-2-----0---0----2----|
D|---------------------------|---------------------|------------------------|---------------------|
A|---------------------------|---------------------|------------------------|---------------------|


A|---------------------|---------------------|---------------------|---------------------|
E|---------------------|---------------------|---------------------|---------------------|
C|-4-------------------|---------------------|-----------4---------|------4----4---------|
G|-2---0-----2----5----|-7--------------5----|-5---4-----2-----0---|-0----2----2---0-----|
D|---------------------|-------5---5---------|---------------------|---------------------|
A|---------------------|---------------------|---------------------|---------------------|


A|---------------------|---------------------|---------------------------|---------------------|
E|---------------------|---------------------|---------------------------|---------------------|
C|-----------7-----6---|-6--------------4----|--------------4----4-------|---------------------|
G|-2----5--------------|------7----5----2----|-----0---0----2----2---0---|------2----5----7----|
D|---------------------|---------------------|---------------------------|---------------------|
A|---------------------|---------------------|---------------------------|---------------------|


A|---------------------------|---------------------|---------------------|---------------------|
E|---------------------------|---------------------|---------------------|---------------------|
C|---------------------------|------4--------------|-4----4--------------|------7--------------|
G|--------------5----5---4---|------2-----0---0----|-2----2---0-----2----|-5----------5---5----|
D|-----5---5-----------------|---------------------|---------------------|---------------------|
A|---------------------------|---------------------|---------------------|---------------------|


A|---------------------|---------------------|---------------------|---------------------|
E|---------------------|---------------------|---------------------|---------------------|
C|-----------4---------|------4----4---------|---------------------|---------------------|
G|-7----0----2-----0---|-0----2----2---0-----|-2----5----7---------|------5----5---4-----|
D|---------------------|---------------------|-----------------5---|-5-------------------|
A|---------------------|---------------------|---------------------|---------------------|


A|---------------------|---------------------|---------------------|-------------|
E|---------------------|---------------------|---------------------|-------------|
C|-4--------------4----|-4-------------------|-7-----6---6---------|-------------|
G|-2-----0---0----2----|-2---0-----2----5----|----------------7----|-5-----------|
D|---------------------|---------------------|---------------------|-------------|
A|---------------------|---------------------|---------------------|-------------|


A|--------|--------|--------|--------|--------|--------|--------|--------|--------|
E|--------|--------|--------|--------|--------|--------|--------|--------|--------|
C|--------|--------|--------|--------|--------|--------|--------|--------|--------|
G|--------|--------|--------|--------|--------|--------|--------|--------|--------|
D|--------|--------|--------|--------|--------|--------|--------|--------|--------|
A|--------|--------|--------|--------|--------|--------|--------|--------|--------|


A|--------|--------|--------|--------|--------|--------|--------|--------|--------|
E|--------|--------|--------|--------|--------|--------|--------|--------|--------|
C|--------|--------|--------|--------|--------|--------|--------|--------|--------|
G|--------|--------|--------|--------|--------|--------|--------|--------|--------|
D|--------|--------|--------|--------|--------|--------|--------|--------|--------|
A|--------|--------|--------|--------|--------|--------|--------|--------|--------|


A|--------|--------|--------|--------|--------|--------|--------|--------|--------|
E|--------|--------|--------|--------|--------|--------|--------|--------|--------|
C|--------|--------|--------|--------|--------|--------|--------|--------|--------|
G|--------|--------|--------|--------|--------|--------|--------|--------|--------|
D|--------|--------|--------|--------|--------|--------|--------|--------|--------|
A|--------|--------|--------|--------|--------|--------|--------|--------|--------|


A|--------|--------|--------|--------|--------|--------|--------|--------|--------|
E|--------|--------|--------|--------|--------|--------|--------|--------|--------|
C|--------|--------|--------|--------|--------|--------|--------|--------|--------|
G|--------|--------|--------|--------|--------|--------|--------|--------|--------|
D|--------|--------|--------|--------|--------|--------|--------|--------|--------|
A|--------|--------|--------|--------|--------|--------|--------|--------|--------|


A|--------|--------|--------|-------------|-------------|------------------------------|
E|--------|--------|--------|-------------|-------------|------------------------------|
C|--------|--------|--------|-------------|-------------|------------------4---4---5---|
G|--------|--------|--------|-------------|-------------|--------------5---------------|
D|--------|--------|--------|-------------|-------------|----------3-------------------|
A|--------|--------|--------|-------------|-------------|------1-----------------------|


A|------------------------------|------------------------------|---------------------------|
E|------------------12--12--13--|------------------------------|---------------------------|
C|-----10--10--12---------------|------------------------------|---------------------------|
G|------------------------------|--------------0---2---2-------|---------------------------|
D|------------------------------|--------------------------0---|-2-------------------------|
A|------------------------------|------0---3-------------------|------3---5---5----5---3---|


A|------------------------------|------------------------------|---------------------------|
E|------------------------------|------------------------------|---------------------------|
C|------------------------------|------------------------------|---------------------------|
G|---------0---2---2------------|----------------------0---2---|-2-------------------------|
D|---------0---2---2---0---2----|-5---7---7--------------------|-----0---2-----------------|
A|-0---3------------------------|-3---5---5----0---3-----------|--------------3---5---5----|


A|---------------------------------|---------------------------|------------------------------|
E|---------------------------------|---------------------------|------------------------------|
C|---------------------------------|---------------------------|------------------------------|
G|-----------------0---2---2-------|---------------------------|-0---2---2--------------------|
D|-----------------0---2---2---0---|-2----5---7---7------------|-------------0---2------------|
A|-5---3---0---3-------------------|------3---5---5----0---3---|----------------------3---5---|


A|------------------------------|---------------------------|------------------------------|
E|------------------------------|---------------------------|------------------------------|
C|------------------------------|---------------------------|------------------------------|
G|----------------------0---2---|-2-------------------------|---------0---2---2------------|
D|----------------------0---2---|-2---0---2----5---7---7----|---------------------0---2----|
A|-5----5---3---0---3-----------|--------------3---5---5----|-0---3------------------------|


A|------------------------------|------------------------------|------------------------------|
E|------------------------------|------------------------------|------------------------------|
C|------------------------------|------------------------------|------------------------------|
G|------------------------------|-0---2---2--------------------|------------------------------|
D|------------------------------|-0---2---2---0---2------------|-----5---5-------3---2--------|
A|-3---5---5----5---3---0---3---|----------------------3---5---|-3---5---5---0----------------|


A|--------|--------|--------|--------|--------|--------|--------|--------|--------|
E|--------|--------|--------|--------|--------|--------|--------|--------|--------|
C|--------|--------|--------|--------|--------|--------|--------|--------|--------|
G|--------|--------|--------|--------|--------|--------|--------|--------|--------|
D|--------|--------|--------|--------|--------|--------|--------|--------|--------|
A|--------|--------|--------|--------|--------|--------|--------|--------|--------|


A|--------|--------|--------|--------|
E|--------|--------|--------|--------|
C|--------|--------|--------|--------|
G|--------|--------|--------|--------|
D|--------|--------|--------|--------|
A|--------|--------|--------|--------|





Track 4: Distortion I

A|--------|--------|--------|--------|--------|--------|--------|--------|--------|
E|--------|--------|--------|--------|--------|--------|--------|--------|--------|
C|--------|--------|--------|--------|--------|--------|--------|--------|--------|
G|--------|--------|--------|--------|--------|--------|--------|--------|--------|
D|--------|--------|--------|--------|--------|--------|--------|--------|--------|
A|--------|--------|--------|--------|--------|--------|--------|--------|--------|


A|--------|--------|--------|--------|--------|--------|--------|--------|--------|
E|--------|--------|--------|--------|--------|--------|--------|--------|--------|
C|--------|--------|--------|--------|--------|--------|--------|--------|--------|
G|--------|--------|--------|--------|--------|--------|--------|--------|--------|
D|--------|--------|--------|--------|--------|--------|--------|--------|--------|
A|--------|--------|--------|--------|--------|--------|--------|--------|--------|


A|--------|--------|--------|--------|--------|--------|--------|--------|--------|
E|--------|--------|--------|--------|--------|--------|--------|--------|--------|
C|--------|--------|--------|--------|--------|--------|--------|--------|--------|
G|--------|--------|--------|--------|--------|--------|--------|--------|--------|
D|--------|--------|--------|--------|--------|--------|--------|--------|--------|
A|--------|--------|--------|--------|--------|--------|--------|--------|--------|


A|--------|--------|--------|--------|--------|--------|--------|--------|--------|
E|--------|--------|--------|--------|--------|--------|--------|--------|--------|
C|--------|--------|--------|--------|--------|--------|--------|--------|--------|
G|--------|--------|--------|--------|--------|--------|--------|--------|--------|
D|--------|--------|--------|--------|--------|--------|--------|--------|--------|
A|--------|--------|--------|--------|--------|--------|--------|--------|--------|


A|--------|--------|--------|--------|--------|--------|--------|--------|--------|
E|--------|--------|--------|--------|--------|--------|--------|--------|--------|
C|--------|--------|--------|--------|--------|--------|--------|--------|--------|
G|--------|--------|--------|--------|--------|--------|--------|--------|--------|
D|--------|--------|--------|--------|--------|--------|--------|--------|--------|
A|--------|--------|--------|--------|--------|--------|--------|--------|--------|


A|--------|--------|--------|--------|--------|--------|--------|--------|--------|
E|--------|--------|--------|--------|--------|--------|--------|--------|--------|
C|--------|--------|--------|--------|--------|--------|--------|--------|--------|
G|--------|--------|--------|--------|--------|--------|--------|--------|--------|
D|--------|--------|--------|--------|--------|--------|--------|--------|--------|
A|--------|--------|--------|--------|--------|--------|--------|--------|--------|


A|--------|--------|--------|--------|--------|--------|--------|--------|--------|
E|--------|--------|--------|--------|--------|--------|--------|--------|--------|
C|--------|--------|--------|--------|--------|--------|--------|--------|--------|
G|--------|--------|--------|--------|--------|--------|--------|--------|--------|
D|--------|--------|--------|--------|--------|--------|--------|--------|--------|
A|--------|--------|--------|--------|--------|--------|--------|--------|--------|


A|--------|------------------------------|------------------------------|------------------------------|
E|--------|------------------------------|------------------------------|------------------------------|
C|--------|---------7---9---9------------|------------------------------|-7---9---9------------7---9---|
G|--------|---------------------7---9----|-5---7---7----7---5-----------|-7---9---9---7---9----5---7---|
D|--------|-7---10-----------------------|----------------------7---10--|------------------------------|
A|--------|------------------------------|------------------------------|------------------------------|


A|------------------------------|---------------------------|------------------------------|
E|------------------------------|---------------------------|------------------------------|
C|-9------------7---9---9-------|---------------------------|---------7---9---9------------|
G|-7------------------------7---|-9----5---7---7----7---5---|---------7---9---9---7---9----|
D|------7---10------------------|---------------------------|-7---10-----------------------|
A|------------------------------|---------------------------|------------------------------|


A|---------------------------------|--------|--------|--------|--------|--------|--------|
E|---------------------------------|--------|--------|--------|--------|--------|--------|
C|-------------7---7---------------|-2------|-2------|-2------|--------|--------|--------|
G|-5---7---5---7---7---------------|-2------|-2------|-2------|--------|--------|--------|
D|-------------------------3---2---|-0------|-0------|-0------|--------|--------|--------|
A|---------------------0-----------|--------|--------|--------|--------|--------|--------|


A|--------|--------|-----------5-----|-----------5-----|-----------5-----|--------|
E|--------|--------|-----------8-----|-----------8-----|-----------8-----|--------|
C|--------|--------|-----------------|-----------------|-----------------|--------|
G|--------|--------|-----------------|-----------------|-----------------|--------|
D|--------|--------|-----------------|-----------------|-----------------|--------|
A|--------|--------|-----------------|-----------------|-----------------|--------|


A|-----------5-----|-----------5-----|-----------5-----|--------|--------|--------|
E|-----------8-----|-----------8-----|-----------8-----|--------|--------|--------|
C|-----------------|-----------------|-----------------|--------|--------|--------|
G|-----------------|-----------------|-----------------|--------|--------|--------|
D|-----------------|-----------------|-----------------|--------|--------|--------|
A|-----------------|-----------------|-----------------|--------|--------|--------|


A|--------|--------|--------|-------3--0-----0------------|--------|--------|--------|
E|--------|--------|--------|-------------3---------------|--------|--------|--------|
C|--------|--------|--------|-------------------4--4--2---|--------|--------|--------|
G|--------|--------|--------|-----------------------------|--------|--------|--------|
D|--------|--------|--------|-----------------------------|--------|--------|--------|
A|--------|--------|--------|-----------------------------|--------|--------|--------|


A|--------|--------|--------|--------|--------|------------------------------|---------------------------|
E|--------|--------|--------|--------|--------|------------------------------|---------------------------|
C|--------|--------|--------|--------|--------|-------------4---4---5----2---|-2-------------------------|
G|--------|--------|--------|--------|--------|---------5--------------------|-----3-----------3---------|
D|--------|--------|--------|--------|--------|-----3------------------------|---------3-----------------|
A|--------|--------|--------|--------|--------|-1----------------------------|-------------1--------1----|


A|------------------------------|------------------------------|------------------------------|
E|------------------------------|------------------------------|------------------------------|
C|---------7---9---9------------|------------------------------|-7---9---9------------7---9---|
G|---------------------7---9----|-5---7---7----7---5-----------|-7---9---9---7---9----5---7---|
D|-7---10-----------------------|----------------------7---10--|------------------------------|
A|------------------------------|------------------------------|------------------------------|


A|------------------------------|---------------------------|------------------------------|
E|------------------------------|---------------------------|------------------------------|
C|-9------------7---9---9-------|---------------------------|---------7---9---9------------|
G|-7------------------------7---|-9----5---7---7----7---5---|---------7---9---9---7---9----|
D|------7---10------------------|---------------------------|-7---10-----------------------|
A|------------------------------|---------------------------|------------------------------|


A|------------------------------|---------------------------|---------------------------------|
E|------------------------------|---------------------------|---------------------------------|
C|-7---9---9------------7---9---|-9-------------------------|-----------------7---9---9-------|
G|-5---7---7--------------------|-----7---9----5---7---7----|-7---5-----------7---9---9---7---|
D|--------------7---10----------|---------------------------|---------7---10------------------|
A|------------------------------|---------------------------|---------------------------------|


A|---------------------------|------------------------------|------------------------------|
E|---------------------------|------------------------------|------------------------------|
C|------7---9---9------------|-7---9---9--------------------|----------------------7---9---|
G|-9----5---7---7------------|-------------7---9----5---7---|-7----7---5-----------7---9---|
D|-------------------7---10--|------------------------------|--------------7---10----------|
A|---------------------------|------------------------------|------------------------------|


A|------------------------------|-----------------------------------|---------------------------------|
E|------------------------------|-----------------------------------|---------------------------------|
C|-9------------------------7---|-7--------------------9-----9------|---------------------------------|
G|-9---7---9----5---7---5---7---|-7---2---5---4---------------------|-----------------5----7--7---4---|
D|------------------------------|-----------------------------------|---------7---5-------------------|
A|------------------------------|-----------------0-------------0---|-0---0---------------------------|


A|-----------------------------------|---------------------------------|-----------------------------------------|
E|-----------------------------------|---------------------------------|-----------------------------------------|
C|-----------------------------------|--------------4--4---7---7-------|-----------------------------------------|
G|-4---------------------------------|---------5-----------------------|-----------------------------------------|
D|----5---------7-----7--------------|-7---5----------------------5----|-------5--7-----7----------------7---5---|
A|---------0-------------0---0---0---|---------------------------------|-5--7--------------0---0--0--0-----------|


A|---------------------------------|-----------------------------------|-------------------------------------|
E|---------------------------------|-----------------------------------|-------------------------------------|
C|---------------------------------|--------------------------------4--|-4---7---7---------------------------|
G|-5----7--7---4---4---------------|---------------------------5-------|-------------------------------------|
D|--------------------5---------7--|----7--------------7---5-----------|------------5-----------7-----7------|
A|-------------------------0-------|-------0---0---0-------------------|-----------------0--0------------0---|


A|---------------------------------|-------------------------------------|---------------------------------|
E|---------------------------------|-------------------------------------|---------------------------------|
C|---------------------------------|-------------------------------------|---------------------------------|
G|-----------------5----7--7---4---|-4-----------------------------------|----------------------------4----|
D|---------7---5-------------------|----5----3----3-----3--3---3--3--3---|-3---5--------2--2---5---5-------|
A|-0---0---------------------------|-------------------------------------|---------3-----------------------|


A|-----------------------------------|---------------------------------|---------------------------------|
E|-----------------------------------|---------------------------------|---------------------------------|
C|-----------------------------------|---------------------------------|---------------------------------|
G|-----------------------------------|-5----7--7---4---4---------------|---------------------------------|
D|------7-----7--------------7---5---|--------------------5----3----5--|-5---2---2-------0----2--2-------|
A|-0-------------0---0---0-----------|---------------------------------|------------3----------------3---|


A|----------------|--------|--------|--------|--------|--------|--------|--------|
E|----------------|--------|--------|--------|--------|--------|--------|--------|
C|----------------|--------|--------|--------|--------|--------|--------|--------|
G|----------------|--------|--------|--------|--------|--------|--------|--------|
D|----------------|--------|--------|--------|--------|--------|--------|--------|
A|-3--2-----------|--------|--------|--------|--------|--------|--------|--------|


A|--------|--------|--------|--------|--------|----------------|-0---3---3---0-----------0-------|
E|--------|--------|--------|--------|--------|------------0---|-----------------3---0-------3---|
C|--------|--------|--------|--------|--------|----------------|---------------------------------|
G|--------|--------|--------|--------|--------|----------------|---------------------------------|
D|--------|--------|--------|--------|--------|----------------|---------------------------------|
A|--------|--------|--------|--------|--------|----------------|---------------------------------|


A|---------------------------------|---------------------------------|--------------------12--|
E|-0-------------------------------|---------------------------------|---------------15-------|
C|-----3---2---0-----------0-------|---------------------------------|------------------------|
G|-----------------2---0-------2---|-0-------2-------0---------------|---------2--------------|
D|---------------------------------|-----2-------2-------2---1---0---|------------------------|
A|---------------------------------|---------------------------------|-3---0------------------|


A|-------------12---------------12--------------|-12---------------12--------------12----------|
E|-15--12--15------15--12--15-------15--12--15--|-----15--12--15-------15--12--15------15--12--|
C|----------------------------------------------|----------------------------------------------|
G|----------------------------------------------|----------------------------------------------|
D|----------------------------------------------|----------------------------------------------|
A|----------------------------------------------|----------------------------------------------|


A|------12------------------12---------------|-12----------15----15--12--|-------------15------------15--|
E|-15-------15--12--15--15------15--12--15---|-----15--12----------------|-15--12--17------17---17-------|
C|-------------------------------------------|---------------------------|-------------------------------|
G|-------------------------------------------|---------------------------|-------------------------------|
D|-------------------------------------------|---------------------------|-------------------------------|
A|-------------------------------------------|---------------------------|-------------------------------|


A|-------------12----------------------------------|----------------------------|---------------------10--7---9---10-9--|
E|-17--15----------15------------------------------|-----------------------10---|-10--10--8-------8---------------------|
C|---------16----------14--14--12------------------|----------------------------|-------------9-------------------------|
G|---------------------------------14--12----------|----------------------------|---------------------------------------|
D|-----------------------------------------14--12--|-12--10---------------------|---------------------------------------|
A|-------------------------------------------------|---------12--10-------------|---------------------------------------|


A|-7-----------7-------------------|---------------------7-----------|-----0---12--0---15--0---17--0---|
E|-----10--8-------10--9---8---7---|---------------------------------|---------------------------------|
C|---------------------------------|-9---8---7---8---9-------9---7---|-8-------------------------------|
G|---------------------------------|---------------------------------|---------------------------------|
D|---------------------------------|---------------------------------|---------------------------------|
A|---------------------------------|---------------------------------|---------------------------------|


A|-19--0---22--15--------------17--|-12--------------14----------------|---------------------------------|
E|-----------------17--15----------|-----15--12------------------------|---------------------15----------|
C|-------------------------16------|-------------14------14-14-12------|---------------------------------|
G|---------------------------------|-------------------------------14--|-12------14--16--17------17--16--|
D|---------------------------------|-----------------------------------|-----14--------------------------|
A|---------------------------------|-----------------------------------|---------------------------------|


A|-------------14----------------------|-----14--15--------------19----------|---------15--22--15------22--15--12--|
E|-----------------------------14--15--|-17--------------15--17------17--15--|-15--17--------------17--------------|
C|-----14--16------16--14--16----------|-------------16----------------------|-------------------------------------|
G|-17----------------------------------|-------------------------------------|-------------------------------------|
D|-------------------------------------|-------------------------------------|-------------------------------------|
A|-------------------------------------|-------------------------------------|-------------------------------------|


A|-21--15--12--------------------------19--15--14--|-17--15--14--------------------------15--12--10--|
E|-------------------------------------------------|-------------8---5---0---8---5---0---------------|
C|-------------19--14--12--------------------------|-------------------------------------------------|
G|-------------------------18--14--12--------------|-------------------------------------------------|
D|-------------------------------------------------|-------------------------------------------------|
A|-------------------------------------------------|-------------------------------------------------|


A|-------------------------------------------------|-------------15--15--12----------|
E|-15--12--10--------------------------------------|---------12--------------15--12--|
C|-------------14--12--9---------------------------|---------------------------------|
G|-------------------------14--12--9---------------|---------------------------------|
D|-------------------------------------14--12--10--|---------------------------------|
A|-------------------------------------------------|-12------------------------------|


A|-12--14-12-----12------------------|---------------------------------|---------------------------------|
E|-----------15------15--14--12--15--|-14--12--------------------------|---------------------------------|
C|-----------------------------------|---------14--13--12--------------|-14--11--12----------------------|
G|-----------------------------------|---------------------14--12------|---------------------------------|
D|-----------------------------------|-----------------------------14--|-------------14--12------14--12--|
A|-----------------------------------|---------------------------------|---------------------14----------|


A|-------------------------------------------------|-------------------------------------14--15--17--|
E|-------------------------------------------------|-----------------14--15--14--15--17--------------|
C|---------------------------------------------14--|---------14--16----------------------------------|
G|-------------14--16--17----------14--16--17------|-16--17------------------------------------------|
D|-14--16--17--------------16--17------------------|-------------------------------------------------|
A|-------------------------------------------------|-------------------------------------------------|


A|-------------19--21--22--19--21--22------------|-----------------------|--------|
E|-19--20--22------------------------------------|-----------------------|--------|
C|-------------------------------------4---4--4--|-4---------------------|--------|
G|-------------------------------------2---2--2--|-2---2---4-------------|--------|
D|-----------------------------------------------|-----------------------|--------|
A|-----------------------------------------------|-----------------------|--------|


A|--------|--------|--------|--------|--------|--------|--------|--------|--------|
E|--------|--------|--------|--------|--------|--------|--------|--------|--------|
C|--------|--------|--------|--------|--------|--------|--------|--------|--------|
G|--------|--------|--------|--------|--------|--------|--------|--------|--------|
D|--------|--------|--------|--------|--------|--------|--------|--------|--------|
A|--------|--------|--------|--------|--------|--------|--------|--------|--------|


A|--------|--------|--------|--------|--------|--------|--------|--------|--------|
E|--------|--------|--------|--------|--------|--------|--------|--------|--------|
C|--------|--------|--------|--------|--------|--------|--------|--------|--------|
G|--------|--------|--------|--------|--------|--------|--------|--------|--------|
D|--------|--------|--------|--------|--------|--------|--------|--------|--------|
A|--------|--------|--------|--------|--------|--------|--------|--------|--------|


A|--------|--------|--------|--------|--------|--------|--------|--------|--------|
E|--------|--------|--------|--------|--------|--------|--------|--------|--------|
C|--------|--------|--------|--------|--------|--------|--------|--------|--------|
G|--------|--------|--------|--------|--------|--------|--------|--------|--------|
D|--------|--------|--------|--------|--------|--------|--------|--------|--------|
A|--------|--------|--------|--------|--------|--------|--------|--------|--------|


A|--------|--------|--------|--------|--------|--------|--------|--------|--------|
E|--------|--------|--------|--------|--------|--------|--------|--------|--------|
C|--------|--------|--------|--------|--------|--------|--------|--------|--------|
G|--------|--------|--------|--------|--------|--------|--------|--------|--------|
D|--------|--------|--------|--------|--------|--------|--------|--------|--------|
A|--------|--------|--------|--------|--------|--------|--------|--------|--------|


A|--------|--------|--------|--------|--------|--------|--------|--------|--------|
E|--------|--------|--------|--------|--------|--------|--------|--------|--------|
C|--------|--------|--------|--------|--------|--------|--------|--------|--------|
G|--------|--------|--------|--------|--------|--------|--------|--------|--------|
D|--------|--------|--------|--------|--------|--------|--------|--------|--------|
A|--------|--------|--------|--------|--------|--------|--------|--------|--------|


A|--------|--------|--------|--------|--------|--------|--------|--------|--------|
E|--------|--------|--------|--------|--------|--------|--------|--------|--------|
C|--------|--------|--------|--------|--------|--------|--------|--------|--------|
G|--------|--------|--------|--------|--------|--------|--------|--------|--------|
D|--------|--------|--------|--------|--------|--------|--------|--------|--------|
A|--------|--------|--------|--------|--------|--------|--------|--------|--------|


A|--------|--------|--------|--------|--------|--------|--------|--------|--------|
E|--------|--------|--------|--------|--------|--------|--------|--------|--------|
C|--------|--------|--------|--------|--------|--------|--------|--------|--------|
G|--------|--------|--------|--------|--------|--------|--------|--------|--------|
D|--------|--------|--------|--------|--------|--------|--------|--------|--------|
A|--------|--------|--------|--------|--------|--------|--------|--------|--------|


A|--------|--------|--------|--------|--------|--------|--------|--------|--------|
E|--------|--------|--------|--------|--------|--------|--------|--------|--------|
C|--------|--------|--------|--------|--------|--------|--------|--------|--------|
G|--------|--------|--------|--------|--------|--------|--------|--------|--------|
D|--------|--------|--------|--------|--------|--------|--------|--------|--------|
A|--------|--------|--------|--------|--------|--------|--------|--------|--------|


A|--------|--------|--------|--------|--------|--------|--------|--------|--------|
E|--------|--------|--------|--------|--------|--------|--------|--------|--------|
C|--------|--------|--------|--------|--------|--------|--------|--------|--------|
G|--------|--------|--------|--------|--------|--------|--------|--------|--------|
D|--------|--------|--------|--------|--------|--------|--------|--------|--------|
A|--------|--------|--------|--------|--------|--------|--------|--------|--------|


A|---------------------------|------------------------------|------------------------------|
E|---------------------------|------------------------------|------------------------------|
C|---------------------------|------------------------------|------------------------------|
G|---------------------------|------------------------------|------------------------------|
D|---------------------------|------------------------------|------------------------------|
A|------5----5---5---5---5---|-5---5---3----3---3---3---3---|-3---3---2----2---2---2---2---|


A|------------------------------|------------------------------|------------------------------|
E|------------------------------|------------------------------|------------------------------|
C|------------------------------|------------------------------|------------------------------|
G|------------------------------|---------7----7---7---7---7---|-7---7---5----5---5---5---5---|
D|------------------------------|------------------------------|------------------------------|
A|-2---2---1----1---1---1---1---|-1---1------------------------|------------------------------|


A|------------------------------|------------------------------|----------------|-----------------|
E|------------------------------|------------------------------|----------------|-----------------|
C|------------------------------|------------------------------|----------------|-----------------|
G|-5---5---4----4---4---4---4---|-4---4---3----3---3---3---3---|-3---3---5------|-5----5-----5----|
D|------------------------------|------------------------------|---------5------|-5----5-----5----|
A|------------------------------|------------------------------|---------3------|-3----3-----3----|


A|-------------|-----------------|---------------------------|------------------------------|
E|-------------|-----------------|---------------------------|------------------------------|
C|------7------|-7----7-----7----|---------------------------|------------------------------|
G|------7------|-7----7-----7----|---------------------------|------------------------------|
D|------5------|-5----5-----5----|---------------------------|------------------------------|
A|-------------|-----------------|------5----5---5---5---5---|-5---5---3----3---3---3---3---|


A|------------------------------|------------------------------|------------------------------|
E|------------------------------|------------------------------|------------------------------|
C|------------------------------|------------------------------|------------------------------|
G|------------------------------|------------------------------|---------7----7---7---7---7---|
D|------------------------------|------------------------------|------------------------------|
A|-3---3---2----2---2---2---2---|-2---2---1----1---1---1---1---|-1---1------------------------|


A|------------------------------|------------------------------|------------------------------|
E|------------------------------|------------------------------|------------------------------|
C|------------------------------|------------------------------|------------------------------|
G|-7---7---5----5---5---5---5---|-5---5---4----4---4---4---4---|-4---4---3----3---3---3---3---|
D|------------------------------|------------------------------|------------------------------|
A|------------------------------|------------------------------|------------------------------|


A|----------------|-----------------|-------------|-----------------|-----------------|
E|----------------|-----------------|-------------|-----------------|------------2----|
C|----------------|-----------------|------7------|-7----7-----7----|-----------------|
G|-3---3---5------|-5----5-----5----|------7------|-7----7-----7----|-----------------|
D|---------5------|-5----5-----5----|------5------|-5----5-----5----|------0----------|
A|---------3------|-3----3-----3----|-------------|-----------------|-----------------|


A|-------------|-----------------|-------------|--------|--------|--------|--------|
E|-3----3------|------------2----|-3----3------|--------|--------|--------|--------|
C|-2----2------|-----------------|-2----2------|--------|--------|--------|--------|
G|-------------|-----------------|-------------|--------|--------|--------|--------|
D|-------------|------0----------|-------------|--------|--------|--------|--------|
A|-------------|-----------------|-------------|--------|--------|--------|--------|


A|--------|--------|--------|--------|--------|--------|--------|--------|--------|
E|--------|--------|--------|--------|--------|--------|--------|--------|--------|
C|--------|--------|--------|--------|--------|--------|--------|--------|--------|
G|--------|--------|--------|--------|--------|--------|--------|--------|--------|
D|--------|--------|--------|--------|--------|--------|--------|--------|--------|
A|--------|--------|--------|--------|--------|--------|--------|--------|--------|


A|--------|--------|--------|------------------------------|---------------------------|
E|--------|--------|--------|------------------------------|---------------------------|
C|--------|--------|--------|--------------7---9---9-------|---------------------------|
G|--------|--------|--------|--------------------------7---|-9----5---7---7----7---5---|
D|--------|--------|--------|------7---10------------------|---------------------------|
A|--------|--------|--------|------------------------------|---------------------------|


A|------------------------------|------------------------------|---------------------------|
E|------------------------------|------------------------------|---------------------------|
C|---------7---9---9------------|-7---9---9------------7---9---|-9-------------------------|
G|---------7---9---9---7---9----|-5---7---7--------------------|-----7---9----5---7---7----|
D|-7---10-----------------------|--------------7---10----------|---------------------------|
A|------------------------------|------------------------------|---------------------------|


A|---------------------------------|---------------------------|------------------------------|
E|---------------------------------|---------------------------|------------------------------|
C|-----------------7---9---9-------|------7---9---9------------|-7---9---9--------------------|
G|-7---5-----------7---9---9---7---|-9----5---7---7------------|-------------7---9----5---7---|
D|---------7---10------------------|-------------------7---10--|------------------------------|
A|---------------------------------|---------------------------|------------------------------|


A|------------------------------|---------------------------|------------------------------|
E|------------------------------|---------------------------|------------------------------|
C|----------------------7---9---|-9------------7---9---9----|---------7---9---9------------|
G|-7----7---5-----------7---9---|-9---7---9----5---7---7----|---------------------7---9----|
D|--------------7---10----------|---------------------------|-7---10-----------------------|
A|------------------------------|---------------------------|------------------------------|


A|------------------------------|------------------------------|------------------------------|
E|------------------------------|------------------------------|------------------------------|
C|------------------------------|-7---9---9--------------------|-----7---7---------------2----|
G|-5---7---7----7---5-----------|-7---9---9---7---9----5---7---|-5---7---7---------------2----|
D|----------------------7---10--|------------------------------|-----------------3---2---0----|
A|------------------------------|------------------------------|-------------0----------------|


A|-------------|-------------|-------------|--------|--------|--------|--------|--------|
E|-------------|-------------|-------------|--------|--------|--------|--------|--------|
C|--------2----|--------2----|-------------|--------|--------|--------|--------|--------|
G|--------2----|--------2----|-------------|--------|--------|--------|--------|--------|
D|--------0----|--------0----|-------------|--------|--------|--------|--------|--------|
A|-------------|-------------|-------------|--------|--------|--------|--------|--------|


A|--------|--------|--------|--------|--------|
E|--------|--------|--------|--------|--------|
C|--------|--------|--------|--------|--------|
G|--------|--------|--------|--------|--------|
D|--------|--------|--------|--------|--------|
A|--------|--------|--------|--------|--------|





Track 5: Clean

A|--------|--------|--------|--------|--------|--------|--------|--------|--------|
E|--------|--------|--------|--------|--------|--------|--------|--------|--------|
C|--------|--------|--------|--------|--------|--------|--------|--------|--------|
G|--------|--------|--------|--------|--------|--------|--------|--------|--------|
D|--------|--------|--------|--------|--------|--------|--------|--------|--------|
A|--------|--------|--------|--------|--------|--------|--------|--------|--------|


A|--------|--------|--------|--------|--------|--------|--------|--------|--------|
E|--------|--------|--------|--------|--------|--------|--------|--------|--------|
C|--------|--------|--------|--------|--------|--------|--------|--------|--------|
G|--------|--------|--------|--------|--------|--------|--------|--------|--------|
D|--------|--------|--------|--------|--------|--------|--------|--------|--------|
A|--------|--------|--------|--------|--------|--------|--------|--------|--------|


A|--------|--------|--------|--------|--------|--------|--------|--------|--------|
E|--------|--------|--------|--------|--------|--------|--------|--------|--------|
C|--------|--------|--------|--------|--------|--------|--------|--------|--------|
G|--------|--------|--------|--------|--------|--------|--------|--------|--------|
D|--------|--------|--------|--------|--------|--------|--------|--------|--------|
A|--------|--------|--------|--------|--------|--------|--------|--------|--------|


A|--------|--------|--------|--------|--------|--------|--------|--------|--------|
E|--------|--------|--------|--------|--------|--------|--------|--------|--------|
C|--------|--------|--------|--------|--------|--------|--------|--------|--------|
G|--------|--------|--------|--------|--------|--------|--------|--------|--------|
D|--------|--------|--------|--------|--------|--------|--------|--------|--------|
A|--------|--------|--------|--------|--------|--------|--------|--------|--------|


A|--------|--------|--------|--------|--------|--------|--------|--------|--------|
E|--------|--------|--------|--------|--------|--------|--------|--------|--------|
C|--------|--------|--------|--------|--------|--------|--------|--------|--------|
G|--------|--------|--------|--------|--------|--------|--------|--------|--------|
D|--------|--------|--------|--------|--------|--------|--------|--------|--------|
A|--------|--------|--------|--------|--------|--------|--------|--------|--------|


A|--------|--------|--------|--------|--------|--------|--------|--------|--------|
E|--------|--------|--------|--------|--------|--------|--------|--------|--------|
C|--------|--------|--------|--------|--------|--------|--------|--------|--------|
G|--------|--------|--------|--------|--------|--------|--------|--------|--------|
D|--------|--------|--------|--------|--------|--------|--------|--------|--------|
A|--------|--------|--------|--------|--------|--------|--------|--------|--------|


A|--------|--------|--------|--------|--------|--------|--------|--------|--------|
E|--------|--------|--------|--------|--------|--------|--------|--------|--------|
C|--------|--------|--------|--------|--------|--------|--------|--------|--------|
G|--------|--------|--------|--------|--------|--------|--------|--------|--------|
D|--------|--------|--------|--------|--------|--------|--------|--------|--------|
A|--------|--------|--------|--------|--------|--------|--------|--------|--------|


A|--------|--------|--------|--------|--------|--------|--------|--------|--------|
E|--------|--------|--------|--------|--------|--------|--------|--------|--------|
C|--------|--------|--------|--------|--------|--------|--------|--------|--------|
G|--------|--------|--------|--------|--------|--------|--------|--------|--------|
D|--------|--------|--------|--------|--------|--------|--------|--------|--------|
A|--------|--------|--------|--------|--------|--------|--------|--------|--------|


A|--------|--------|--------|---------------------------|---------------------------|
E|--------|--------|--------|---------------------------|---------------------------|
C|--------|--------|--------|------2--------------------|------2--------------------|
G|--------|--------|--------|----------2---2--------2---|----------2---2--------2---|
D|--------|--------|--------|-0----------------0--------|-0----------------0--------|
A|--------|--------|--------|---------------------------|---------------------------|


A|---------------------------|------------------------------|--------|--------|--------|
E|---------------------------|------------------------------|--------|--------|--------|
C|------0--------------------|---------0--------------------|--------|--------|--------|
G|----------2---2--------2---|-----2-------2---2--------2---|--------|--------|--------|
D|-0----------------0--------|-3-------------------3--------|--------|--------|--------|
A|---------------------------|------------------------------|--------|--------|--------|


A|--------|--------|--------|--------|--------|--------|--------|--------|--------|
E|--------|--------|--------|--------|--------|--------|--------|--------|--------|
C|--------|--------|--------|--------|--------|--------|--------|--------|--------|
G|--------|--------|--------|--------|--------|--------|--------|--------|--------|
D|--------|--------|--------|--------|--------|--------|--------|--------|--------|
A|--------|--------|--------|--------|--------|--------|--------|--------|--------|


A|--------|--------|--------|--------|--------|--------|--------|--------|--------|
E|--------|--------|--------|--------|--------|--------|--------|--------|--------|
C|--------|--------|--------|--------|--------|--------|--------|--------|--------|
G|--------|--------|--------|--------|--------|--------|--------|--------|--------|
D|--------|--------|--------|--------|--------|--------|--------|--------|--------|
A|--------|--------|--------|--------|--------|--------|--------|--------|--------|


A|--------|--------|--------|--------|--------|--------|--------|--------|--------|
E|--------|--------|--------|--------|--------|--------|--------|--------|--------|
C|--------|--------|--------|--------|--------|--------|--------|--------|--------|
G|--------|--------|--------|--------|--------|--------|--------|--------|--------|
D|--------|--------|--------|--------|--------|--------|--------|--------|--------|
A|--------|--------|--------|--------|--------|--------|--------|--------|--------|


A|--------|--------|--------|--------|--------|--------|--------|--------|--------|
E|--------|--------|--------|--------|--------|--------|--------|--------|--------|
C|--------|--------|--------|--------|--------|--------|--------|--------|--------|
G|--------|--------|--------|--------|--------|--------|--------|--------|--------|
D|--------|--------|--------|--------|--------|--------|--------|--------|--------|
A|--------|--------|--------|--------|--------|--------|--------|--------|--------|


A|--------|--------|--------|--------|--------|--------|--------|--------|--------|
E|--------|--------|--------|--------|--------|--------|--------|--------|--------|
C|--------|--------|--------|--------|--------|--------|--------|--------|--------|
G|--------|--------|--------|--------|--------|--------|--------|--------|--------|
D|--------|--------|--------|--------|--------|--------|--------|--------|--------|
A|--------|--------|--------|--------|--------|--------|--------|--------|--------|


A|--------|--------|--------|--------|--------|--------|--------|--------|--------|
E|--------|--------|--------|--------|--------|--------|--------|--------|--------|
C|--------|--------|--------|--------|--------|--------|--------|--------|--------|
G|--------|--------|--------|--------|--------|--------|--------|--------|--------|
D|--------|--------|--------|--------|--------|--------|--------|--------|--------|
A|--------|--------|--------|--------|--------|--------|--------|--------|--------|


A|--------|--------|--------|--------|--------|--------|--------|--------|--------|
E|--------|--------|--------|--------|--------|--------|--------|--------|--------|
C|--------|--------|--------|--------|--------|--------|--------|--------|--------|
G|--------|--------|--------|--------|--------|--------|--------|--------|--------|
D|--------|--------|--------|--------|--------|--------|--------|--------|--------|
A|--------|--------|--------|--------|--------|--------|--------|--------|--------|


A|--------|--------|--------|--------|--------|--------|--------|--------|--------|
E|--------|--------|--------|--------|--------|--------|--------|--------|--------|
C|--------|--------|--------|--------|--------|--------|--------|--------|--------|
G|--------|--------|--------|--------|--------|--------|--------|--------|--------|
D|--------|--------|--------|--------|--------|--------|--------|--------|--------|
A|--------|--------|--------|--------|--------|--------|--------|--------|--------|


A|--------|--------|--------|--------|--------|--------|--------|--------|--------|
E|--------|--------|--------|--------|--------|--------|--------|--------|--------|
C|--------|--------|--------|--------|--------|--------|--------|--------|--------|
G|--------|--------|--------|--------|--------|--------|--------|--------|--------|
D|--------|--------|--------|--------|--------|--------|--------|--------|--------|
A|--------|--------|--------|--------|--------|--------|--------|--------|--------|


A|--------|--------|--------|--------|--------|--------|--------|--------|--------|
E|--------|--------|--------|--------|--------|--------|--------|--------|--------|
C|--------|--------|--------|--------|--------|--------|--------|--------|--------|
G|--------|--------|--------|--------|--------|--------|--------|--------|--------|
D|--------|--------|--------|--------|--------|--------|--------|--------|--------|
A|--------|--------|--------|--------|--------|--------|--------|--------|--------|


A|--------|--------|--------|--------|--------|--------|--------|--------|--------|
E|--------|--------|--------|--------|--------|--------|--------|--------|--------|
C|--------|--------|--------|--------|--------|--------|--------|--------|--------|
G|--------|--------|--------|--------|--------|--------|--------|--------|--------|
D|--------|--------|--------|--------|--------|--------|--------|--------|--------|
A|--------|--------|--------|--------|--------|--------|--------|--------|--------|


A|--------|--------|--------|--------|--------|--------|--------|--------|--------|
E|--------|--------|--------|--------|--------|--------|--------|--------|--------|
C|--------|--------|--------|--------|--------|--------|--------|--------|--------|
G|--------|--------|--------|--------|--------|--------|--------|--------|--------|
D|--------|--------|--------|--------|--------|--------|--------|--------|--------|
A|--------|--------|--------|--------|--------|--------|--------|--------|--------|


A|--------|--------|--------|--------|--------|--------|--------|--------|--------|
E|--------|--------|--------|--------|--------|--------|--------|--------|--------|
C|--------|--------|--------|--------|--------|--------|--------|--------|--------|
G|--------|--------|--------|--------|--------|--------|--------|--------|--------|
D|--------|--------|--------|--------|--------|--------|--------|--------|--------|
A|--------|--------|--------|--------|--------|--------|--------|--------|--------|


A|--------|--------|--------|--------|--------|--------|--------|--------|--------|
E|--------|--------|--------|--------|--------|--------|--------|--------|--------|
C|--------|--------|--------|--------|--------|--------|--------|--------|--------|
G|--------|--------|--------|--------|--------|--------|--------|--------|--------|
D|--------|--------|--------|--------|--------|--------|--------|--------|--------|
A|--------|--------|--------|--------|--------|--------|--------|--------|--------|


A|--------|--------|--------|--------|--------|--------|--------|--------|--------|
E|--------|--------|--------|--------|--------|--------|--------|--------|--------|
C|--------|--------|--------|--------|--------|--------|--------|--------|--------|
G|--------|--------|--------|--------|--------|--------|--------|--------|--------|
D|--------|--------|--------|--------|--------|--------|--------|--------|--------|
A|--------|--------|--------|--------|--------|--------|--------|--------|--------|


A|--------|--------|--------|--------|--------|--------|--------|--------|--------|
E|--------|--------|--------|--------|--------|--------|--------|--------|--------|
C|--------|--------|--------|--------|--------|--------|--------|--------|--------|
G|--------|--------|--------|--------|--------|--------|--------|--------|--------|
D|--------|--------|--------|--------|--------|--------|--------|--------|--------|
A|--------|--------|--------|--------|--------|--------|--------|--------|--------|


A|--------|--------|--------|--------|--------|--------|--------|--------|--------|
E|--------|--------|--------|--------|--------|--------|--------|--------|--------|
C|--------|--------|--------|--------|--------|--------|--------|--------|--------|
G|--------|--------|--------|--------|--------|--------|--------|--------|--------|
D|--------|--------|--------|--------|--------|--------|--------|--------|--------|
A|--------|--------|--------|--------|--------|--------|--------|--------|--------|


A|--------|--------|--------|--------|--------|--------|--------|--------|--------|
E|--------|--------|--------|--------|--------|--------|--------|--------|--------|
C|--------|--------|--------|--------|--------|--------|--------|--------|--------|
G|--------|--------|--------|--------|--------|--------|--------|--------|--------|
D|--------|--------|--------|--------|--------|--------|--------|--------|--------|
A|--------|--------|--------|--------|--------|--------|--------|--------|--------|


A|--------|--------|--------|--------|--------|--------|--------|--------|--------|
E|--------|--------|--------|--------|--------|--------|--------|--------|--------|
C|--------|--------|--------|--------|--------|--------|--------|--------|--------|
G|--------|--------|--------|--------|--------|--------|--------|--------|--------|
D|--------|--------|--------|--------|--------|--------|--------|--------|--------|
A|--------|--------|--------|--------|--------|--------|--------|--------|--------|


A|--------|--------|--------|--------|--------|--------|--------|--------|--------|
E|--------|--------|--------|--------|--------|--------|--------|--------|--------|
C|--------|--------|--------|--------|--------|--------|--------|--------|--------|
G|--------|--------|--------|--------|--------|--------|--------|--------|--------|
D|--------|--------|--------|--------|--------|--------|--------|--------|--------|
A|--------|--------|--------|--------|--------|--------|--------|--------|--------|


A|--------|--------|--------|--------|--------|--------|--------|--------|--------|
E|--------|--------|--------|--------|--------|--------|--------|--------|--------|
C|--------|--------|--------|--------|--------|--------|--------|--------|--------|
G|--------|--------|--------|--------|--------|--------|--------|--------|--------|
D|--------|--------|--------|--------|--------|--------|--------|--------|--------|
A|--------|--------|--------|--------|--------|--------|--------|--------|--------|


A|--------|--------|--------|--------|--------|--------|--------|--------|--------|
E|--------|--------|--------|--------|--------|--------|--------|--------|--------|
C|--------|--------|--------|--------|--------|--------|--------|--------|--------|
G|--------|--------|--------|--------|--------|--------|--------|--------|--------|
D|--------|--------|--------|--------|--------|--------|--------|--------|--------|
A|--------|--------|--------|--------|--------|--------|--------|--------|--------|


A|--------|--------|--------|--------|--------|--------|--------|--------|--------|
E|--------|--------|--------|--------|--------|--------|--------|--------|--------|
C|--------|--------|--------|--------|--------|--------|--------|--------|--------|
G|--------|--------|--------|--------|--------|--------|--------|--------|--------|
D|--------|--------|--------|--------|--------|--------|--------|--------|--------|
A|--------|--------|--------|--------|--------|--------|--------|--------|--------|


A|--------|--------|--------|--------|--------|--------|--------|--------|--------|
E|--------|--------|--------|--------|--------|--------|--------|--------|--------|
C|--------|--------|--------|--------|--------|--------|--------|--------|--------|
G|--------|--------|--------|--------|--------|--------|--------|--------|--------|
D|--------|--------|--------|--------|--------|--------|--------|--------|--------|
A|--------|--------|--------|--------|--------|--------|--------|--------|--------|


A|--------|--------|--------|--------|--------|--------|--------|--------|--------|
E|--------|--------|--------|--------|--------|--------|--------|--------|--------|
C|--------|--------|--------|--------|--------|--------|--------|--------|--------|
G|--------|--------|--------|--------|--------|--------|--------|--------|--------|
D|--------|--------|--------|--------|--------|--------|--------|--------|--------|
A|--------|--------|--------|--------|--------|--------|--------|--------|--------|


A|--------|--------|--------|--------|--------|--------|--------|--------|--------|
E|--------|--------|--------|--------|--------|--------|--------|--------|--------|
C|--------|--------|--------|--------|--------|--------|--------|--------|--------|
G|--------|--------|--------|--------|--------|--------|--------|--------|--------|
D|--------|--------|--------|--------|--------|--------|--------|--------|--------|
A|--------|--------|--------|--------|--------|--------|--------|--------|--------|


A|--------|--------|--------|--------|--------|--------|--------|--------|--------|
E|--------|--------|--------|--------|--------|--------|--------|--------|--------|
C|--------|--------|--------|--------|--------|--------|--------|--------|--------|
G|--------|--------|--------|--------|--------|--------|--------|--------|--------|
D|--------|--------|--------|--------|--------|--------|--------|--------|--------|
A|--------|--------|--------|--------|--------|--------|--------|--------|--------|


A|--------|--------|--------|--------|
E|--------|--------|--------|--------|
C|--------|--------|--------|--------|
G|--------|--------|--------|--------|
D|--------|--------|--------|--------|
A|--------|--------|--------|--------|





Track 6: Synth

A|--------|--------|--------|--------|--------|--------|--------|--------|--------|
E|--------|--------|--------|--------|--------|--------|--------|--------|--------|
C|--------|--------|--------|--------|--------|--------|--------|--------|--------|
G|--------|--------|--------|--------|--------|--------|--------|--------|--------|
D|--------|--------|--------|--------|--------|--------|--------|--------|--------|
A|--------|--------|--------|--------|--------|--------|--------|--------|--------|


A|--------|--------|--------|--------|--------|--------|--------|--------|--------|
E|--------|--------|--------|--------|--------|--------|--------|--------|--------|
C|--------|--------|--------|--------|--------|--------|--------|--------|--------|
G|--------|--------|--------|--------|--------|--------|--------|--------|--------|
D|--------|--------|--------|--------|--------|--------|--------|--------|--------|
A|--------|--------|--------|--------|--------|--------|--------|--------|--------|


A|--------|--------|--------|--------|--------|--------|--------|--------|--------|
E|--------|--------|--------|--------|--------|--------|--------|--------|--------|
C|--------|--------|--------|--------|--------|--------|--------|--------|--------|
G|--------|--------|--------|--------|--------|--------|--------|--------|--------|
D|--------|--------|--------|--------|--------|--------|--------|--------|--------|
A|--------|--------|--------|--------|--------|--------|--------|--------|--------|


A|--------|--------|--------|--------|--------|--------|--------|--------|--------|
E|--------|--------|--------|--------|--------|--------|--------|--------|--------|
C|--------|--------|--------|--------|--------|--------|--------|--------|--------|
G|--------|--------|--------|--------|--------|--------|--------|--------|--------|
D|--------|--------|--------|--------|--------|--------|--------|--------|--------|
A|--------|--------|--------|--------|--------|--------|--------|--------|--------|


A|--------|--------|--------|--------|--------|--------|--------|--------|--------|
E|--------|--------|--------|--------|--------|--------|--------|--------|--------|
C|--------|--------|--------|--------|--------|--------|--------|--------|--------|
G|--------|--------|--------|--------|--------|--------|--------|--------|--------|
D|--------|--------|--------|--------|--------|--------|--------|--------|--------|
A|--------|--------|--------|--------|--------|--------|--------|--------|--------|


A|--------|--------|--------|--------|--------|--------|--------|--------|--------|
E|--------|--------|--------|--------|--------|--------|--------|--------|--------|
C|--------|--------|--------|--------|--------|--------|--------|--------|--------|
G|--------|--------|--------|--------|--------|--------|--------|--------|--------|
D|--------|--------|--------|--------|--------|--------|--------|--------|--------|
A|--------|--------|--------|--------|--------|--------|--------|--------|--------|


A|--------|--------|--------|--------|--------|--------|--------|--------|--------|
E|--------|--------|--------|--------|--------|--------|--------|--------|--------|
C|--------|--------|--------|--------|--------|--------|--------|--------|--------|
G|--------|--------|--------|--------|--------|--------|--------|--------|--------|
D|--------|--------|--------|--------|--------|--------|--------|--------|--------|
A|--------|--------|--------|--------|--------|--------|--------|--------|--------|


A|--------|--------|--------|--------|--------|--------|--------|--------|--------|
E|--------|--------|--------|--------|--------|--------|--------|--------|--------|
C|--------|--------|--------|--------|--------|--------|--------|--------|--------|
G|--------|--------|--------|--------|--------|--------|--------|--------|--------|
D|--------|--------|--------|--------|--------|--------|--------|--------|--------|
A|--------|--------|--------|--------|--------|--------|--------|--------|--------|


A|--------|--------|--------|--------|--------|--------|--------|--------|--------|
E|--------|--------|--------|--------|--------|--------|--------|--------|--------|
C|--------|--------|--------|--------|--------|--------|--------|--------|--------|
G|--------|--------|--------|--------|--------|--------|--------|--------|--------|
D|--------|--------|--------|--------|--------|--------|--------|--------|--------|
A|--------|--------|--------|--------|--------|--------|--------|--------|--------|


A|--------|--------|--------|--------|--------|--------|--------|--------|--------|
E|--------|--------|--------|--------|--------|--------|--------|--------|--------|
C|--------|--------|--------|--------|--------|--------|--------|--------|--------|
G|--------|--------|--------|--------|--------|--------|--------|--------|--------|
D|--------|--------|--------|--------|--------|--------|--------|--------|--------|
A|--------|--------|--------|--------|--------|--------|--------|--------|--------|


A|--------|--------|--------|--------|--------|--------|--------|--------|--------|
E|--------|--------|--------|--------|--------|--------|--------|--------|--------|
C|--------|--------|--------|--------|--------|--------|--------|--------|--------|
G|--------|--------|--------|--------|--------|--------|--------|--------|--------|
D|--------|--------|--------|--------|--------|--------|--------|--------|--------|
A|--------|--------|--------|--------|--------|--------|--------|--------|--------|


A|--------|--------|--------|--------|--------|--------|--------|--------|--------|
E|--------|--------|--------|--------|--------|--------|--------|--------|--------|
C|--------|--------|--------|--------|--------|--------|--------|--------|--------|
G|--------|--------|--------|--------|--------|--------|--------|--------|--------|
D|--------|--------|--------|--------|--------|--------|--------|--------|--------|
A|--------|--------|--------|--------|--------|--------|--------|--------|--------|


A|--------|--------|--------|--------|--------|--------|--------|--------|--------|
E|--------|--------|--------|--------|--------|--------|--------|--------|--------|
C|--------|--------|--------|--------|--------|--------|--------|--------|--------|
G|--------|--------|--------|--------|--------|--------|--------|--------|--------|
D|--------|--------|--------|--------|--------|--------|--------|--------|--------|
A|--------|--------|--------|--------|--------|--------|--------|--------|--------|


A|--------|--------|--------|--------|--------|--------|--------|--------|--------|
E|--------|--------|--------|--------|--------|--------|--------|--------|--------|
C|--------|--------|--------|--------|--------|--------|--------|--------|--------|
G|--------|--------|--------|--------|--------|--------|--------|--------|--------|
D|--------|--------|--------|--------|--------|--------|--------|--------|--------|
A|--------|--------|--------|--------|--------|--------|--------|--------|--------|


A|--------|--------|--------|--------|--------|--------|--------|--------|--------|
E|--------|--------|--------|--------|--------|--------|--------|--------|--------|
C|--------|--------|--------|--------|--------|--------|--------|--------|--------|
G|--------|--------|--------|--------|--------|--------|--------|--------|--------|
D|--------|--------|--------|--------|--------|--------|--------|--------|--------|
A|--------|--------|--------|--------|--------|--------|--------|--------|--------|


A|--------|--------|--------|--------|--------|--------|--------|--------|--------|
E|--------|--------|--------|--------|--------|--------|--------|--------|--------|
C|--------|--------|--------|--------|--------|--------|--------|--------|--------|
G|--------|--------|--------|--------|--------|--------|--------|--------|--------|
D|--------|--------|--------|--------|--------|--------|--------|--------|--------|
A|--------|--------|--------|--------|--------|--------|--------|--------|--------|


A|--------|--------|--------|--------|--------|--------|--------|--------|--------|
E|--------|--------|--------|--------|--------|--------|--------|--------|--------|
C|--------|--------|--------|--------|--------|--------|--------|--------|--------|
G|--------|--------|--------|--------|--------|--------|--------|--------|--------|
D|--------|--------|--------|--------|--------|--------|--------|--------|--------|
A|--------|--------|--------|--------|--------|--------|--------|--------|--------|


A|--------|--------|--------|--------|--------|--------|--------|--------|--------|
E|--------|--------|--------|--------|--------|--------|--------|--------|--------|
C|--------|--------|--------|--------|--------|--------|--------|--------|--------|
G|--------|--------|--------|--------|--------|--------|--------|--------|--------|
D|--------|--------|--------|--------|--------|--------|--------|--------|--------|
A|--------|--------|--------|--------|--------|--------|--------|--------|--------|


A|--------|--------|--------|--------|--------|--------|--------|--------|--------|
E|--------|--------|--------|--------|--------|--------|--------|--------|--------|
C|--------|--------|--------|--------|--------|--------|--------|--------|--------|
G|--------|--------|--------|--------|--------|--------|--------|--------|--------|
D|--------|--------|--------|--------|--------|--------|--------|--------|--------|
A|--------|--------|--------|--------|--------|--------|--------|--------|--------|


A|--------|--------|--------|--------|--------|--------|--------|--------|--------|
E|--------|--------|--------|--------|--------|--------|--------|--------|--------|
C|--------|--------|--------|--------|--------|--------|--------|--------|--------|
G|--------|--------|--------|--------|--------|--------|--------|--------|--------|
D|--------|--------|--------|--------|--------|--------|--------|--------|--------|
A|--------|--------|--------|--------|--------|--------|--------|--------|--------|


A|--------|--------|--------|--------|--------|--------------|--------------|---------------------------------|
E|--------|--------|--------|--------|--------|--------------|--------------|---------------------------------|
C|--------|--------|--------|--------|--------|--------------|--------------|---------------------2---4-------|
G|--------|--------|--------|--------|--------|--------------|--------------|-----5-----------5---------------|
D|--------|--------|--------|--------|--------|--------------|--------------|---------------------------------|
A|--------|--------|--------|--------|--------|--------------|--------------|---------------------------------|


A|-----------------2---------------|---------------------------------|-----5---2---3---2---------------|
E|-----5---3-----------------------|-----------------------------5---|-3-------------------5---3-------|
C|-------------5-------4---2-------|-------------2---4---------------|---------------------------------|
G|-----------------------------5---|---------5-----------------------|---------------------------------|
D|---------------------------------|---------------------------------|---------------------------------|
A|---------------------------------|---------------------------------|---------------------------------|


A|--------|--------|--------|--------|--------|--------|--------|--------|--------|
E|--------|--------|--------|--------|--------|--------|--------|--------|--------|
C|--------|--------|--------|--------|--------|--------|--------|--------|--------|
G|--------|--------|--------|--------|--------|--------|--------|--------|--------|
D|--------|--------|--------|--------|--------|--------|--------|--------|--------|
A|--------|--------|--------|--------|--------|--------|--------|--------|--------|


A|--------|--------|--------|--------|--------|--------|--------|--------|--------|
E|--------|--------|--------|--------|--------|--------|--------|--------|--------|
C|--------|--------|--------|--------|--------|--------|--------|--------|--------|
G|--------|--------|--------|--------|--------|--------|--------|--------|--------|
D|--------|--------|--------|--------|--------|--------|--------|--------|--------|
A|--------|--------|--------|--------|--------|--------|--------|--------|--------|


A|--------|--------|--------|--------|--------|--------|--------|--------|--------|
E|--------|--------|--------|--------|--------|--------|--------|--------|--------|
C|--------|--------|--------|--------|--------|--------|--------|--------|--------|
G|--------|--------|--------|--------|--------|--------|--------|--------|--------|
D|--------|--------|--------|--------|--------|--------|--------|--------|--------|
A|--------|--------|--------|--------|--------|--------|--------|--------|--------|


A|--------|--------|--------|--------|--------|--------|--------|--------|--------|
E|--------|--------|--------|--------|--------|--------|--------|--------|--------|
C|--------|--------|--------|--------|--------|--------|--------|--------|--------|
G|--------|--------|--------|--------|--------|--------|--------|--------|--------|
D|--------|--------|--------|--------|--------|--------|--------|--------|--------|
A|--------|--------|--------|--------|--------|--------|--------|--------|--------|


A|--------|--------|--------|--------|--------|--------|--------|--------|--------|
E|--------|--------|--------|--------|--------|--------|--------|--------|--------|
C|--------|--------|--------|--------|--------|--------|--------|--------|--------|
G|--------|--------|--------|--------|--------|--------|--------|--------|--------|
D|--------|--------|--------|--------|--------|--------|--------|--------|--------|
A|--------|--------|--------|--------|--------|--------|--------|--------|--------|


A|--------|--------|--------|--------|--------|--------|--------|--------|--------|
E|--------|--------|--------|--------|--------|--------|--------|--------|--------|
C|--------|--------|--------|--------|--------|--------|--------|--------|--------|
G|--------|--------|--------|--------|--------|--------|--------|--------|--------|
D|--------|--------|--------|--------|--------|--------|--------|--------|--------|
A|--------|--------|--------|--------|--------|--------|--------|--------|--------|


A|--------|--------|--------|--------|--------|--------|--------|--------|--------|
E|--------|--------|--------|--------|--------|--------|--------|--------|--------|
C|--------|--------|--------|--------|--------|--------|--------|--------|--------|
G|--------|--------|--------|--------|--------|--------|--------|--------|--------|
D|--------|--------|--------|--------|--------|--------|--------|--------|--------|
A|--------|--------|--------|--------|--------|--------|--------|--------|--------|


A|--------|--------|--------|--------|--------|--------|--------|--------|--------|
E|--------|--------|--------|--------|--------|--------|--------|--------|--------|
C|--------|--------|--------|--------|--------|--------|--------|--------|--------|
G|--------|--------|--------|--------|--------|--------|--------|--------|--------|
D|--------|--------|--------|--------|--------|--------|--------|--------|--------|
A|--------|--------|--------|--------|--------|--------|--------|--------|--------|


A|--------|--------|--------|--------|--------|--------|--------|--------|--------|
E|--------|--------|--------|--------|--------|--------|--------|--------|--------|
C|--------|--------|--------|--------|--------|--------|--------|--------|--------|
G|--------|--------|--------|--------|--------|--------|--------|--------|--------|
D|--------|--------|--------|--------|--------|--------|--------|--------|--------|
A|--------|--------|--------|--------|--------|--------|--------|--------|--------|


A|--------|--------|--------|--------|--------|--------|--------|--------|--------|
E|--------|--------|--------|--------|--------|--------|--------|--------|--------|
C|--------|--------|--------|--------|--------|--------|--------|--------|--------|
G|--------|--------|--------|--------|--------|--------|--------|--------|--------|
D|--------|--------|--------|--------|--------|--------|--------|--------|--------|
A|--------|--------|--------|--------|--------|--------|--------|--------|--------|


A|--------|--------|--------|--------|--------|--------|--------|--------|--------|
E|--------|--------|--------|--------|--------|--------|--------|--------|--------|
C|--------|--------|--------|--------|--------|--------|--------|--------|--------|
G|--------|--------|--------|--------|--------|--------|--------|--------|--------|
D|--------|--------|--------|--------|--------|--------|--------|--------|--------|
A|--------|--------|--------|--------|--------|--------|--------|--------|--------|


A|--------|--------|--------|--------|--------|--------|--------|--------|--------|
E|--------|--------|--------|--------|--------|--------|--------|--------|--------|
C|--------|--------|--------|--------|--------|--------|--------|--------|--------|
G|--------|--------|--------|--------|--------|--------|--------|--------|--------|
D|--------|--------|--------|--------|--------|--------|--------|--------|--------|
A|--------|--------|--------|--------|--------|--------|--------|--------|--------|


A|--------|--------|--------|--------|--------|--------|--------|--------|--------|
E|--------|--------|--------|--------|--------|--------|--------|--------|--------|
C|--------|--------|--------|--------|--------|--------|--------|--------|--------|
G|--------|--------|--------|--------|--------|--------|--------|--------|--------|
D|--------|--------|--------|--------|--------|--------|--------|--------|--------|
A|--------|--------|--------|--------|--------|--------|--------|--------|--------|


A|--------|--------|--------|--------|--------|--------|--------|--------|--------|
E|--------|--------|--------|--------|--------|--------|--------|--------|--------|
C|--------|--------|--------|--------|--------|--------|--------|--------|--------|
G|--------|--------|--------|--------|--------|--------|--------|--------|--------|
D|--------|--------|--------|--------|--------|--------|--------|--------|--------|
A|--------|--------|--------|--------|--------|--------|--------|--------|--------|


A|--------|--------|--------|--------|--------|--------|--------|--------|--------|
E|--------|--------|--------|--------|--------|--------|--------|--------|--------|
C|--------|--------|--------|--------|--------|--------|--------|--------|--------|
G|--------|--------|--------|--------|--------|--------|--------|--------|--------|
D|--------|--------|--------|--------|--------|--------|--------|--------|--------|
A|--------|--------|--------|--------|--------|--------|--------|--------|--------|


A|--------|--------|--------|
E|--------|--------|--------|
C|--------|--------|--------|
G|--------|--------|--------|
D|--------|--------|--------|
A|--------|--------|--------|





Track 7: Solo

E|--------|--------|--------|--------|--------|--------|--------|--------|--------|
B|--------|--------|--------|--------|--------|--------|--------|--------|--------|
G|--------|--------|--------|--------|--------|--------|--------|--------|--------|
D|--------|--------|--------|--------|--------|--------|--------|--------|--------|
A|--------|--------|--------|--------|--------|--------|--------|--------|--------|
E|--------|--------|--------|--------|--------|--------|--------|--------|--------|


E|--------|--------|--------|--------|--------|--------|--------|--------|--------|
B|--------|--------|--------|--------|--------|--------|--------|--------|--------|
G|--------|--------|--------|--------|--------|--------|--------|--------|--------|
D|--------|--------|--------|--------|--------|--------|--------|--------|--------|
A|--------|--------|--------|--------|--------|--------|--------|--------|--------|
E|--------|--------|--------|--------|--------|--------|--------|--------|--------|


E|--------|--------|--------|--------|--------|--------|--------|--------|--------|
B|--------|--------|--------|--------|--------|--------|--------|--------|--------|
G|--------|--------|--------|--------|--------|--------|--------|--------|--------|
D|--------|--------|--------|--------|--------|--------|--------|--------|--------|
A|--------|--------|--------|--------|--------|--------|--------|--------|--------|
E|--------|--------|--------|--------|--------|--------|--------|--------|--------|


E|--------|--------|--------|--------|--------|--------|--------|--------|--------|
B|--------|--------|--------|--------|--------|--------|--------|--------|--------|
G|--------|--------|--------|--------|--------|--------|--------|--------|--------|
D|--------|--------|--------|--------|--------|--------|--------|--------|--------|
A|--------|--------|--------|--------|--------|--------|--------|--------|--------|
E|--------|--------|--------|--------|--------|--------|--------|--------|--------|


E|--------|--------|--------|--------|--------|--------|--------|--------|--------|
B|--------|--------|--------|--------|--------|--------|--------|--------|--------|
G|--------|--------|--------|--------|--------|--------|--------|--------|--------|
D|--------|--------|--------|--------|--------|--------|--------|--------|--------|
A|--------|--------|--------|--------|--------|--------|--------|--------|--------|
E|--------|--------|--------|--------|--------|--------|--------|--------|--------|


E|--------|--------|--------|--------|--------|--------|--------|--------|--------|
B|--------|--------|--------|--------|--------|--------|--------|--------|--------|
G|--------|--------|--------|--------|--------|--------|--------|--------|--------|
D|--------|--------|--------|--------|--------|--------|--------|--------|--------|
A|--------|--------|--------|--------|--------|--------|--------|--------|--------|
E|--------|--------|--------|--------|--------|--------|--------|--------|--------|


E|--------|--------|--------|--------|--------|--------|--------|--------|--------|
B|--------|--------|--------|--------|--------|--------|--------|--------|--------|
G|--------|--------|--------|--------|--------|--------|--------|--------|--------|
D|--------|--------|--------|--------|--------|--------|--------|--------|--------|
A|--------|--------|--------|--------|--------|--------|--------|--------|--------|
E|--------|--------|--------|--------|--------|--------|--------|--------|--------|


E|--------|--------|--------|--------|--------|--------|--------|--------|--------|
B|--------|--------|--------|--------|--------|--------|--------|--------|--------|
G|--------|--------|--------|--------|--------|--------|--------|--------|--------|
D|--------|--------|--------|--------|--------|--------|--------|--------|--------|
A|--------|--------|--------|--------|--------|--------|--------|--------|--------|
E|--------|--------|--------|--------|--------|--------|--------|--------|--------|


E|--------|--------|--------|--------|--------|--------|--------|--------|--------|
B|--------|--------|--------|--------|--------|--------|--------|--------|--------|
G|--------|--------|--------|--------|--------|--------|--------|--------|--------|
D|--------|--------|--------|--------|--------|--------|--------|--------|--------|
A|--------|--------|--------|--------|--------|--------|--------|--------|--------|
E|--------|--------|--------|--------|--------|--------|--------|--------|--------|


E|--------|--------|--------|--------|--------|--------|--------|--------|--------|
B|--------|--------|--------|--------|--------|--------|--------|--------|--------|
G|--------|--------|--------|--------|--------|--------|--------|--------|--------|
D|--------|--------|--------|--------|--------|--------|--------|--------|--------|
A|--------|--------|--------|--------|--------|--------|--------|--------|--------|
E|--------|--------|--------|--------|--------|--------|--------|--------|--------|


E|--------|--------|--------|--------|--------|--------|--------|--------|--------|
B|--------|--------|--------|--------|--------|--------|--------|--------|--------|
G|--------|--------|--------|--------|--------|--------|--------|--------|--------|
D|--------|--------|--------|--------|--------|--------|--------|--------|--------|
A|--------|--------|--------|--------|--------|--------|--------|--------|--------|
E|--------|--------|--------|--------|--------|--------|--------|--------|--------|


E|--------|--------|--------|--------|--------|--------|--------|--------|--------|
B|--------|--------|--------|--------|--------|--------|--------|--------|--------|
G|--------|--------|--------|--------|--------|--------|--------|--------|--------|
D|--------|--------|--------|--------|--------|--------|--------|--------|--------|
A|--------|--------|--------|--------|--------|--------|--------|--------|--------|
E|--------|--------|--------|--------|--------|--------|--------|--------|--------|


E|--------|--------|--------|--------|--------|--------|--------|--------|--------|
B|--------|--------|--------|--------|--------|--------|--------|--------|--------|
G|--------|--------|--------|--------|--------|--------|--------|--------|--------|
D|--------|--------|--------|--------|--------|--------|--------|--------|--------|
A|--------|--------|--------|--------|--------|--------|--------|--------|--------|
E|--------|--------|--------|--------|--------|--------|--------|--------|--------|


E|--------|--------|--------|--------|--------|--------|--------|--------|--------|
B|--------|--------|--------|--------|--------|--------|--------|--------|--------|
G|--------|--------|--------|--------|--------|--------|--------|--------|--------|
D|--------|--------|--------|--------|--------|--------|--------|--------|--------|
A|--------|--------|--------|--------|--------|--------|--------|--------|--------|
E|--------|--------|--------|--------|--------|--------|--------|--------|--------|


E|--------|--------|--------|--------|--------|--------|--------|--------|--------|
B|--------|--------|--------|--------|--------|--------|--------|--------|--------|
G|--------|--------|--------|--------|--------|--------|--------|--------|--------|
D|--------|--------|--------|--------|--------|--------|--------|--------|--------|
A|--------|--------|--------|--------|--------|--------|--------|--------|--------|
E|--------|--------|--------|--------|--------|--------|--------|--------|--------|


E|--------|--------|--------|--------|--------|--------|--------|--------|--------|
B|--------|--------|--------|--------|--------|--------|--------|--------|--------|
G|--------|--------|--------|--------|--------|--------|--------|--------|--------|
D|--------|--------|--------|--------|--------|--------|--------|--------|--------|
A|--------|--------|--------|--------|--------|--------|--------|--------|--------|
E|--------|--------|--------|--------|--------|--------|--------|--------|--------|


E|--------|--------|--------|--------|--------|--------|--------|--------|--------|
B|--------|--------|--------|--------|--------|--------|--------|--------|--------|
G|--------|--------|--------|--------|--------|--------|--------|--------|--------|
D|--------|--------|--------|--------|--------|--------|--------|--------|--------|
A|--------|--------|--------|--------|--------|--------|--------|--------|--------|
E|--------|--------|--------|--------|--------|--------|--------|--------|--------|


E|--------|--------|--------|--------|--------|--------|--------|--------|--------|
B|--------|--------|--------|--------|--------|--------|--------|--------|--------|
G|--------|--------|--------|--------|--------|--------|--------|--------|--------|
D|--------|--------|--------|--------|--------|--------|--------|--------|--------|
A|--------|--------|--------|--------|--------|--------|--------|--------|--------|
E|--------|--------|--------|--------|--------|--------|--------|--------|--------|


E|--------|--------|--------|--------|--------|--------|--------|--------|--------|
B|--------|--------|--------|--------|--------|--------|--------|--------|--------|
G|--------|--------|--------|--------|--------|--------|--------|--------|--------|
D|--------|--------|--------|--------|--------|--------|--------|--------|--------|
A|--------|--------|--------|--------|--------|--------|--------|--------|--------|
E|--------|--------|--------|--------|--------|--------|--------|--------|--------|


E|--------|--------|--------|--------|--------|--------|--------|--------|--------|
B|--------|--------|--------|--------|--------|--------|--------|--------|--------|
G|--------|--------|--------|--------|--------|--------|--------|--------|--------|
D|--------|--------|--------|--------|--------|--------|--------|--------|--------|
A|--------|--------|--------|--------|--------|--------|--------|--------|--------|
E|--------|--------|--------|--------|--------|--------|--------|--------|--------|


E|--------|--------|--------|--------|--------|--------|--------|--------|--------|
B|--------|--------|--------|--------|--------|--------|--------|--------|--------|
G|--------|--------|--------|--------|--------|--------|--------|--------|--------|
D|--------|--------|--------|--------|--------|--------|--------|--------|--------|
A|--------|--------|--------|--------|--------|--------|--------|--------|--------|
E|--------|--------|--------|--------|--------|--------|--------|--------|--------|


E|--------|--------|--------|--------|--------|--------|--------|--------|--------|
B|--------|--------|--------|--------|--------|--------|--------|--------|--------|
G|--------|--------|--------|--------|--------|--------|--------|--------|--------|
D|--------|--------|--------|--------|--------|--------|--------|--------|--------|
A|--------|--------|--------|--------|--------|--------|--------|--------|--------|
E|--------|--------|--------|--------|--------|--------|--------|--------|--------|


E|--------|--------|--------|--------|--------|--------|--------|--------|--------|
B|--------|--------|--------|--------|--------|--------|--------|--------|--------|
G|--------|--------|--------|--------|--------|--------|--------|--------|--------|
D|--------|--------|--------|--------|--------|--------|--------|--------|--------|
A|--------|--------|--------|--------|--------|--------|--------|--------|--------|
E|--------|--------|--------|--------|--------|--------|--------|--------|--------|


E|--------|--------|--------|--------|--------|--------|--------|--------|--------|
B|--------|--------|--------|--------|--------|--------|--------|--------|--------|
G|--------|--------|--------|--------|--------|--------|--------|--------|--------|
D|--------|--------|--------|--------|--------|--------|--------|--------|--------|
A|--------|--------|--------|--------|--------|--------|--------|--------|--------|
E|--------|--------|--------|--------|--------|--------|--------|--------|--------|


E|--------|--------|--------|--------|--------|--------|--------|--------|--------|
B|--------|--------|--------|--------|--------|--------|--------|--------|--------|
G|--------|--------|--------|--------|--------|--------|--------|--------|--------|
D|--------|--------|--------|--------|--------|--------|--------|--------|--------|
A|--------|--------|--------|--------|--------|--------|--------|--------|--------|
E|--------|--------|--------|--------|--------|--------|--------|--------|--------|


E|--------|--------|--------|--------|--------|--------|--------|--------|--------|
B|--------|--------|--------|--------|--------|--------|--------|--------|--------|
G|--------|--------|--------|--------|--------|--------|--------|--------|--------|
D|--------|--------|--------|--------|--------|--------|--------|--------|--------|
A|--------|--------|--------|--------|--------|--------|--------|--------|--------|
E|--------|--------|--------|--------|--------|--------|--------|--------|--------|


E|--------|--------|--------|--------|--------|--------|--------|--------|--------|
B|--------|--------|--------|--------|--------|--------|--------|--------|--------|
G|--------|--------|--------|--------|--------|--------|--------|--------|--------|
D|--------|--------|--------|--------|--------|--------|--------|--------|--------|
A|--------|--------|--------|--------|--------|--------|--------|--------|--------|
E|--------|--------|--------|--------|--------|--------|--------|--------|--------|


E|--------|--------|--------|--------|--------|--------|--------|--------|--------|
B|--------|--------|--------|--------|--------|--------|--------|--------|--------|
G|--------|--------|--------|--------|--------|--------|--------|--------|--------|
D|--------|--------|--------|--------|--------|--------|--------|--------|--------|
A|--------|--------|--------|--------|--------|--------|--------|--------|--------|
E|--------|--------|--------|--------|--------|--------|--------|--------|--------|


E|--------|--------|--------|--------|--------|--------|------------------------------|
B|--------|--------|--------|--------|--------|--------|------------------20--19------|
G|--------|--------|--------|--------|--------|--------|--------------19----------19--|
D|--------|--------|--------|--------|--------|--------|----------19------------------|
A|--------|--------|--------|--------|--------|--------|------------------------------|
E|--------|--------|--------|--------|--------|--------|------------------------------|


E|-19--20--19-20-19----------19-----19-|-------------------------15--14--|-----------------------------------------|
B|-------------------20--22------22----|-22--19--------------------------|-15------15------------------------------|
G|-------------------------------------|---------12--11------------------|-----14------12--10--9--10-12------------|
D|-------------------------------------|-----------------12--------------|-------------------------------10-12-14--|
A|-------------------------------------|---------------------12----------|-----------------------------------------|
E|-------------------------------------|---------------------------------|-----------------------------------------|


E|-------------------------------------|-19--20--22--19----------19-----19-|---------------------------------------------|
B|-------------------------20--19------|-----------------20--22------22----|-22--19--------------------------------------|
G|---------------------19----------19--|-----------------------------------|---------------------------------12--14--16--|
D|-----------------19------------------|-----------------------------------|---------------------12--14--16--------------|
A|-8--10-8--7--------------------------|-----------------------------------|---------10--12--14--------------------------|
E|-------------------------------------|-----------------------------------|---------------------------------------------|


E|-10--12--14--15--13--12----------12------|-----------------------------------------|
B|-------------------------15--13----------|-------------------------15--13--12------|
G|-------------------------------------14--|-12--10--9-----------12--------------14--|
D|-----------------------------------------|-----------------12----------------------|
A|-----------------------------------------|-----------------------------------------|
E|-----------------------------------------|-----------------------------------------|


E|---------17--15--14------14-15-14------|-----------------------------------------|
B|-----15--------------17------------15--|-----------------------------------------|
G|-12------------------------------------|-14----------------------------------19--|
D|---------------------------------------|-----17--16--17--19--------------17------|
A|---------------------------------------|---------------------17--19--21----------|
E|---------------------------------------|-----------------------------------------|


E|-17--19--20-19-------------------------|----------------------------------------|
B|---------------20----------------------|-----------------------------------15---|
G|-------------------19--21--19----------|----------------------------------------|
D|-------------------------------19--17--|-------------14-16-17--16--14-----------|
A|---------------------------------------|-21--19--17--------------------17-------|
E|---------------------------------------|----------------------------------------|


E|-----------------------15---------------|-------------------------------------|-----15--------------------------------|
B|----------------------------------------|-------------------------------------|---------17--18--15--------------------|
G|-14--16-17-16--14-----------------------|-------------------------------------|-19------------------17--15--14--17-14-|
D|-------------------17-------16--17--19--|-17--16------------------19--16--17--|---------------------------------------|
A|----------------------------------------|---------17----------17--------------|---------------------------------------|
E|----------------------------------------|-------------15--17------------------|---------------------------------------|


E|-------------------------------------|-7---8---7--8--7-----------7------7--|-------------------------15--14--|
B|-------------------------8---7-------|-------------------8---10------10----|-10--7---8---7-------------------|
G|---------------------7-----------7---|-------------------------------------|-----------------7---------------|
D|-14--15----------7-------------------|-------------------------------------|---------------------7-----------|
A|---------17--------------------------|-------------------------------------|---------------------------------|
E|-------------------------------------|-------------------------------------|---------------------------------|


E|-----------------------------------------|-----------------------------------------|
B|-15------15------------------------------|-------------------------15--13--12------|
G|-----14------12--10--9--10-12------------|---------------------12--------------14--|
D|-------------------------------10-12-14--|-----------------12----------------------|
A|-----------------------------------------|-8--10-8--7------------------------------|
E|-----------------------------------------|-----------------------------------------|


E|---------17--15--14------14-15-14------|-----------------------------------------|
B|-----15--------------17------------15--|-------------------------------------15--|
G|-12------------------------------------|-14--12--11--12--14--------------12------|
D|---------------------------------------|---------------------12--14--16----------|
A|---------------------------------------|-----------------------------------------|
E|---------------------------------------|-----------------------------------------|


E|-17--19--20--19--17----------------------|------------------------------------------|
B|-------------------------17--------------|------------------------------------------|
G|---------------------19------19----------|-------------------------------------19---|
D|---------------------------------19--17--|-16--------------16--17--16---------------|
A|-----------------------------------------|-----19--17--19--------------19--17-------|
E|-----------------------------------------|------------------------------------------|


E|-------------------------22-----------|------------------------------------------|
B|-----19--20--19-----------------------|------------------------------------------|
G|-21--------------21--19-------17--19--|-16----------------------------------19---|
D|--------------------------------------|-----17--19--16----16-17-16---------------|
A|--------------------------------------|----------------19-----------19--17-------|
E|--------------------------------------|------------------------------------------|


E|-------------------------------------------------|-19--20--22---------|--------|
B|-------------------------------------19--20--22--|--------------------|--------|
G|-------------------------17--19--21--------------|--------------------|--------|
D|-------------17--19--21--------------------------|--------------------|--------|
A|-17--19--21--------------------------------------|--------------------|--------|
E|-------------------------------------------------|--------------------|--------|


E|--------|--------|--------|--------|--------|--------|--------|--------|--------|
B|--------|--------|--------|--------|--------|--------|--------|--------|--------|
G|--------|--------|--------|--------|--------|--------|--------|--------|--------|
D|--------|--------|--------|--------|--------|--------|--------|--------|--------|
A|--------|--------|--------|--------|--------|--------|--------|--------|--------|
E|--------|--------|--------|--------|--------|--------|--------|--------|--------|


E|--------|--------|--------|--------|--------|--------|--------|--------|--------|
B|--------|--------|--------|--------|--------|--------|--------|--------|--------|
G|--------|--------|--------|--------|--------|--------|--------|--------|--------|
D|--------|--------|--------|--------|--------|--------|--------|--------|--------|
A|--------|--------|--------|--------|--------|--------|--------|--------|--------|
E|--------|--------|--------|--------|--------|--------|--------|--------|--------|


E|--------|--------|--------|--------|--------|--------|--------|--------|--------|
B|--------|--------|--------|--------|--------|--------|--------|--------|--------|
G|--------|--------|--------|--------|--------|--------|--------|--------|--------|
D|--------|--------|--------|--------|--------|--------|--------|--------|--------|
A|--------|--------|--------|--------|--------|--------|--------|--------|--------|
E|--------|--------|--------|--------|--------|--------|--------|--------|--------|


E|--------|--------|--------|--------|--------|--------|--------|--------|--------|
B|--------|--------|--------|--------|--------|--------|--------|--------|--------|
G|--------|--------|--------|--------|--------|--------|--------|--------|--------|
D|--------|--------|--------|--------|--------|--------|--------|--------|--------|
A|--------|--------|--------|--------|--------|--------|--------|--------|--------|
E|--------|--------|--------|--------|--------|--------|--------|--------|--------|


E|--------|--------|--------|--------|--------|
B|--------|--------|--------|--------|--------|
G|--------|--------|--------|--------|--------|
D|--------|--------|--------|--------|--------|
A|--------|--------|--------|--------|--------|
E|--------|--------|--------|--------|--------|