Menu:

 

Search:

 

dream theater - another hand:

 



Title: Another Hand
Artist: 
Album: Live At The Marquee
Author: Dream Theater


Track 1: Electric (Clean)

E|-------------0---0---------------|-------------0---------------0---|-------------0---0---------------|
B|---------4-----------4---4-------|---------4---------------4-------|---------4-----------4---4-------|
G|-----4-----------------------4---|-----4---------------4-----------|-----4-----------------------4---|
D|---------------------------------|---------------------------------|---------------------------------|
A|---------------------------------|---------------------------------|---------------------------------|
E|-0-------------------------------|-0---------------2---------------|-4-------------------------------|


E|-------------0---------------0---|-------------0---0---------------|-------------0---------------0---|
B|---------4---------------4-------|---------4-----------4---4-------|---------4---------------4-------|
G|-----4---------------4-----------|-----4-----------------------4---|-----4---------------4-----------|
D|---------------------------------|---------------------------------|---------------------------------|
A|-----------------2---------------|-0-------------------------------|-0---------------2---------------|
E|-4-------------------------------|---------------------------------|---------------------------------|


E|-------------0----------------|-------------0-------------------|-------------0---0---------------|
B|---------4-------4------------|---------4-------4---------------|---------4-----------4---4-------|
G|-----4---------------4--------|-----4---------------4-------4---|-----4-----------------------4---|
D|------------------------------|---------------------------------|---------------------------------|
A|-4-----------------------4----|-6-----------------------6-------|---------------------------------|
E|------------------------------|---------------------------------|-0-------------------------------|


E|-------------0---------------0---|-------------0---0---------------|-------------0---------------0---|
B|---------4---------------4-------|---------4-----------4---4-------|---------4---------------4-------|
G|-----4---------------4-----------|-----4-----------------------4---|-----4---------------4-----------|
D|---------------------------------|---------------------------------|---------------------------------|
A|---------------------------------|---------------------------------|-----------------2---------------|
E|-0---------------2---------------|-4-------------------------------|-4-------------------------------|


E|-------------0---0---------------|-------------0---------------0---|-------------0----------------|
B|---------4-----------4---4-------|---------4---------------4-------|---------4-------4------------|
G|-----4-----------------------4---|-----4---------------4-----------|-----4---------------4--------|
D|---------------------------------|---------------------------------|------------------------------|
A|-0-------------------------------|-0---------------2---------------|-4-----------------------4----|
E|---------------------------------|---------------------------------|------------------------------|


E|-------------0-------------------|-------------0-------------------|-------------0---------------0---|
B|---------4-------4---------------|---------4-------4-----------4---|---------4---------------4-------|
G|-----4---------------4-------4---|-----4---------------4---4-------|-----4---------------4-----------|
D|---------------------------------|---------------------------------|---------------------------------|
A|-6-----------------------6-------|---------------------------------|---------------------------------|
E|---------------------------------|-0-------------------------------|-0---------------2---------------|


E|-------------0-------------------|-------------0---------------0---|-------------0-------------------|
B|---------4-------4-----------4---|---------4---------------4-------|---------4-------4---------------|
G|-----4---------------4---4-------|-----4---------------4-----------|-----4---------------4-------4---|
D|---------------------------------|---------------------------------|---------------------------------|
A|---------------------------------|-----------------2---------------|-0-----------------------0-------|
E|-4-------------------------------|-4-------------------------------|---------------------------------|


E|-------------0---------------0---|-------------0-------------------|---------------------------------|
B|---------4---------------4-------|---------4-------4---------------|---------------------------------|
G|-----4---------------4-----------|-----4---------------4-------4---|---------8---8---8---8---8---8---|
D|---------------------------------|---------------------------------|-----9---9---9---9---9---9---9---|
A|-0---------------2---------------|-4-----------------------4-------|-6-------6---6---6---6---6---6---|
E|---------------------------------|---------------------------------|---------------------------------|


E|--------|--------|--------|--------|--------|--------|--------|--------|--------|
B|--------|--------|--------|--------|--------|--------|--------|--------|--------|
G|--------|--------|--------|--------|--------|--------|--------|--------|--------|
D|--------|--------|--------|--------|--------|--------|--------|--------|--------|
A|--------|--------|--------|--------|--------|--------|--------|--------|--------|
E|--------|--------|--------|--------|--------|--------|--------|--------|--------|


E|--------|--------|--------|--------|--------|--------|--------|--------|--------|
B|--------|--------|--------|--------|--------|--------|--------|--------|--------|
G|--------|--------|--------|--------|--------|--------|--------|--------|--------|
D|--------|--------|--------|--------|--------|--------|--------|--------|--------|
A|--------|--------|--------|--------|--------|--------|--------|--------|--------|
E|--------|--------|--------|--------|--------|--------|--------|--------|--------|


E|--------|--------|--------|--------|--------|--------|--------|--------|--------|
B|--------|--------|--------|--------|--------|--------|--------|--------|--------|
G|--------|--------|--------|--------|--------|--------|--------|--------|--------|
D|--------|--------|--------|--------|--------|--------|--------|--------|--------|
A|--------|--------|--------|--------|--------|--------|--------|--------|--------|
E|--------|--------|--------|--------|--------|--------|--------|--------|--------|


E|--------|--------|--------|--------|--------|--------|--------|--------|--------|
B|--------|--------|--------|--------|--------|--------|--------|--------|--------|
G|--------|--------|--------|--------|--------|--------|--------|--------|--------|
D|--------|--------|--------|--------|--------|--------|--------|--------|--------|
A|--------|--------|--------|--------|--------|--------|--------|--------|--------|
E|--------|--------|--------|--------|--------|--------|--------|--------|--------|


E|--------|--------|--------|--------|--------|--------|--------|
B|--------|--------|--------|--------|--------|--------|--------|
G|--------|--------|--------|--------|--------|--------|--------|
D|--------|--------|--------|--------|--------|--------|--------|
A|--------|--------|--------|--------|--------|--------|--------|
E|--------|--------|--------|--------|--------|--------|--------|





Track 2: Keyboard (Square)

E|--------|--------|--------|--------|--------|--------|--------|--------|-11---11------------|
B|--------|--------|--------|--------|--------|--------|--------|--------|----------12--12----|
G|--------|--------|--------|--------|--------|--------|--------|--------|--------------------|
D|--------|--------|--------|--------|--------|--------|--------|--------|--------------------|
A|--------|--------|--------|--------|--------|--------|--------|--------|--------------------|
E|--------|--------|--------|--------|--------|--------|--------|--------|--------------------|


E|--------------12------12--14--|-11---11------------|------------------|--------------------|
B|-12-------12------12----------|----------12--12----|-12---------9--10-|-12---12------------|
G|------------------------------|--------------------|------------------|----------9---9-----|
D|------------------------------|--------------------|------------------|--------------------|
A|------------------------------|--------------------|------------------|--------------------|
E|------------------------------|--------------------|------------------|--------------------|


E|------------------------------|-----------------------|---------------------------|
B|--------------12------12--14--|-12--------------------|---------------------------|
G|-9--------9-------9-----------|-------9---9-----9--11-|-13---14--13--11-----------|
D|------------------------------|-----------------------|------------------14--9----|
A|------------------------------|-----------------------|---------------------------|
E|------------------------------|-----------------------|---------------------------|


E|-----------------|------------------------------|-------19--19----|-19----19---19--16-17-|
B|-----------------|--------------17------17--19--|-17--------------|----------------------|
G|-----------------|----------16------16----------|-----------------|----------------------|
D|-9---------------|------------------------------|-----------------|----------------------|
A|-------12--11----|-11---------------------------|-----------------|----------------------|
E|-----------------|------------------------------|-----------------|----------------------|


E|-19---19-------------------|-----------19------19--21--|-19----24--24-------------|
B|----------17--17-----------|-------17------17----------|--------------------17-19-|
G|-------------------18--16--|-16------------------------|--------------------------|
D|---------------------------|---------------------------|--------------------------|
A|---------------------------|---------------------------|--------------------------|
E|---------------------------|---------------------------|--------------------------|


E|------17--16---------------|--------|--------|--------|--------|--------|--------|
B|-21-----------19--17-------|--------|--------|--------|--------|--------|--------|
G|----------------------16---|--------|--------|--------|--------|--------|--------|
D|---------------------------|--------|--------|--------|--------|--------|--------|
A|---------------------------|--------|--------|--------|--------|--------|--------|
E|---------------------------|--------|--------|--------|--------|--------|--------|


E|--------|--------|--------|--------|--------|--------|--------|--------|--------|
B|--------|--------|--------|--------|--------|--------|--------|--------|--------|
G|--------|--------|--------|--------|--------|--------|--------|--------|--------|
D|--------|--------|--------|--------|--------|--------|--------|--------|--------|
A|--------|--------|--------|--------|--------|--------|--------|--------|--------|
E|--------|--------|--------|--------|--------|--------|--------|--------|--------|


E|--------|--------|--------|--------|--------|--------|--------|--------|--------|
B|--------|--------|--------|--------|--------|--------|--------|--------|--------|
G|--------|--------|--------|--------|--------|--------|--------|--------|--------|
D|--------|--------|--------|--------|--------|--------|--------|--------|--------|
A|--------|--------|--------|--------|--------|--------|--------|--------|--------|
E|--------|--------|--------|--------|--------|--------|--------|--------|--------|


E|--------|--------|--------|--------|--------|--------|--------|--------|--------|
B|--------|--------|--------|--------|--------|--------|--------|--------|--------|
G|--------|--------|--------|--------|--------|--------|--------|--------|--------|
D|--------|--------|--------|--------|--------|--------|--------|--------|--------|
A|--------|--------|--------|--------|--------|--------|--------|--------|--------|
E|--------|--------|--------|--------|--------|--------|--------|--------|--------|


E|--------|--------|--------|--------|--------|--------|--------|--------|--------|
B|--------|--------|--------|--------|--------|--------|--------|--------|--------|
G|--------|--------|--------|--------|--------|--------|--------|--------|--------|
D|--------|--------|--------|--------|--------|--------|--------|--------|--------|
A|--------|--------|--------|--------|--------|--------|--------|--------|--------|
E|--------|--------|--------|--------|--------|--------|--------|--------|--------|


E|--------|
B|--------|
G|--------|
D|--------|
A|--------|
E|--------|





Track 3: Distortion

E|--------|--------|--------|--------|--------|--------|--------|--------|--------|
B|--------|--------|--------|--------|--------|--------|--------|--------|--------|
G|--------|--------|--------|--------|--------|--------|--------|--------|--------|
D|--------|--------|--------|--------|--------|--------|--------|--------|--------|
A|--------|--------|--------|--------|--------|--------|--------|--------|--------|
E|--------|--------|--------|--------|--------|--------|--------|--------|--------|


E|--------|--------|--------|--------|--------|--------|--------|--------|--------|
B|--------|--------|--------|--------|--------|--------|--------|--------|--------|
G|--------|--------|--------|--------|--------|--------|--------|--------|--------|
D|--------|--------|--------|--------|--------|--------|--------|--------|--------|
A|--------|--------|--------|--------|--------|--------|--------|--------|--------|
E|--------|--------|--------|--------|--------|--------|--------|--------|--------|


E|--------|--------|--------|--------|--------|--------|------0----0---0---------0---|
B|--------|--------|--------|--------|--------|--------|------0----0---0---------0---|
G|--------|--------|--------|--------|--------|--------|------1----1---1---------1---|
D|--------|--------|--------|--------|--------|--------|------2----2---2---2--2--2---|
A|--------|--------|--------|--------|--------|--------|------2----2---2---2--2--2---|
E|--------|--------|--------|--------|--------|--------|-0---------------------------|


E|-0----0--------------------|---------------------------|-------2-----0---|-0----0-----------0---------0---|
B|-0----0--------------------|-------------5---------5---|-5-----4-----2---|-2----2-----------0---------0---|
G|-1----1--------------------|-------------4---------4---|-4-----4-----2---|-2----2-------------------------|
D|-2----2------------4-------|---------------------------|-------4-----2---|-2----2-------------------------|
A|-2----2------------4-------|-------4--4------4--4------|-------2-----0---|-0----0---0---0-------0--0------|
E|----------0---2----2----2--|-4-----4--4------4--4------|-----------------|--------------------------------|


E|-0----0-------2---------|---------------------------|-----------------------------------|
B|-2----0-------4---------|---------------------------|-----------------------------------|
G|--------------4---------|---------------------------|-----------------------------------|
D|--------------4---------|-7-----7---7--7--7---7--7--|-9-----9--9--9---------------------|
A|----------0---2---------|-4-----4---4--4--4---4--4--|-6-----6--6--6---4--2--0-----------|
E|------------------------|---------------------------|-------------0------------4--2--4--|


E|------0----------0-------0---|-0-------------------|---------------------------|
B|------0----------0-------0---|-0-------------------|-------------5---------5---|
G|-----------------1-------1---|-1-------------------|-------------4---------4---|
D|-----------------2-------2---|-2--------------4----|---------------------------|
A|-----------2--2------2-------|---------------------|-------4--4------4--4------|
E|-0---------0--0------0-------|-------0---2---------|-4-----4--4------4--4------|


E|-------2-----0---|-0----0---------------------------|-0---------------------2---2-------|
B|-5-----4-----2---|-2----2-------------5-------------|-0---------------------4---4-------|
G|-4-----4-----2---|-2----2-------2--4------4--2--1---|-----------------------4---4-------|
D|-------4-----2---|-2----2---------------------------|-----4---4--2----------4---4---2---|
A|-------2-----0---|-0----0---0-----------------------|---------------4---2---2---2---0---|
E|-----------------|----------------------------------|-----------------------------------|


E|-----------0---------0---------0---------|-2-------2-------2---2---2---2---|-------------0---0---------------|
B|-2---------2---------2---------2---------|-4-------4-------4---4---4---4---|---------------------0---0-------|
G|-2---------2---------2---------2---------|-4-------4-------4---4---4---4---|---------6-------------------6---|
D|-2---------2---------2---------2---------|-4-------4-------4---4---4---4---|-----6---------------------------|
A|-0---0--0--0---0--0--0---0--0--0---0--0--|-2---2---2---2---2---2---2---2---|-4-------------------------------|
E|-----------------------------------------|---------------------------------|---------------------------------|


E|---------------------------------|-------------0---0-----------9---|-9----9-----------------|
B|-------------0---------------0---|---------------------0-------9---|-9----9-----------------|
G|---------6---------------8-------|---------------------------------|------------------------|
D|-----6---------------9-----------|-----11------------------11------|--------------6----6----|
A|-4---------------6---------------|-9-------9---------------9-------|--------------6----6----|
E|---------------------------------|---------------------------------|--------------4----4----|


E|-4-------------------------|-----------------------0---------0---|-0------|-0------|
B|-5-----4---4---5---7---5---|-5---4--5--4--2--4--0--0---------2---|-2------|-2------|
G|-6-----6---6---------------|---------------------------4-----2---|-2------|-2------|
D|-6-----6---6---------------|---------------------------4-----2---|-2------|-2------|
A|-4-----4---4---------------|---------------------------2-----0---|-0------|-0------|
E|---------------------------|-------------------------------------|--------|--------|


E|--------|--------|--------|--------|--------|--------|--------|--------|--------|
B|--------|--------|--------|--------|--------|--------|--------|--------|--------|
G|--------|--------|--------|--------|--------|--------|--------|--------|--------|
D|--------|--------|--------|--------|--------|--------|--------|--------|--------|
A|--------|--------|--------|--------|--------|--------|--------|--------|--------|
E|--------|--------|--------|--------|--------|--------|--------|--------|--------|


E|--------|--------|--------|--------|--------|--------|--------|--------|--------|
B|--------|--------|--------|--------|--------|--------|--------|--------|--------|
G|--------|--------|--------|--------|--------|--------|--------|--------|--------|
D|--------|--------|--------|--------|--------|--------|--------|--------|--------|
A|--------|--------|--------|--------|--------|--------|--------|--------|--------|
E|--------|--------|--------|--------|--------|--------|--------|--------|--------|


E|--------|
B|--------|
G|--------|
D|--------|
A|--------|
E|--------|





Track 4: Electric (Clean)

E|--------|--------|--------|--------|--------|--------|--------|--------|--------|
B|--------|--------|--------|--------|--------|--------|--------|--------|--------|
G|--------|--------|--------|--------|--------|--------|--------|--------|--------|
D|--------|--------|--------|--------|--------|--------|--------|--------|--------|
A|--------|--------|--------|--------|--------|--------|--------|--------|--------|
E|--------|--------|--------|--------|--------|--------|--------|--------|--------|


E|--------|--------|--------|--------|--------|--------|--------|--------|--------|
B|--------|--------|--------|--------|--------|--------|--------|--------|--------|
G|--------|--------|--------|--------|--------|--------|--------|--------|--------|
D|--------|--------|--------|--------|--------|--------|--------|--------|--------|
A|--------|--------|--------|--------|--------|--------|--------|--------|--------|
E|--------|--------|--------|--------|--------|--------|--------|--------|--------|


E|--------|--------|--------|--------|--------|--------|--------|--------|--------|
B|--------|--------|--------|--------|--------|--------|--------|--------|--------|
G|--------|--------|--------|--------|--------|--------|--------|--------|--------|
D|--------|--------|--------|--------|--------|--------|--------|--------|--------|
A|--------|--------|--------|--------|--------|--------|--------|--------|--------|
E|--------|--------|--------|--------|--------|--------|--------|--------|--------|


E|--------|--------|--------|--------|--------|--------|--------|--------|--------|
B|--------|--------|--------|--------|--------|--------|--------|--------|--------|
G|--------|--------|--------|--------|--------|--------|--------|--------|--------|
D|--------|--------|--------|--------|--------|--------|--------|--------|--------|
A|--------|--------|--------|--------|--------|--------|--------|--------|--------|
E|--------|--------|--------|--------|--------|--------|--------|--------|--------|


E|--------|--------|--------|--------|--------|--------|--------|--------|--------|
B|--------|--------|--------|--------|--------|--------|--------|--------|--------|
G|--------|--------|--------|--------|--------|--------|--------|--------|--------|
D|--------|--------|--------|--------|--------|--------|--------|--------|--------|
A|--------|--------|--------|--------|--------|--------|--------|--------|--------|
E|--------|--------|--------|--------|--------|--------|--------|--------|--------|


E|--------|-------------|--------|--------|--------|--------|--------|--------|--------|
B|--------|-------------|--------|--------|--------|--------|--------|--------|--------|
G|--------|-------------|--------|--------|--------|--------|--------|--------|--------|
D|--------|-------------|--------|--------|--------|--------|--------|--------|--------|
A|--------|-------------|--------|--------|--------|--------|--------|--------|--------|
E|--------|-------------|--------|--------|--------|--------|--------|--------|--------|


E|--------|--------|--------|--------|--------|--------|--------|--------|--------|
B|--------|--------|--------|--------|--------|--------|--------|--------|--------|
G|--------|--------|--------|--------|--------|--------|--------|--------|--------|
D|--------|--------|--------|--------|--------|--------|--------|--------|--------|
A|--------|--------|--------|--------|--------|--------|--------|--------|--------|
E|--------|--------|--------|--------|--------|--------|--------|--------|--------|


E|--------|--------|--------|--------|
B|--------|--------|--------|--------|
G|--------|--------|--------|--------|
D|--------|--------|--------|--------|
A|--------|--------|--------|--------|
E|--------|--------|--------|--------|





Track 5: Strings

E|--------|--------|--------|--------|--------|--------|--------|--------|--------|
B|--------|--------|--------|--------|--------|--------|--------|--------|--------|
G|--------|--------|--------|--------|--------|--------|--------|--------|--------|
D|--------|--------|--------|--------|--------|--------|--------|--------|--------|
A|--------|--------|--------|--------|--------|--------|--------|--------|--------|
E|--------|--------|--------|--------|--------|--------|--------|--------|--------|


E|--------|--------|--------|--------|--------|--------|--------|--------|--------|
B|--------|--------|--------|--------|--------|--------|--------|--------|--------|
G|--------|--------|--------|--------|--------|--------|--------|--------|--------|
D|--------|--------|--------|--------|--------|--------|--------|--------|--------|
A|--------|--------|--------|--------|--------|--------|--------|--------|--------|
E|--------|--------|--------|--------|--------|--------|--------|--------|--------|


E|--------|--------|--------|--------|--------|--------|--------|--------|--------|
B|--------|--------|--------|--------|--------|--------|--------|--------|--------|
G|--------|--------|--------|--------|--------|--------|--------|--------|--------|
D|--------|--------|--------|--------|--------|--------|--------|--------|--------|
A|--------|--------|--------|--------|--------|--------|--------|--------|--------|
E|--------|--------|--------|--------|--------|--------|--------|--------|--------|


E|--------|--------|--------|--------|--------|--------|--------|--------|--------|
B|--------|--------|--------|--------|--------|--------|--------|--------|--------|
G|--------|--------|--------|--------|--------|--------|--------|--------|--------|
D|--------|--------|--------|--------|--------|--------|--------|--------|--------|
A|--------|--------|--------|--------|--------|--------|--------|--------|--------|
E|--------|--------|--------|--------|--------|--------|--------|--------|--------|


E|--------|--------|--------|--------|--------|--------|--------|--------|--------|
B|--------|--------|--------|--------|--------|--------|--------|--------|--------|
G|--------|--------|--------|--------|--------|--------|--------|--------|--------|
D|--------|--------|--------|--------|--------|--------|--------|--------|--------|
A|--------|--------|--------|--------|--------|--------|--------|--------|--------|
E|--------|--------|--------|--------|--------|--------|--------|--------|--------|


E|--------|------12--11--12--14--12--11--|-12--14--12--11--12--12--12--12--|--------|
B|--------|------------------------------|---------------------------------|--------|
G|--------|------9---8---9---11--9---8---|-9---11--9---8---9---9---9---9---|--------|
D|--------|------------------------------|---------------------------------|--------|
A|--------|------------------------------|---------------------------------|--------|
E|--------|------------------------------|---------------------------------|--------|


E|--------|--------|--------|--------|--------|--------|--------|--------|--------|
B|--------|--------|--------|--------|--------|--------|--------|--------|--------|
G|--------|--------|--------|--------|--------|--------|--------|--------|--------|
D|--------|--------|--------|--------|--------|--------|--------|--------|--------|
A|--------|--------|--------|--------|--------|--------|--------|--------|--------|
E|--------|--------|--------|--------|--------|--------|--------|--------|--------|


E|--------|--------|--------|--------|--------|--------|--------|--------|--------|
B|--------|--------|--------|--------|--------|--------|--------|--------|--------|
G|--------|--------|--------|--------|--------|--------|--------|--------|--------|
D|--------|--------|--------|--------|--------|--------|--------|--------|--------|
A|--------|--------|--------|--------|--------|--------|--------|--------|--------|
E|--------|--------|--------|--------|--------|--------|--------|--------|--------|





Track 6: Solo Guitar

E|--------|--------|--------|--------|--------|--------|--------|--------|--------|
B|--------|--------|--------|--------|--------|--------|--------|--------|--------|
G|--------|--------|--------|--------|--------|--------|--------|--------|--------|
D|--------|--------|--------|--------|--------|--------|--------|--------|--------|
A|--------|--------|--------|--------|--------|--------|--------|--------|--------|
E|--------|--------|--------|--------|--------|--------|--------|--------|--------|


E|--------|--------|--------|--------|--------|--------|--------|--------|--------|
B|--------|--------|--------|--------|--------|--------|--------|--------|--------|
G|--------|--------|--------|--------|--------|--------|--------|--------|--------|
D|--------|--------|--------|--------|--------|--------|--------|--------|--------|
A|--------|--------|--------|--------|--------|--------|--------|--------|--------|
E|--------|--------|--------|--------|--------|--------|--------|--------|--------|


E|--------|--------|--------|--------|--------|--------|--------|--------|--------|
B|--------|--------|--------|--------|--------|--------|--------|--------|--------|
G|--------|--------|--------|--------|--------|--------|--------|--------|--------|
D|--------|--------|--------|--------|--------|--------|--------|--------|--------|
A|--------|--------|--------|--------|--------|--------|--------|--------|--------|
E|--------|--------|--------|--------|--------|--------|--------|--------|--------|


E|--------|--------|--------|--------|--------|--------|--------|--------|--------|
B|--------|--------|--------|--------|--------|--------|--------|--------|--------|
G|--------|--------|--------|--------|--------|--------|--------|--------|--------|
D|--------|--------|--------|--------|--------|--------|--------|--------|--------|
A|--------|--------|--------|--------|--------|--------|--------|--------|--------|
E|--------|--------|--------|--------|--------|--------|--------|--------|--------|


E|--------|--------|--------|--------|--------|--------|--------|--------|--------|
B|--------|--------|--------|--------|--------|--------|--------|--------|--------|
G|--------|--------|--------|--------|--------|--------|--------|--------|--------|
D|--------|--------|--------|--------|--------|--------|--------|--------|--------|
A|--------|--------|--------|--------|--------|--------|--------|--------|--------|
E|--------|--------|--------|--------|--------|--------|--------|--------|--------|


E|--------|--------|--------|--------------------------------|------------------------|
B|--------|--------|--------|------12---12--9----------------|--------------12---12---|
G|--------|--------|--------|------------------11-9------9---|-9----11--9-------------|
D|--------|--------|--------|------------------------11------|------------------------|
A|--------|--------|--------|--------------------------------|------------------------|
E|--------|--------|--------|-0------------------------------|------------------------|


E|-----------------------------------|-----------------------------|------------------------------|
B|-12--12-12-10--9---9---10--12--10--|-10----10--10---10-10-9------|-9---10--9---9----------------|
G|-----------------------------------|-------------------------11--|-----------------11--9---9----|
D|-----------------------------------|-----------------------------|------------------------------|
A|-----------------------------------|-----------------------------|------------------------------|
E|-----------------------------------|-----------------------------|------------------------------|


E|--------------------------------------|-----------------------------|---------------------------------|
B|----------------14--------------------|---------------------14--17--|-17--16--14-----------------19---|
G|-9---14----16------16-13----13-14-----|-----------11-13-16----------|-------------16--16--16-16-------|
D|--------16---------------16-------11--|-11----14--------------------|---------------------------------|
A|--------------------------------------|-----------------------------|---------------------------------|
E|--------------------------------------|-----------------------------|---------------------------------|


E|------19-------------------|-----16--17--19--19----|-19------19--16--16--------------|
B|-19------19---19---19--19--|-19--------------------|-----17--------------17------19--|
G|---------------------------|-----------------------|---------------------------------|
D|---------------------------|-----------------------|-------------------------16------|
A|---------------------------|-----------------------|---------------------------------|
E|---------------------------|-----------------------|---------------------------------|


E|------------------------------|-----------------------------|-------------------------------------|
B|-17--17----------16---16--16--|-16---14---14----9---9---10--|-7---7---7--9--7---------------------|
G|---------16-------------------|-----------------------------|------------------9---9----9---5-----|
D|-------------19---------------|-----------------------------|-------------------------------------|
A|------------------------------|-----------------------------|-------------------------------------|
E|------------------------------|-----------------------------|-------------------------------------|


E|-------------------------------|------------------------------|--------------3-----------------|
B|-------------------------------|-----8---7--------------------|------------------3-------------|
G|------------5---5----7--7--7---|-7-----------7----------------|-5----5---------------5--5--3---|
D|-5----5--5-----------7--7--7---|-7---------------7----7-------|-5----5---------------5--5--1---|
A|-3----3--3-----------5--5--5---|-5-----------------------10---|-5------------------------------|
E|-------------------------------|------------------------------|-3--------3---------------------|


E|------------------|--------------------|
B|------------------|--------------------|
G|-3------3---3--3--|--------------------|
D|-1------1---1--1--|-5---5--------------|
A|------------1--1--|-5---5--------------|
E|------------------|-3---3--------------|





Track 7: Untitled

B|--------|--------|--------|--------|--------|--------|--------|--------|--------|
G|--------|--------|--------|--------|--------|--------|--------|--------|--------|
D|--------|--------|--------|--------|--------|--------|--------|--------|--------|
A|--------|--------|--------|--------|--------|--------|--------|--------|--------|
E|--------|--------|--------|--------|--------|--------|--------|--------|-0------|
B|--------|--------|--------|--------|--------|--------|--------|--------|--------|


B|-------------|--------|-------------|--------|-------------|-------------|---------------------------------|
G|-------------|--------|-------------|--------|-------------|-------------|---------------------------------|
D|-------------|--------|-------------|--------|-------------|-------------|---------------------------------|
A|-------------|--------|-------2-----|-0------|-0-----2-----|-4------4----|-6---6---6---6---6---6---6---6---|
E|-0-----2-----|-4------|-4-----------|--------|-------------|-------------|---------------------------------|
B|-------------|--------|-------------|--------|-------------|-------------|---------------------------------|


B|---------------------------------|---------------------------------|---------------------------------|
G|---------------------------------|---------------------------------|---------------------------------|
D|---------------------------------|---------------------------------|---------------------------------|
A|---------------------------------|---------------------------------|---------------------------------|
E|-0---0---0---0---0---0---0---0---|-0---0---0---0---2---2---2---2---|-4---4---4---4---4---4---4---4---|
B|---------------------------------|---------------------------------|---------------------------------|


B|---------------------------------|---------------------------------|---------------------------------|
G|---------------------------------|---------------------------------|---------------------------------|
D|---------------------------------|---------------------------------|---------------------------------|
A|-----------------2---2---2---2---|-0---0---0---0---0---0---0---0---|-0---0---0---0---2---2---2---2---|
E|-4---4---4---4-------------------|---------------------------------|---------------------------------|
B|---------------------------------|---------------------------------|---------------------------------|


B|---------------------------------|---------------------------------|--------------------------------|
G|---------------------------------|---------------------------------|--------------------------------|
D|---------------------------------|---------------------------------|----------------------2--2------|
A|-4---4---4---4---4---4---4---4---|-6---6---6---6---6---6---6---6---|--------------------------------|
E|---------------------------------|---------------------------------|-0----0---0---0---0---------0---|
B|---------------------------------|---------------------------------|--------------------------------|


B|-----------------------------|-------------------------|----------------------------|
G|-----------------------------|-------------------------|----------------------------|
D|------2--2-------------------|-------------6-------4---|-6--6-----------------------|
A|-----------------------------|-------------------------|----------------------------|
E|-0----------0---2----2---2---|-4-----4--4------4-------|-------4---4----7-----5--7--|
B|-----------------------------|-------------------------|----------------------------|


B|------------------------------|--------------------------------|---------------------------------|
G|------------------------------|--------------------------------|---------------------------------|
D|------------------7---7---6---|-7--7--6---7------------9-------|---------11--------------11------|
A|------------------------------|--------------------------------|---------------------------------|
E|-5----5-----------------------|---------------5---7--------7---|-9---9-------9---9---9-------9---|
B|------------------------------|--------------------------------|---------------------------------|


B|---------------------------------------|------------------------------|-----------------------------|
G|---------------------------------------|------------------------------|-----------------------------|
D|---------------------------------------|------------------2---2-------|------2--2-------------------|
A|---------------------------------------|------------------------------|-----------------------------|
E|-11--11--11--11--11--9--7--------------|-0----0---0---0-----------0---|-0----------0---2----2---2---|
B|---------------------------10-9--7--9--|------------------------------|-----------------------------|


B|-------------------------------|-------------------------------------|------------------------------|
G|-------------------------------|-------------------------------------|------------------------------|
D|-------6--6--6-----6---6---4---|-6--6------6-------------------------|----------7-------7---7---6---|
A|-------------------------------|-------------------------------------|------------------------------|
E|-4-----------------------------|-------4-------4---7---7---7---5--7--|-5----5-------5---------------|
B|-------------------------------|-------------------------------------|------------------------------|


B|--------------------------------|---------------------------------|---------------------------------|
G|--------------------------------|---------------------------------|---------------------------------|
D|-7--7--6---7--------------------|---------------------------------|---------------------------------|
A|--------------------------------|---------------------------------|---------------------------------|
E|---------------5---7----7---7---|-5---5---5---5---5---5---5---5---|-7---7---7---7---7---7---7---7---|
B|--------------------------------|---------------------------------|---------------------------------|


B|---------------------------------|---------------------------------|---------------------------------|
G|---------------------------------|---------------------------------|---------------------------------|
D|---------------------------------|---------------------------------|-4---4---4---4---4---4---4---4---|
A|-4---4---4---4---4---4---4---4---|-4---4---4---4---6---6---6---6---|---------------------------------|
E|---------------------------------|---------------------------------|---------------------------------|
B|---------------------------------|---------------------------------|---------------------------------|


B|---------------------------|---------------------------------|---------------------------------|
G|---------------------------|---------------------------------|---------------------------------|
D|-4---4---4---4---6----6----|---------------------------------|-----------------------------2---|
A|---------------------------|---------------------------------|-----------------2---2---2-------|
E|---------------------------|---------------------------------|---------------------------------|
B|---------------------------|-2---2---2---2---2---2---2---2---|-2---2---2---2-------------------|


B|-----------------|--------|------------------------------|-----------------------------|
G|-----------------|--------|------------------------------|-----------------------------|
D|-2-----2---2-----|-2------|------------------2---2-------|------2--2-------------------|
A|-----------------|--------|------------------------------|-----------------------------|
E|-----------------|--------|-0----0---0---0-----------0---|-0----------0---2----2---2---|
B|-----------------|--------|------------------------------|-----------------------------|


B|---------------------------------|---------------------------------|---------------------------------|
G|---------------------------------|---------------------------------|---------------------------------|
D|-------------6---6---6---6---4---|-6---------------------------9---|-------------7---7---7---7---6---|
A|---------------------------------|---------------------------------|---------------------------------|
E|-4---4---4-----------------------|-----4---4---4---7---7---7-------|-5---5---5-----------------------|
B|---------------------------------|---------------------------------|---------------------------------|


B|--------------------------------|---------------------------------|---------------------------------|
G|--------------------------------|---------------------------------|---------------------------------|
D|-7--7--6---7--------------------|---------------------------------|---------------------------------|
A|--------------------------------|---------------------------------|---------------------------------|
E|---------------5---7----7---7---|-9---9---9---9---9---9---9---9---|-11--11--11--11--11--11--11--11--|
B|--------------------------------|---------------------------------|---------------------------------|


B|---------------------------|-----------------------------|------------------------------|
G|---------------------------|-----------------------------|------------------------------|
D|---------------2---2-------|------2--2-------------------|----------6---6---6---6---4---|
A|---------------------------|-----------------------------|------------------------------|
E|-0----0----0-----------0---|-0----------0---2----2---2---|-4----4-----------------------|
B|---------------------------|-----------------------------|------------------------------|


B|-------------------------------------------|------------------------------|--------------------------------|
G|-------------------------------------------|------------------------------|--------------------------------|
D|-6--6--4---6-------------------------------|----------7---7---7---7---6---|-7--7--6---7--------------------|
A|-------------------------------------------|------------------------------|--------------------------------|
E|---------------4---7--7--7--7--7--7--7--5--|-5----5-----------------------|---------------5---7----7---7---|
B|-------------------------------------------|------------------------------|--------------------------------|


B|---------------------------------|---------------------------------|--------|--------|
G|---------------------------------|---------------------------------|--------|--------|
D|---------------------------------|---------------------------------|--------|--------|
A|-3---3---3---3---3---3---3---3---|-5---5---5---5---5---5---5---5---|--------|--------|
E|---------------------------------|---------------------------------|-3------|-3------|
B|---------------------------------|---------------------------------|--------|--------|


B|--------------------|
G|--------------------|
D|--------------------|
A|--------------------|
E|-3---3--------------|
B|--------------------|