Menu:

 

Search:

 

dream theater - another day:

 



Title: Another Day
Artist: 
Album: Images and Words
Author: John Petrucci, John Myung, Kevin Moore & Mike Portnoy with Sax by Jay Beckenstein


Track 1: Acoustic Guitar + Elec. w/clean tone arranged for one Electric Guitar

E|-----------------------------------|-----------------------------------|-----------------------------------|
B|-0--------------0------------------|-0--------------0------------------|-0--------------0------------------|
G|------3----------------3-----------|------3----------------3---3-------|------3----------------3-----------|
D|------------4--------------4-------|------------4------------------4---|------------4--------------4-------|
A|-----------------------------------|----------------4--4---------------|-----------------------------------|
E|-4-------4------2--2-----------2---|-0-------0-----------------2-------|-4-------4------2--2-----------2---|


E|-----------------------------------|--------|--------|--------|--------|--------|
B|-0--------------0------------------|--------|--------|--------|--------|--------|
G|------3----------------3---3-------|--------|--------|--------|--------|--------|
D|------------4------------------4---|--------|--------|--------|--------|--------|
A|----------------4--4---------------|--------|--------|--------|--------|--------|
E|-0-------0-----------------2-------|--------|--------|--------|--------|--------|


E|--------|--------|--------|--------|--------|--------|--------|----------------------0--------|
B|--------|--------|--------|--------|--------|--------|--------|----------------0--------0-----|
G|--------|--------|--------|--------|--------|--------|--------|-------------6--------------6--|
D|--------|--------|--------|--------|--------|--------|--------|----------6--------6-----------|
A|--------|--------|--------|--------|--------|--------|--------|-------4-----------------------|
E|--------|--------|--------|--------|--------|--------|--------|-------------------------------|


E|----------------0-----------------------0--------|----------0-----------------------------0--------|
B|----------0--------0--------------0--------0-----|-------------0--------------------0--------0-----|
G|-------8--------------8--------9--------------9--|----------------8--------------6--------------6--|
D|----9--------9--------------9--------9-----------|-------9-----------9--------6--------6-----------|
A|-6-----------------------7-----------------------|----9-----------------9--4-----------------------|
E|-------------------------------------------------|-7-----------------------------------------------|


E|----------------0-----------------------0--------|-------------------------------------------------|
B|----------0--------0--------------0--------0-----|----------0--0--------------------0--0-----------|
G|-------8--------------8--------9--------------9--|----------------3--------------3--------3--------|
D|----9--------9--------------9--------9-----------|-------4-----------4--------4--------------4-----|
A|-6-----------------------7-----------------------|----4-----------------4--------------------------|
E|-------------------------------------------------|-2-----------------------4-----------4--------2--|


E|-----------------------------------------------|-----------------------------------------------|
B|----------0--0------------------0--0-----------|----------0--0------------------0--0-----------|
G|-------3--------3------------3--------3--------|-------3--------3------------3--------3--------|
D|-4--4--------------4---4--4--------------4-----|-4--4--------------4---4--4--------------4-----|
A|--------------------------------------------4--|-4---------------------------------------------|
E|-2---------------------0-----------0-----------|-------------2---------4-----------4--------2--|


E|-----------------------------------0----0--|-0---------------------------|----------------4--4---------|
B|----------0--0------------------0-------0--|-0--------------------4---5--|-5--------------------4------|
G|-------3--------3------------6----------9--|-9--------------4--4------4--|-4---------------------------|
D|-4--4--------------4------6-------------9--|-9-----------8------------2--|-2-----------6------------4--|
A|-----------------------4-----------4----7--|-7--------6---------------4--|-4--------6---------------2--|
E|-2--------------------------------------0--|-0-----4---------------------|-------4---------------------|


E|----------------------------------0---0-----------|----------0--0-----------0----0---0---|
B|----4---------------------------7--------7--------|-------------------0-----0----0---0---|
G|-------4--------------3-------9-------------9-----|-------8--------8-----8--6----6---3---|
D|-4--------4--------4--------9---------------------|----9--------------------7----7---4---|
A|-2--------------4---------------------------------|-9-----------------------7----7---4---|
E|-------------2-----------0---------------------7--|-------------------------5----5---2---|


E|-0----0--------------------------|----------------4--4---------|----------------------------------0---0-----------|
B|-0----0-------------------4---5--|-5--------------------4------|----4---------------------------7--------7--------|
G|-3----3-------------4--4------4--|-4---------------------------|-------4--------------3-------9-------------9-----|
D|-4----4----------8------------2--|-2-----------6------------4--|-4--------4--------4--------9---------------------|
A|-4----4-------6---------------4--|-4--------6---------------2--|-2--------------4---------------------------------|
E|-2----0----4---------------------|-------4---------------------|-------------2-----------0---------------------7--|


E|----------0--0-----------0-----|----------------------0--------|----------------0-----------------------0--------|
B|-------------------0-----0-----|-5--------------0--------0-----|----------0--------0--------------0--------0-----|
G|-------8--------8-----8--6-----|-4-----------6--------------6--|-------8--------------8--------9--------------9--|
D|----9--------------------7-----|-2--------6--------6-----------|----9--------9--------------9--------9-----------|
A|-9-----------------------7-----|-------4-----------------------|-6-----------------------7-----------------------|
E|-------------------------5-----|-4-----------------------------|-------------------------------------------------|


E|----------0-----------------------------0--------|----------------0-----------------------0--------|
B|-------------0--------------------0--------0-----|----------0--------0--------------0--------0-----|
G|----------------8--------------6--------------6--|-------8--------------8--------9--------------9--|
D|-------9-----------9--------6--------6-----------|----9--------9--------------9--------9-----------|
A|----9-----------------9--4-----------------------|-6-----------------------7-----------------------|
E|-7-----------------------------------------------|-------------------------------------------------|


E|-----------------------|-0-------------------------------|-0-------------------------------|
B|---------------4-------|---------4---------------4-------|---------4---------------4-------|
G|-----------4-------4---|-----4-------4-------4-------4---|-----4-------4-------4-------4---|
D|-----------------------|---------------------------------|---------------------------------|
A|-------2---------------|-----------------0---------------|---------------------------------|
E|-----------------------|---------------------------------|-----------------4---------------|


E|-0---------------------------0---|-------------0-------------------|-0-------------------------------|
B|---------4---------------4-------|---------4---------------4-------|---------4---------------4-------|
G|-----4-------4-------4-----------|-----4---------------4-------4---|-----4-------4-------4-------4---|
D|---------------------------------|---------------------------------|---------------------------------|
A|---------------------------------|-----------------2---------------|-----------------0---------------|
E|-----------------2---------------|-0-------------------------------|---------------------------------|


E|-0-------------------------------|-0---------------------------0---|-------------0-------------------|
B|---------4---------------4-------|---------4---------------4-------|---------4-------------------3---|
G|-----4-------4-------4-------4---|-----4-------4-------4-----------|-----4-------------------0-------|
D|---------------------------------|---------------------------------|---------------------0-----------|
A|---------------------------------|---------------------------------|---------------------------------|
E|-----------------4---------------|-----------------2---------------|-0---------------3---------------|


E|---------------------------------|-0-------------------------------|-0-------------------------------|
B|-----3-----------------------1---|---------1-------------------3---|---------3-----------------------|
G|-2-------0---------------0-------|-----0-------0-----------2-------|-----2-------2---------------0---|
D|-------------0-------2-----------|---------------------0-----------|-------------------------4-------|
A|-----------------3---------------|---------------------------------|---------------------7-----------|
E|---------------------------------|-----------------2---------------|-----------------0---------------|


E|---------------------------------|-0-----------|-------------|--------|--------|
B|-------------0---------------3---|-------5-----|-4-----------|--------|--------|
G|---------0---------------0-------|-------4-----|-4-----------|--------|--------|
D|-----4---------------4-----------|-------2-----|-4-----------|--------|--------|
A|-5---------------3---------------|-------2-----|-2-----------|--------|--------|
E|---------------------------------|-------------|-------------|--------|--------|


E|--------|--------|--------|--------|--------|--------|--------|----------------------0--------|
B|--------|--------|--------|--------|--------|--------|--------|----------------0--------0-----|
G|--------|--------|--------|--------|--------|--------|--------|-------------6--------------6--|
D|--------|--------|--------|--------|--------|--------|--------|----------6--------6-----------|
A|--------|--------|--------|--------|--------|--------|--------|-------4-----------------------|
E|--------|--------|--------|--------|--------|--------|--------|-------------------------------|


E|----------------0-----------------------0--------|----------0-----------------------------0--------|
B|----------0--------0--------------0--------0-----|-------------0--------------------0--------0-----|
G|-------8--------------8--------9--------------9--|----------------8--------------6--------------6--|
D|----9--------9--------------9--------9-----------|-------9-----------9--------6--------6-----------|
A|-6-----------------------7-----------------------|----9-----------------9--4-----------------------|
E|-------------------------------------------------|-7-----------------------------------------------|


E|----------------0-----------------------0--------|-0-----0-----|-------------------------|
B|----------0--------0--------------0--------0-----|-0-----0-----|-------0--------------0--|
G|-------8--------------8--------9--------------9--|-3-----3-----|------------3--3---------|
D|----9--------9--------------9--------9-----------|-4-----4-----|------------------4------|
A|-6-----------------------7-----------------------|-4-----4-----|-------------------------|
E|-------------------------------------------------|-2-----2-----|-------4-------4------2--|


E|-----------------------------------|-----------------------------------|-----------------------------------|
B|-0---------------0--------------0--|-0---------------0--------------0--|-0---------------0--------------0--|
G|-----3----------------3--3---------|-----3---3------------3--3---------|-----3----------------3--3---------|
D|---------4------------------4------|-------------4--------------4------|---------4------------------4------|
A|--------------------------------4--|-4---------------------------------|--------------------------------4--|
E|-2-----------2---0-------0---------|---------2-------4-------4------2--|-2-----------2---0-------0---------|


E|-----------------------------------|-----------------------------------|-----------------------------------|
B|-0---------------0--------------0--|-0---------------0--------------0--|-0---------------0--------------0--|
G|-----3---3------------3--3---------|-----3----------------3--3---------|-----3---3------------3--3---------|
D|-------------4--------------4------|---------4------------------4------|-------------4--------------4------|
A|-4---------------------------------|--------------------------------4--|-4---------------------------------|
E|---------2-------4-------4------2--|-2-----------2---0-------0---------|---------2-------4-------4------2--|


E|-----------------------------------|-----------------0-----|-----------------|-----------------|
B|-0---------------0--------------0--|-0---------------4-----|-----------------|-----4-----------|
G|-----3----------------3--3---------|-----3---3-------4-----|-------------4---|-----------------|
D|---------4------------------4------|-------------4---4-----|-----------------|-----------------|
A|--------------------------------4--|-4---------------2-----|-----------------|-----------------|
E|-2-----------2---0-------0---------|---------2-------0-----|-----------------|-----------------|





Track 2: Elec. w/dist.

E|--------|--------|--------|--------|----------------------|---------------------------------------|
B|--------|--------|--------|--------|-12---11--9-----------|---------------------------------------|
G|--------|--------|--------|--------|-------------8--8-----|-8-------4--8--6--6---4--3--3---4-6-4--|
D|--------|--------|--------|--------|----------------------|------6--------------------------------|
A|--------|--------|--------|--------|----------------------|---------------------------------------|
E|--------|--------|--------|--------|----------------------|---------------------------------------|


E|------------------------------|---------------14-14----|-14----------|-------------|
B|---------------------------9--|-9----9--11-12----------|-------------|-------------|
G|-4-----6--3--3----3-----11----|------------------------|-------------|-------------|
D|---------------------9--------|------------------------|-------------|-------------|
A|------------------------------|------------------------|-------------|-------------|
E|------------------------------|------------------------|-------------|-------------|


E|-------------|-------------|---------------------------|---------------------|---------------------|
B|-------------|-------------|---------------------------|---------------------|---------------------|
G|-------------|-------------|-4-------6-------8---------|-9---------8---------|-6---------4---------|
D|-------------|-------------|---------------------------|---------------------|---------------------|
A|-------------|-------------|---------------------------|---------------------|---------------------|
E|-------------|-------------|---------------------------|---------------------|---------------------|


E|---------------------|-----------------|--------|--------|--------|--------|--------|
B|-7---------5---------|-----------------|--------|--------|--------|--------|--------|
G|---------------------|-4---------------|--------|--------|--------|--------|--------|
D|---------------------|-----------------|--------|--------|--------|--------|--------|
A|---------------------|-----------------|--------|--------|--------|--------|--------|
E|---------------------|-----------------|--------|--------|--------|--------|--------|


E|--------|--------|--------|--------|--------|--------|--------|--------|--------|
B|--------|--------|--------|--------|--------|--------|--------|--------|--------|
G|--------|--------|--------|--------|--------|--------|--------|--------|--------|
D|--------|--------|--------|--------|--------|--------|--------|--------|--------|
A|--------|--------|--------|--------|--------|--------|--------|--------|--------|
E|--------|--------|--------|--------|--------|--------|--------|--------|--------|


E|--------|--------|--------|--------|--------|--------|--------|--------|--------|
B|--------|--------|--------|--------|--------|--------|--------|--------|--------|
G|--------|--------|--------|--------|--------|--------|--------|--------|--------|
D|--------|--------|--------|--------|--------|--------|--------|--------|--------|
A|--------|--------|--------|--------|--------|--------|--------|--------|--------|
E|--------|--------|--------|--------|--------|--------|--------|--------|--------|


E|--------|--------|--------|--------|--------|--------|--------|--------|--------|
B|--------|--------|--------|--------|--------|--------|--------|--------|--------|
G|--------|--------|--------|--------|--------|--------|--------|--------|--------|
D|--------|--------|--------|--------|--------|--------|--------|--------|--------|
A|--------|--------|--------|--------|--------|--------|--------|--------|--------|
E|--------|--------|--------|--------|--------|--------|--------|--------|--------|


E|--------|----------------------------------|----------------------------0----0---0---0---|
B|--------|----------------------------------|----------------------------0----0---0---0---|
G|--------|----------------------------------|----------------------------3----3---3---3---|
D|--------|----------------------------------|----------------------------4----4---4---4---|
A|--------|---------------5--7-----7---5-----|---------5--7-----7---5-----4----4---4---4---|
E|--------|-------0----7------------------7--|-0----7------------------7--2----2---2---2---|


E|-0------------------|--------|--------|--------|--------|--------|--------|--------|
B|-0------------------|--------|--------|--------|--------|--------|--------|--------|
G|-3------------------|--------|--------|--------|--------|--------|--------|--------|
D|-4------------------|--------|--------|--------|--------|--------|--------|--------|
A|-4------------------|--------|--------|--------|--------|--------|--------|--------|
E|-2------------------|--------|--------|--------|--------|--------|--------|--------|


E|--------|--------|--------|--------|--------|--------|--------|--------|--------|
B|--------|--------|--------|--------|--------|--------|--------|--------|--------|
G|--------|--------|--------|--------|--------|--------|--------|--------|--------|
D|--------|--------|--------|--------|--------|--------|--------|--------|--------|
A|--------|--------|--------|--------|--------|--------|--------|--------|--------|
E|--------|--------|--------|--------|--------|--------|--------|--------|--------|


E|--------|--------|--------|--------|--------|--------|--------|
B|--------|--------|--------|--------|--------|--------|--------|
G|--------|--------|--------|--------|--------|--------|--------|
D|--------|--------|--------|--------|--------|--------|--------|
A|--------|--------|--------|--------|--------|--------|--------|
E|--------|--------|--------|--------|--------|--------|--------|





Track 3: Saxaphone

E|--------|--------|--------|--------|--------|--------|--------|--------|--------|
B|--------|--------|--------|--------|--------|--------|--------|--------|--------|
G|--------|--------|--------|--------|--------|--------|--------|--------|--------|
D|--------|--------|--------|--------|--------|--------|--------|--------|--------|
A|--------|--------|--------|--------|--------|--------|--------|--------|--------|
E|--------|--------|--------|--------|--------|--------|--------|--------|--------|


E|--------|--------|--------|--------|--------|--------|--------|--------|--------|
B|--------|--------|--------|--------|--------|--------|--------|--------|--------|
G|--------|--------|--------|--------|--------|--------|--------|--------|--------|
D|--------|--------|--------|--------|--------|--------|--------|--------|--------|
A|--------|--------|--------|--------|--------|--------|--------|--------|--------|
E|--------|--------|--------|--------|--------|--------|--------|--------|--------|


E|--------|--------|-------19---18--16----|------------------------|---------------------------------|
B|--------|--------|-------------------16-|-16------------12-16-14-|-14--12-11-11--14-12-12----14-11-|
G|--------|--------|----------------------|------------13----------|---------------------------------|
D|--------|--------|----------------------|------------------------|---------------------------------|
A|--------|--------|----------------------|------------------------|---------------------------------|
E|--------|--------|----------------------|------------------------|---------------------------------|


E|--------------------------------14-|-14----------|-------------|-------------|-------------|
B|-11---11-12---------------11-12----|-------------|-------------|-------------|-------------|
G|------------11-13-13---13----------|-------------|-------------|-------------|-------------|
D|-----------------------------------|-------------|-------------|-------------|-------------|
A|-----------------------------------|-------------|-------------|-------------|-------------|
E|-----------------------------------|-------------|-------------|-------------|-------------|


E|-17-19-------------------------|-------------|-------------|-------------|--------|
B|-------19-19-17-17-16----------|-------------|-------------|-------------|--------|
G|----------------------16-16----|-------------|-------------|-------------|--------|
D|-------------------------------|-------------|-------------|-------------|--------|
A|-------------------------------|-------------|-------------|-------------|--------|
E|-------------------------------|-------------|-------------|-------------|--------|


E|--------|--------|--------|--------|--------|--------|--------|--------|--------|
B|--------|--------|--------|--------|--------|--------|--------|--------|--------|
G|--------|--------|--------|--------|--------|--------|--------|--------|--------|
D|--------|--------|--------|--------|--------|--------|--------|--------|--------|
A|--------|--------|--------|--------|--------|--------|--------|--------|--------|
E|--------|--------|--------|--------|--------|--------|--------|--------|--------|


E|--------|--------|--------|--------|--------|--------|--------|--------|--------|
B|--------|--------|--------|--------|--------|--------|--------|--------|--------|
G|--------|--------|--------|--------|--------|--------|--------|--------|--------|
D|--------|--------|--------|--------|--------|--------|--------|--------|--------|
A|--------|--------|--------|--------|--------|--------|--------|--------|--------|
E|--------|--------|--------|--------|--------|--------|--------|--------|--------|


E|--------|--------|--------|--------|--------|--------|--------|--------|--------|
B|--------|--------|--------|--------|--------|--------|--------|--------|--------|
G|--------|--------|--------|--------|--------|--------|--------|--------|--------|
D|--------|--------|--------|--------|--------|--------|--------|--------|--------|
A|--------|--------|--------|--------|--------|--------|--------|--------|--------|
E|--------|--------|--------|--------|--------|--------|--------|--------|--------|


E|--------|--------|--------|--------|--------|-------------|------------------------------------|
B|--------|--------|--------|--------|--------|-------17----|------16----------------------------|
G|--------|--------|--------|--------|--------|-------------|----------18--16---15----1615-------|
D|--------|--------|--------|--------|--------|-------------|-----------------------------1818---|
A|--------|--------|--------|--------|--------|-------------|------------------------------------|
E|--------|--------|--------|--------|--------|-------------|------------------------------------|


E|-----------------------------|--------------------------------------------|----19--18-18-------18-18-1918------------------|
B|-----------------------------|-----19----------1716------19----16-16------|--------------19-19-----------21-21-2121--19--19|
G|----------------------16-20--|-18------18--20-------18------18------------|------------------------------------------------|
D|-------------------18--------|--------------------------------------------|------------------------------------------------|
A|-----------------------------|--------------------------------------------|------------------------------------------------|
E|-----------------------------|--------------------------------------------|------------------------------------------------|


E|----------------------------------------------|-------------------------------------------|
B|-19-19-16-16-161716---------------------------|-------------------------------------------|
G|--------------------18-----------16-20--18-18-|-16-16-15-15--------15-161515--------------|
D|------------------------------18--------------|-------------16-16------------18---18------|
A|----------------------------------------------|-------------------------------------------|
E|----------------------------------------------|-------------------------------------------|


E|------------------------161916----16------------------------------------------------|
B|----------------------16------1916--1916--1916--------------------------------------|
G|------------------1618------------------18----1816------16--------16--------16------|
D|----1816------1618--------------------------------1816----1816------1816------1816--|
A|--------181618----------------------------------------19------1916------1816------18|
E|------------------------------------------------------------------------------------|


E|---------------------------------------------------------|-----------------------------------------|
B|---------------------------------------------------------|----------------------19-19--------------|
G|---16------16------16------16-------16-------------------|----------15-16-18-20--------20-----20---|
D|-----1816----1816----1816----1816-----1816--16---16---13-|-14-16-18--------------------------------|
A|-16------18------18------18------18-------18-------------|-----------------------------------------|
E|---------------------------------------------------------|-----------------------------------------|


E|-------------|
B|-------------|
G|-20----------|
D|-------------|
A|-------------|
E|-------------|





Track 4: Elec. w/dist.

E|--------|--------|--------|--------|--------|--------|--------|--------|--------|
B|--------|--------|--------|--------|--------|--------|--------|--------|--------|
G|--------|--------|--------|--------|--------|--------|--------|--------|--------|
D|--------|--------|--------|--------|--------|--------|--------|--------|--------|
A|--------|--------|--------|--------|--------|--------|--------|--------|--------|
E|--------|--------|--------|--------|--------|--------|--------|--------|--------|


E|--------|--------|--------|--------|--------|--------|--------|--------|--------|
B|--------|--------|--------|--------|--------|--------|--------|--------|--------|
G|--------|--------|--------|--------|--------|--------|--------|--------|--------|
D|--------|--------|--------|--------|--------|--------|--------|--------|--------|
A|--------|--------|--------|--------|--------|--------|--------|--------|--------|
E|--------|--------|--------|--------|--------|--------|--------|--------|--------|


E|--------|--------|--------|--------|--------|--------|--------|--------|--------|
B|--------|--------|--------|--------|--------|--------|--------|--------|--------|
G|--------|--------|--------|--------|--------|--------|--------|--------|--------|
D|--------|--------|--------|--------|--------|--------|--------|--------|--------|
A|--------|--------|--------|--------|--------|--------|--------|--------|--------|
E|--------|--------|--------|--------|--------|--------|--------|--------|--------|


E|--------|--------|--------|--------|--------|-------------|-------------|-------------|
B|--------|--------|--------|--------|--------|-------------|-------------|-------------|
G|--------|--------|--------|--------|--------|-------------|-------------|-------------|
D|--------|--------|--------|--------|--------|-------------|-------------|-------------|
A|--------|--------|--------|--------|--------|-------------|-------------|-------------|
E|--------|--------|--------|--------|--------|-------------|-------------|-------------|


E|-------------|------------------------------------|--------|--------|--------|--------|
B|-------------|------------------------------------|--------|--------|--------|--------|
G|-------------|------------------------------------|--------|--------|--------|--------|
D|-------------|-4----------------------------------|--------|--------|--------|--------|
A|-------------|------7--6--4-----------------------|--------|--------|--------|--------|
E|-------------|---------------7--6--4--2--0--------|--------|--------|--------|--------|


E|--------|--------|--------|--------|--------|--------|--------|-------------|-------------|
B|--------|--------|--------|--------|--------|--------|--------|-------------|-------------|
G|--------|--------|--------|--------|--------|--------|--------|-------------|-------------|
D|--------|--------|--------|--------|--------|--------|--------|-------------|-------------|
A|--------|--------|--------|--------|--------|--------|--------|-------------|-------------|
E|--------|--------|--------|--------|--------|--------|--------|-------------|-------------|


E|-------------|-------------|------------------------|--------------------------------|
B|-------------|-------------|-11----11---11-11-9--11-|-11---11---9--12---12-12--11-11-|
G|-------------|-------------|------------------------|--------------------------------|
D|-------------|-------------|------------------------|--------------------------------|
A|-------------|-------------|------------------------|--------------------------------|
E|-------------|-------------|------------------------|--------------------------------|


E|-----------------------------------------|--------------------------------------------|
B|-11-------------------------12-12--------|--------------------------------------------|
G|----11-6---6---------8-9-----------8--8--|-8----8-9-11--9-8---------------------------|
D|---------------8-9-11--------------------|------------------11-11--119-7-----7--------|
A|-----------------------------------------|-------------------------------11-----11-9--|
E|-----------------------------------------|--------------------------------------------|


E|---------------------------------------16181921---21--21-21-|-21---------19-21-21---21---21-|
B|---------------------------------161719---------------------|---------21--------------------|
G|---------------131516------151618---------------------------|-------------------------------|
D|---------131416------141618---------------------------------|-------------------------------|
A|-9---9------------------------------------------------------|-------------------------------|
E|------------------------------------------------------------|-------------------------------|


E|-21---19-18--19-21-19-16-------------------------|--------------------------19-17----21----19----16----14--|
B|------------------------1916---19-16-------------|----------------------1921-------19--1917--1714--1412--12|
G|----------------------------18------1816---18-16-|-16----16-------16-20------------------------------------|
D|----------------------------------------18-------|----16-161816--------------------------------------------|
A|-------------------------------------------------|-------------18------------------------------------------|
E|-------------------------------------------------|---------------------------------------------------------|


E|---11----9-----------------------------------------------|-------------|-------------|
B|-9---9-7---7-9-7-5-7-5-3-5-4-5-0-4-5-125-4-0-2-2---------|-------------|-------------|
G|---------------------------------------------------------|-------------|-------------|
D|---------------------------------------------------------|-------------|-------------|
A|---------------------------------------------------------|-------------|-------------|
E|---------------------------------------------------------|-------------|-------------|


E|-------------|-------------|--------|--------|--------|--------|--------|--------|
B|-------------|-------------|--------|--------|--------|--------|--------|--------|
G|-------------|-------------|--------|--------|--------|--------|--------|--------|
D|-------------|-------------|--------|--------|--------|--------|--------|--------|
A|-------------|-------------|--------|--------|--------|--------|--------|--------|
E|-------------|-------------|--------|--------|--------|--------|--------|--------|


E|--------|--------|--------|--------|--------|
B|--------|--------|--------|--------|--------|
G|--------|--------|--------|--------|--------|
D|--------|--------|--------|--------|--------|
A|--------|--------|--------|--------|--------|
E|--------|--------|--------|--------|--------|





Track 5: Piano

E|-7----6-------7----6--------|-7----6-------7----6---6----|-7----6-------7----6--------|
B|----------7------------7----|----------7-----------------|----------7------------7----|
G|-4----3-------4----3--------|-4----3-------4----3---3----|-4----3-------4----3--------|
D|----------4------------4----|----------4-----------------|----------4------------4----|
A|----------------------------|----------------------------|----------------------------|
E|----------------------------|----------------------------|----------------------------|


E|-7----6-------7----6---6----|-11---11---11-11----|-11----11-9----9--9----|-11---11---11-11----|
B|----------7-----------------|-12---12---11-11----|-12----12-12---12-11---|-12---12---11-11----|
G|-4----3-------4----3---3----|-13---13---11-11----|-13----13-13---13-11---|-13---13---11-11----|
D|----------4-----------------|--------------------|-14----14-14---14------|--------------------|
A|----------------------------|-11---11---9--9-----|------------------9----|-11---11---9--9-----|
E|----------------------------|--------------------|-12----12-9----9-------|--------------------|


E|-9-----9--14----14-|-14--------------------|---------------------------------|-----------------4-------4-------|
B|-9-----9--12----12-|-12----4-------4-------|-5-------5-------4-------4-------|-----------------5-------5-------|
G|-9-----9--13----13-|-13----4-------4-------|-4-------4-------4-------4-------|-4-------3-----------4-------4---|
D|----------14----14-|-14--------6-------6---|-----6-------6-------6-------6---|-4---4---4---4-------------------|
A|-9-----9-----------|-----------------------|---------------------------------|---------4-----------------------|
E|----------12----12-|-12----4---------------|-4---------------4---------------|-2---------------0---------------|


E|-----------------0-------0-------|-----------------4------------4------|-4------------4------4------------4------|
B|-7-------4-------2-------2-------|-----------------4-------------------|-5-------------------4-------------------|
G|-4-------4-----------2-------2---|-4-------3-------4------4--4---------|-4------4--4---------4------4--4---------|
D|-4---4-------4-------------------|-4---4---4---4-------6-----------6---|-----6-----------6-------6-----------6---|
A|-----------------0---------------|-------------------------------------|-----------------------------------------|
E|-7-------------------------------|-2-------0-------4-------------------|-4-------------------4-------------------|


E|------------------------|---------------------------|-------------11-14-------|----------14-14-12--11-12-----------14--12-|
B|--------------5----5----|-4----5--5--4----5----5----|-5--------12--------12---|-12----12--------------------9---9---------|
G|-4-------3----4----4----|-4----4--4--4----6----6----|-4-----13----9-----------|-------11----------------------------------|
D|-4---4---4----6----6----|-4----6--6--4----7----7----|-6-----------------------|----9---------------------9----------------|
A|---------4--------------|-----------------0---------|----------11-------------|-------------------------------------------|
E|-2------------0---------|---------------------------|-4-----9-----------------|-11--------------------12------------------|


E|----11-12-14-12-11-------------11-14-------|----------14-14-12--11-12----12-12-12-12-12--|
B|-------------------14-12----12--------12---|-12----12--------------------9---------------|
G|----8--11----------------13----9-----------|-------11------------------------------------|
D|-9-----------------------------------------|----9---------------------9------------------|
A|----------------------------11-------------|---------------------------------------------|
E|-------------------------9-----------------|-11--------------------12--------------------|


E|-----------------------11---11---11-|-11----11----11-9--|------9--9----11---11---11-|
B|----11----12-12-11-----12---12---11-|-11----12----12-12-|------12-11---12---12---11-|
G|-11----11----------11--13---13---11-|-11----13----13-13-|------13-11---13---13---11-|
D|------------------------------------|-------14----14-14-|------14-------------------|
A|-9---------------------11---11---9--|-9-----------------|---------9----11---11---9--|
E|------------------------------------|-------12----12-9--|------9--------------------|


E|-11----9-----9--14-|----------14-11---11---14-|-14----11---11---9--|-9-----7----7----11-|
B|-11----9-----9--12-|----------12-12---12---12-|-12----12---12---11-|-11----9----9----12-|
G|-11----9-----9--13-|----------13-13---13---13-|-13----13---13---11-|-11----9----9----11-|
D|----------------14-|----------14-----------14-|-14-----------------|-----------------9--|
A|-9-----9-----9-----|-------------11---11------|-------11---11---9--|-9-----7----7-------|
E|----------------12-|----------12--------------|--------------------|--------------------|


E|-11----12---12--14--|-14---14---16---16---16-|-16----16----16-14-|------14-14---12---12------|
B|-12----14---14--14--|-14---14---16---16---16-|-16----16----16-14-|------14-14---12---12---16-|
G|-11----14---14--16--|-16---16---16---16---16-|-16----16----16-16-|------16-15---13---13---16-|
D|-9--------------16--|-16---14----------------|-------------------|------------------------16-|
A|-------12---12------|------------------------|-------------------|------------------------14-|
E|--------------------|-----------16---16---16-|-16----16----16-14-|------14-14---12---12------|


E|-------12----|-12----------11-14-------|----------14-14-12--11-12-----------14--12-|
B|-16----14----|-12-------12--------12---|-12----12--------------------9---9---------|
G|-16----14----|-13----13----9-----------|-------11----------------------------------|
D|-16----------|-------------------------|----9---------------------9----------------|
A|-14----12----|-11-------11-------------|-------------------------------------------|
E|-------------|-------9-----------------|-11--------------------12------------------|


E|----11-12-14-12-11-------------11-14-------|----------14-14-12--11-12----12-12-12-12-12--|
B|-------------------14-12----12--------12---|-12----12--------------------9---------------|
G|----8--11----------------13----9-----------|-------11------------------------------------|
D|-9-----------------------------------------|----9---------------------9------------------|
A|----------------------------11-------------|---------------------------------------------|
E|-------------------------9-----------------|-11--------------------12--------------------|


E|-14--------------|---------------------|---------------------|-----------------|
B|-14---------16---|-17---16--------16---|-17---16--------16---|-17---16---14----|
G|-15----16--------|-----------14--------|-----------13--------|-----------------|
D|-16--------------|---------------------|---------------------|-----------------|
A|-------14--------|-----------12--------|-----------11--------|-----------------|
E|-14--------------|---------------------|---------------------|-----------14----|


E|-----------------|---------------------|---------------------|------14---14----|
B|-12---------16---|-17---16--------16---|-17---16--------16---|-17--------------|
G|-------16--------|-----------14--------|-----------13--------|-----------11----|
D|-----------------|---------------------|---------------------|-----------------|
A|-------14--------|-----------12--------|-----------11--------|-----------------|
E|-12--------------|---------------------|---------------------|-----------------|


E|-------15----|-------------|-------14----|-------12----|-14----12----|-------14----|
B|-------15----|-------17----|-------15----|-------12----|-15----13----|-------17----|
G|-9-----16----|-------17----|-------14----|-------12----|-14----12----|-------16----|
D|-------------|-------17----|-------------|-------14----|-12----------|-------------|
A|-------------|-------------|-------------|-------------|-------15----|-------14----|
E|-------15----|-------15----|-------14----|-------------|-------------|-------------|


E|-14----16----|------------------------|--------------------14-|-14----11----11-9--|
B|-16----17----|-------12---12--12--12--|-12--------16----16-12-|-12----12----12-11-|
G|-16----16----|-------15---15--15--15--|-15--------16----16-13-|-13----13----13-11-|
D|-------------|-------16---16--16--16--|-16--------18----18-14-|-14----------------|
A|-14----------|------------------------|-----------------------|-------11----11-9--|
E|-------12----|-------14---14--14--14--|-14--------16----16----|-------------------|


E|-9-----7-----7--11-|-11----12----12-14-|-14---14---16----16-16-|-16----16----16-14-|
B|-11----9-----9--12-|-12----14----14-14-|-14---14---16----16-16-|-16----16----16-14-|
G|-11----9-----9--11-|-11----14----14-16-|-16---14---16----16-16-|-16----16----16-16-|
D|----------------9--|-9--------------16-|-16---14---------------|-------------------|
A|-9-----7-----7-----|-------12----12----|-----------------------|-------------------|
E|-------------------|-------------------|-----------16----16-16-|-16----16----16-14-|


E|-14---14---12----12----|-------12----|-12----------11-14-------|----------14-14-12--11-12-----------14--12-|
B|-14---14---12----12-16-|-16----14----|-12-------12--------12---|-12----12--------------------9---9---------|
G|-16---15---13----13-16-|-16----14----|-13----13----9-----------|-------11----------------------------------|
D|--------------------16-|-16----------|-------------------------|----9---------------------9----------------|
A|--------------------14-|-14----12----|-11-------11-------------|-------------------------------------------|
E|-14---14---12----12----|-------------|-------9-----------------|-11--------------------12------------------|


E|----11-12-14-12-11-------------11-14-------|----------14-14-12--11-12----12-12-12-12-12--|
B|-------------------14-12----12--------12---|-12----12--------------------9---------------|
G|----8--11----------------13----9-----------|-------11------------------------------------|
D|-9-----------------------------------------|----9---------------------9------------------|
A|----------------------------11-------------|---------------------------------------------|
E|-------------------------9-----------------|-11--------------------12--------------------|


E|-14----14----|-------7----6-------7--|-----6--------7----6-------7--|-----6---6----7----6-------7--|
B|-14----14----|----------------7------|---------7-------------7------|-----------------------7------|
G|-15----15----|-------4----3-------4--|-----3--------4----3-------4--|-----3---3----4----3-------4--|
D|-16----16----|----------------4------|---------4-------------4------|-----------------------4------|
A|-------------|-----------------------|------------------------------|------------------------------|
E|-14----14----|-----------------------|------------------------------|------------------------------|


E|-----6--------7----6-------7--|-----6---6----7----6-------7--|-----6--------7----6-------7--|
B|---------7-------------7------|-----------------------7------|---------7-------------7------|
G|-----3--------4----3-------4--|-----3---3----4----3-------4--|-----3--------4----3-------4--|
D|---------4-------------4------|-----------------------4------|---------4-------------4------|
A|------------------------------|------------------------------|------------------------------|
E|------------------------------|------------------------------|------------------------------|


E|-----6---6----7----6-------7--|-----6--------7----6-------7--|-----6---6----7-----|
B|-----------------------7------|---------7-------------7------|--------------9-----|
G|-----3---3----4----3-------4--|-----3--------4----3-------4--|-----3---3----11----|
D|-----------------------4------|---------4-------------4------|--------------13----|
A|------------------------------|------------------------------|--------------7-----|
E|------------------------------|------------------------------|--------------------|


E|-------7-----|--------|
B|-------9-----|--------|
G|-------11----|--------|
D|-------13----|--------|
A|-------7-----|--------|
E|-------------|--------|





Track 6: Bass Guitar

C|-----------------------|-----------------------|-----------------------|-----------------------|
G|-----------------------|----------6--6---------|-----------------------|----------6--6---------|
D|-6-----6---------------|-----------------------|-6-----6---------------|-----------------------|
A|----------9--9-----9---|-7-----7-----------9---|----------9--9-----9---|-7-----7-----------9---|
E|-----------------------|-----------------------|-----------------------|-----------------------|
B|-----------------------|-----------------------|-----------------------|-----------------------|


C|--------|--------|--------|--------|--------|--------|--------|--------|--------|
G|--------|--------|--------|--------|--------|--------|--------|--------|--------|
D|--------|--------|--------|--------|--------|--------|--------|--------|--------|
A|--------|--------|--------|--------|--------|--------|--------|--------|--------|
E|--------|--------|--------|--------|--------|--------|--------|--------|--------|
B|--------|--------|--------|--------|--------|--------|--------|--------|--------|


C|--------|--------|--------|-------------|-------------|-------------------------------|
G|--------|--------|--------|-------------|-------------|-2--4--4--4--4--4--4--4--------|
D|--------|--------|--------|-------------|-------2-----|-------------------------------|
A|--------|--------|--------|-------4-----|-6-----------|-------------------------4-----|
E|--------|--------|--------|-------------|-------------|-------------------------------|
B|--------|--------|--------|-------------|-------------|-------------------------------|


C|-------------|--------------------|-------------------|---------------------------|
G|-------------|--------------------|-------------------|---------------------------|
D|-1-----2-----|--------------------|-------------------|---------------------------|
A|-------------|--------------------|-------------------|---------------------------|
E|-------------|-2-----4----4----2--|-2-----0-----0-----|---------2----4----4----2--|
B|-------------|--------------------|----------------2--|------2--------------------|


C|-------------------|-------------------------|-------------------|-------------------|
G|-------------------|-------------------------|-------------------|-------------------|
D|-------------------|-------------------------|-------------------|-------------------|
A|-------4-----4-----|-------------------------|-------------------|----------------2--|
E|-2--------------0--|----------0--4-----4--4--|-4-----4-----4--2--|-2-----0-----0-----|
B|-------------------|-------------------------|-------------------|-------------------|


C|--------------------|-----------------------|-------------------|-------------------|
G|--------------------|-----------------------|-------------------|-------------------|
D|--------------------|-----------------------|-------------------|-------------------|
A|-2-----0----0-------|-----------------------|-------------------|----------------2--|
E|----------------2---|-2----0----4-----4--4--|-4-----4-----4--2--|-2-----0-----0-----|
B|--------------------|-----------------------|-------------------|-------------------|


C|--------------------|-------------------------|-------------------------------------------------|
G|--------------------|-------------------------|-------------------------------------------------|
D|--------------------|-------------------------|-1--1--1--1--1--------1--2--2--2--2--2--2--2--2--|
A|-2-----0----0--0----|-------4---4---4---2--4--|----------------4--4-----------------------------|
E|--------------------|-4-----------------------|-------------------------------------------------|
B|--------------------|-------------------------|-------------------------------------------------|


C|-------------------------------------------------|-------------------------------------------------|
G|-2--4--4--4--4--4--4--4--------------------------|-------------------------------------------------|
D|-------------------------------------------------|-------------------------------------------------|
A|-------------------------4--4--4--4--4--4--2--4--|-6--6--6--6--6--6--6--6--7--7--7--7--7--7--7--7--|
E|-------------------------------------------------|-------------------------------------------------|
B|-------------------------------------------------|-------------------------------------------------|


C|----------------------------------------------|-----------------------------|-----------------------------|
G|----------------------------------------------|-----------------------------|-----------------------------|
D|-4--------------------------------------------|-----------------------------|-----------------------------|
A|------7--6--4------------------------------9--|--------------------------7--|--------------------------6--|
E|---------------7--6--4--2--0--7----7--7-------|----7--7-----5----5--5-------|----5--5-----4----4--4-------|
B|----------------------------------------------|-----------------------------|-----------------------------|


C|-------------------|---------------------------------|-----------------------------|
G|-------------------|---------------------------------|-----------------------------|
D|-------------------|---------------------------------|-----------------------------|
A|-------------------|-----7------------------------9--|--------------------------7--|
E|----4--4-----------|---------4---6---7----7--7-------|----7--7-----5----5--5-------|
B|-------------7-----|-5-------------------------------|-----------------------------|


C|-----------------------------|-------------------|---------------------------|---------------------------------------|
G|-----------------------------|-------------------|---------------------------|---------------------------------------|
D|-----------------------------|-------------------|---------------------------|---------------------------------------|
A|--------------------------6--|-------------------|---------------------------|---------------------------------------|
E|----5--5-----4----4--4-------|----4--4-----2-----|-0-----3---3--3--3---3--3--|-3---3----3--3--3--3---3--3--3---3--3--|
B|-----------------------------|-------------------|---------------------------|---------------------------------------|


C|-------------------------------------------|----------------------------------------|
G|-------------------------------------------|----------------------------------------|
D|-------------------------------------------|----------------------------------------|
A|-------------------------------------------|----------------------------------------|
E|-3---3----3--3--3--2--2--2--2--2--2--2--2--|-2--2--2--2--2--2--2--2--0---0--0--0----|
B|-------------------------------------------|----------------------------------------|


C|------------------------------|-------------------------------------------|----------------------------------------------------|
G|---------7------------5-------|-----5--5----------------------------------|----------------------------------------------------|
D|------------------------------|-------------------------------------------|----------------------------------------------------|
A|-5---5-------5---3--------3---|-3-----------3--3--------------------------|-2--2--2--2--2--2--2--2----------5--7-----7---5-----|
E|------------------------------|-------------------0--0--0--0--0--0--0--0--|-------------------------0----7------------------7--|
B|------------------------------|-------------------------------------------|----------------------------------------------------|


C|---------------------------------------------|-----------------------|-------------------|
G|---------------------------------------------|-----------------------|-------------------|
D|---------------------------------------------|--------------------2--|-2-----------------|
A|---------5--7-----7---5----------------------|-----------------------|-------------------|
E|-0----7------------------7--2----2---2---2---|-2---------4-----4-----|-------4-----4--2--|
B|---------------------------------------------|-----------------------|-------------------|


C|-------------------|-------------------|-----------------------|-------------------|
G|-------------------|-------------------|-----------------------|-------------------|
D|-------2-----2-----|----------------4--|-4----2----------------|-------------------|
A|----------------2--|-2-----0-----0-----|-----------------------|-------------------|
E|-2-----------------|-------------------|-----------4-----4--4--|-4-----4-----4--2--|
B|-------------------|-------------------|-----------------------|-------------------|


C|-----------------------|-------------|-------------------------------|-------------------------------------------------|
G|-----------------------|-------------|-------------------------------|-------------------------------------------------|
D|-----------------------|-------------|-------------------------------|-1--1--1--1--1--------1--2--2--2--2--2--2--2--2--|
A|--------------------2--|-2-----0-----|-------4--4--4--4--4--4--2--4--|----------------4--4-----------------------------|
E|-2----2----0-----0-----|-------------|-4-----------------------------|-------------------------------------------------|
B|-----------------------|-------------|-------------------------------|-------------------------------------------------|


C|-------------------------------------------------|-------------------------------------------------|
G|-2--4--4--4--4--4--4--4--------------------------|-------------------------------------------------|
D|-------------------------------------------------|-1--1--1--1--1--1--1--1--2--2--2--2--2--2--2--2--|
A|-------------------------4--4--4--4--4--4--2--4--|-------------------------------------------------|
E|-------------------------------------------------|-------------------------------------------------|
B|-------------------------------------------------|-------------------------------------------------|


C|-------------|--------------------|-------------------|---------------------------|
G|-------------|--------------------|-------------------|---------------------------|
D|-------------|--------------------|-------------------|---------------------------|
A|-------------|--------------------|----------------4--|------4--------------------|
E|-2-----2-----|-------4----4----2--|-2-----0-----0-----|---------2----4----4----2--|
B|-------------|--------------------|-------------------|---------------------------|


C|-------------------|---------------------------|-------------------|---------------------------|
G|-------------------|---------------------------|-------------------|---------------------------|
D|-------------------|---------------------------|-------------------|---------------------------|
A|----------------4--|------4--------------------|----------------4--|------4--------------------|
E|-2-----0-----0-----|---------2----4----4----2--|-2-----0-----0-----|---------2----4----4----2--|
B|-------------------|---------------------------|-------------------|---------------------------|


C|-------------------|--------------------|-------------|--------|
G|-------------------|--------------------|-------------|--------|
D|-------------------|--------------------|-------------|--------|
A|----------------4--|------4-------------|-------------|--------|
E|-2-----0-----0-----|---------2----0-----|-------0-----|--------|
B|-------------------|--------------------|-------------|--------|





Track 7: Bass Guitar

C|--------|--------|--------|--------|--------------------|-----------------------|
G|--------|--------|--------|--------|--------------------|-----------------------|
D|--------|--------|--------|--------|--------------------|-----------------------|
A|--------|--------|--------|--------|--------------------|-----------------------|
E|--------|--------|--------|--------|-4----4----2--2-----|-0-----0----------2----|
B|--------|--------|--------|--------|--------------------|----------2----2-------|


C|--------------------|-------------------|-------------|--------|--------|--------|
G|--------------------|-------------------|-------------|--------|--------|--------|
D|--------------------|-------------------|-------------|--------|--------|--------|
A|--------------------|-4-----4-----------|-------------|--------|--------|--------|
E|-4----4----2--2-----|----------0-----0--|-0-----------|--------|--------|--------|
B|--------------------|-------------------|-------------|--------|--------|--------|


C|--------|--------|--------|--------|--------|--------|--------|--------|--------|
G|--------|--------|--------|--------|--------|--------|--------|--------|--------|
D|--------|--------|--------|--------|--------|--------|--------|--------|--------|
A|--------|--------|--------|--------|--------|--------|--------|--------|--------|
E|--------|--------|--------|--------|--------|--------|--------|--------|--------|
B|--------|--------|--------|--------|--------|--------|--------|--------|--------|


C|--------|--------|--------|--------|--------|--------|--------|--------|--------|
G|--------|--------|--------|--------|--------|--------|--------|--------|--------|
D|--------|--------|--------|--------|--------|--------|--------|--------|--------|
A|--------|--------|--------|--------|--------|--------|--------|--------|--------|
E|--------|--------|--------|--------|--------|--------|--------|--------|--------|
B|--------|--------|--------|--------|--------|--------|--------|--------|--------|


C|--------|--------|--------|--------|--------|--------|--------|--------|--------|
G|--------|--------|--------|--------|--------|--------|--------|--------|--------|
D|--------|--------|--------|--------|--------|--------|--------|--------|--------|
A|--------|--------|--------|--------|--------|--------|--------|--------|--------|
E|--------|--------|--------|--------|--------|--------|--------|--------|--------|
B|--------|--------|--------|--------|--------|--------|--------|--------|--------|


C|--------|--------|--------|--------|--------|--------|--------|--------|--------|
G|--------|--------|--------|--------|--------|--------|--------|--------|--------|
D|--------|--------|--------|--------|--------|--------|--------|--------|--------|
A|--------|--------|--------|--------|--------|--------|--------|--------|--------|
E|--------|--------|--------|--------|--------|--------|--------|--------|--------|
B|--------|--------|--------|--------|--------|--------|--------|--------|--------|


C|--------|--------|--------|--------|--------|--------|--------|--------|--------|
G|--------|--------|--------|--------|--------|--------|--------|--------|--------|
D|--------|--------|--------|--------|--------|--------|--------|--------|--------|
A|--------|--------|--------|--------|--------|--------|--------|--------|--------|
E|--------|--------|--------|--------|--------|--------|--------|--------|--------|
B|--------|--------|--------|--------|--------|--------|--------|--------|--------|


C|--------|--------|--------|--------|--------|--------|--------|--------|--------|
G|--------|--------|--------|--------|--------|--------|--------|--------|--------|
D|--------|--------|--------|--------|--------|--------|--------|--------|--------|
A|--------|--------|--------|--------|--------|--------|--------|--------|--------|
E|--------|--------|--------|--------|--------|--------|--------|--------|--------|
B|--------|--------|--------|--------|--------|--------|--------|--------|--------|


C|--------|--------|--------|--------|--------|--------|--------|--------|--------|
G|--------|--------|--------|--------|--------|--------|--------|--------|--------|
D|--------|--------|--------|--------|--------|--------|--------|--------|--------|
A|--------|--------|--------|--------|--------|--------|--------|--------|--------|
E|--------|--------|--------|--------|--------|--------|--------|--------|--------|
B|--------|--------|--------|--------|--------|--------|--------|--------|--------|


C|--------|
G|--------|
D|--------|
A|--------|
E|--------|
B|--------|





Track 8: Keyboards/Strings

E|--------|--------|--------|--------|--------|--------|--------|--------|--------|
B|--------|--------|--------|--------|--------|--------|--------|--------|--------|
G|--------|--------|--------|--------|--------|--------|--------|--------|--------|
D|--------|--------|--------|--------|--------|--------|--------|--------|--------|
A|--------|--------|--------|--------|--------|--------|--------|--------|--------|
E|--------|--------|--------|--------|--------|--------|--------|--------|--------|


E|--------|--------|--------|--------|--------|--------|--------|--------|--------|
B|--------|--------|--------|--------|--------|--------|--------|--------|--------|
G|--------|--------|--------|--------|--------|--------|--------|--------|--------|
D|--------|--------|--------|--------|--------|--------|--------|--------|--------|
A|--------|--------|--------|--------|--------|--------|--------|--------|--------|
E|--------|--------|--------|--------|--------|--------|--------|--------|--------|


E|--------|--------|-------11---11---11-|-11----11----11-9--|------9--9----11---11---11-|
B|--------|--------|-------12---12---11-|-11----12----12-12-|------12-11---12---12---11-|
G|--------|--------|-------13---13---11-|-11----13----13-13-|------13-11---13---13---11-|
D|--------|--------|--------------------|-------14----14-14-|------14-------------------|
A|--------|--------|-------11---11---9--|-9-----------------|---------9----11---11---9--|
E|--------|--------|--------------------|-------12----12-9--|------9--------------------|


E|-11----9-----9--14-|----------14-11---11---14-|-14----11---11---9--|-9-----7----7----11-|
B|-11----9-----9--12-|----------12-12---12---12-|-12----12---12---11-|-11----9----9----12-|
G|-11----9-----9--13-|----------13-13---13---13-|-13----13---13---11-|-11----9----9----11-|
D|----------------14-|----------14-----------14-|-14-----------------|-----------------9--|
A|-9-----9-----9-----|-------------11---11------|-------11---11---9--|-9-----7----7-------|
E|----------------12-|----------12--------------|--------------------|--------------------|


E|-11----12---12--14--|-14---14---16---16---16-|-16----16----16-14-|------14-14---12---12------|
B|-12----14---14--14--|-14---14---16---16---16-|-16----16----16-14-|------14-14---12---12---16-|
G|-11----14---14--16--|-16---16---16---16---16-|-16----16----16-16-|------16-15---13---13---16-|
D|-9--------------16--|-16---14----------------|-------------------|------------------------16-|
A|-------12---12------|------------------------|-------------------|------------------------14-|
E|--------------------|-----------16---16---16-|-16----16----16-14-|------14-14---12---12------|


E|-------12----|-12----------|--------|--------|--------|-----------------|---------------------|
B|-16----14----|-12----------|--------|--------|--------|------------16---|-17---16--------16---|
G|-16----14----|-13----------|--------|--------|--------|-------16--------|-----------14--------|
D|-16----------|-------------|--------|--------|--------|-----------------|---------------------|
A|-14----12----|-11----------|--------|--------|--------|-------14--------|-----------12--------|
E|-------------|-------------|--------|--------|--------|-----------------|---------------------|


E|---------------------|-----------------|-----------------|---------------------|
B|-17---16--------16---|-17---16---14----|-12---------16---|-17---16--------16---|
G|-----------13--------|-----------------|-------16--------|-----------14--------|
D|---------------------|-----------------|-----------------|---------------------|
A|-----------11--------|-----------------|-------14--------|-----------12--------|
E|---------------------|-----------14----|-12--------------|---------------------|


E|---------------------|------14---14----|-------15----|-------------|-------14----|
B|-17---16--------16---|-17--------------|-------15----|-------17----|-------15----|
G|-----------13--------|-----------11----|-9-----16----|-------17----|-------14----|
D|---------------------|-----------------|-------------|-------17----|-------------|
A|-----------11--------|-----------------|-------------|-------------|-------------|
E|---------------------|-----------------|-------15----|-------15----|-------14----|


E|-------12----|-14----12----|-------14----|-14----16----|------------------------|
B|-------12----|-15----13----|-------17----|-16----17----|-------12---12--12--12--|
G|-------12----|-14----12----|-------16----|-16----16----|-------15---15--15--15--|
D|-------14----|-12----------|-------------|-------------|-------16---16--16--16--|
A|-------------|-------15----|-------14----|-14----------|------------------------|
E|-------------|-------------|-------------|-------12----|-------14---14--14--14--|


E|--------------------14-|-14----11----11-9--|-9-----7-----7--11-|-11----12----12-14-|
B|-12--------16----16-12-|-12----12----12-11-|-11----9-----9--12-|-12----14----14-14-|
G|-15--------16----16-13-|-13----13----13-11-|-11----9-----9--11-|-11----14----14-16-|
D|-16--------18----18-14-|-14----------------|----------------9--|-9--------------16-|
A|-----------------------|-------11----11-9--|-9-----7-----7-----|-------12----12----|
E|-14--------16----16----|-------------------|-------------------|-------------------|


E|-14---14---16----16-16-|-16----16----16-14-|-14---14---12----12----|-------12----|
B|-14---14---16----16-16-|-16----16----16-14-|-14---14---12----12-16-|-16----14----|
G|-16---14---16----16-16-|-16----16----16-16-|-16---15---13----13-16-|-16----14----|
D|-16---14---------------|-------------------|--------------------16-|-16----------|
A|-----------------------|-------------------|--------------------14-|-14----12----|
E|-----------16----16-16-|-16----16----16-14-|-14---14---12----12----|-------------|


E|-12----9-----|-14----12----|-11----9-----|-14----12----|-14----14----|--------|--------|
B|-12----9-----|-12----12----|-12----9-----|-12----12----|-14----14----|--------|--------|
G|-13----------|-------9-----|-11----------|-------9-----|-15----15----|--------|--------|
D|-------11----|-11----------|-9-----11----|-11----------|-16----16----|--------|--------|
A|-11----------|-------------|-------------|-------------|-------------|--------|--------|
E|-------9-----|-11----12----|-------9-----|-11----12----|-14----14----|--------|--------|


E|--------|--------|--------|--------|--------|--------|--------|--------|--------|
B|--------|--------|--------|--------|--------|--------|--------|--------|--------|
G|--------|--------|--------|--------|--------|--------|--------|--------|--------|
D|--------|--------|--------|--------|--------|--------|--------|--------|--------|
A|--------|--------|--------|--------|--------|--------|--------|--------|--------|
E|--------|--------|--------|--------|--------|--------|--------|--------|--------|