Menu:

 

Search:

 

dream theater - another day:

 



Title: Another Day
Artist: 
Album: Images And Words
Author: 


Track 1: Acoustic

E|-----------------------------------|-----------------------------------|-----------------------------------|
B|-0--------------0--0---------------|-0--------------0--0---------------|-0--------------0--0---------------|
G|------3--3-------------3-----------|------3--3-------------3---3-------|------3--3-------------3-----------|
D|------------4--------------4-------|------------4------------------4---|------------4--------------4-------|
A|-----------------------------------|----------------4--4---------------|-----------------------------------|
E|-4-------4------2--2-----------2---|-0-------0-----------------2-------|-4-------4------2--2-----------2---|


E|-----------------------------------|--------|--------|--------|--------|--------|
B|-0--------------0--0---------------|--------|--------|--------|--------|--------|
G|------3--3-------------3---3-------|--------|--------|--------|--------|--------|
D|------------4------------------4---|--------|--------|--------|--------|--------|
A|----------------4--4---------------|--------|--------|--------|--------|--------|
E|-0-------0-----------------2-------|--------|--------|--------|--------|--------|


E|--------|--------|--------|--------|--------|--------|--------|--------|--------|
B|--------|--------|--------|--------|--------|--------|--------|--------|--------|
G|--------|--------|--------|--------|--------|--------|--------|--------|--------|
D|--------|--------|--------|--------|--------|--------|--------|--------|--------|
A|--------|--------|--------|--------|--------|--------|--------|--------|--------|
E|--------|--------|--------|--------|--------|--------|--------|--------|--------|


E|--------|--------|-------------------------|-------------------------------------|
B|--------|--------|-----------------0-------|-----------0-----------------0-------|
G|--------|--------|-------------3-------3---|-------3-------3---------3-------3---|
D|--------|--------|----------4--------------|----4-----------------4--------------|
A|--------|--------|-------------------------|-------------------------------------|
E|--------|--------|-------4-----------------|-2-----------------0-----------------|


E|-------------------------------------|-----------------------------------|-0---------------------------|
B|-----------0-----------------0-------|-----------0-------------------0---|----------------------4---5--|
G|-------3-------3---------3-------3---|-------3-------3-----------6-------|----------------4--4------4--|
D|----4-----------------4--------------|----4------------------6-----------|-------------8------------2--|
A|-4-----------------------------------|-----------------------------------|----------6---------------4--|
E|-------------------4-----------------|-2-----------------0---------------|-------4---------------------|


E|----------------4--4---------|----------------------------------0---0-----------|
B|-5--------------------4------|----4---------------------------7--------7--------|
G|-4---------------------------|-------4--------------3-------9-------------9-----|
D|-2-----------6------------4--|-4--------4--------4--------9---------------------|
A|-4--------6---------------2--|-2--------------4---------------------------------|
E|-------4---------------------|-------------2-----------0---------------------7--|


E|----------0--0-----------0----0---0---|-0----0--------------------------|----------------4--4---------|
B|-------------------0-----0----0---0---|-0----0-------------------4---5--|-5--------------------4------|
G|-------8--------8-----8--6----6---3---|-3----3-------------4--4------4--|-4---------------------------|
D|----9--------------------7----7---4---|-4----4----------8------------2--|-2-----------6------------4--|
A|-9-----------------------7----7---4---|-4----4-------6---------------4--|-4--------6---------------2--|
E|-------------------------5----5---2---|-2----0----4---------------------|-------4---------------------|


E|----------------------------------0---0-----------|----------0--0-----------0-----|
B|----4---------------------------7--------7--------|-------------------0-----2-----|
G|-------4--------------3-------9-------------9-----|-------8--------8-----8--2-----|
D|-4--------4--------4--------9---------------------|----9--------------------2-----|
A|-2--------------4---------------------------------|-9-----------------------0-----|
E|-------------2-----------0---------------------7--|-------------------------------|


E|-0--------------------0--------|----------------0-----------------------0--------|
B|-0--------------0--------0-----|----------0--------0--------------0--------0-----|
G|-1-----------6--------------6--|-------8--------------8--------9--------------9--|
D|-2--------6--------6-----------|----9--------9--------------9--------9-----------|
A|-2-----4-----------------------|-6-----------------------7-----------------------|
E|-0-----------------------------|-------------------------------------------------|


E|----------0-----------------------------0--------|----------------0-----------------------0--------|
B|-------------0--------------------0--------0-----|----------0--------0--------------0--------0-----|
G|----------------8--------------6--------------6--|-------8--------------8--------9--------------9--|
D|-------9-----------9--------6--------6-----------|----9--------9--------------9--------9-----------|
A|----9-----------------9--4-----------------------|-6-----------------------7-----------------------|
E|-7-----------------------------------------------|-------------------------------------------------|


E|----------------------------------------|-0-------------------|-0-------------------|
B|-----------------------------------4----|------4---------4----|------4---------4----|
G|------------------------------4---------|-----------2---------|-----------6---------|
D|-4--------------------------------------|---------------------|---------------------|
A|------7--6--4---------------------------|---------------------|---------------------|
E|---------------7--6--4--2--0------------|---------------------|---------------------|


E|-0---------------------0---|-------------0-------------|-0-------------------|-0-------------------|
B|------4------------4-------|---------4------------4----|------4---------4----|------4---------4----|
G|---------------4-----------|-----4-----------4---------|-----------2---------|-----------6---------|
D|---------------------------|---------------------------|---------------------|---------------------|
A|---------------------------|---------------------------|---------------------|---------------------|
E|---------------------------|---------------------------|---------------------|---------------------|


E|-0---------------------0---|-------------0----------------|---------------------------|
B|------4------------4-------|---------4--------------------|-3-------------------------|
G|---------------4-----------|-----4--------------------0---|------2---0------------0---|
D|---------------------------|----------------------0-------|-------------------2-------|
A|---------------------------|------------------------------|--------------3------------|
E|---------------------------|-----------------3------------|---------------------------|


E|------0-----------------|---------------------------|---------------------------------|
B|-1--------1-------------|-3----3--------------------|-------------0---------------3---|
G|-------------------2----|-----------------------0---|---------0---------------5-------|
D|--------------0---------|-------------------4-------|-----4---------------5-----------|
A|------------------------|---------------7-----------|-5---------------3---------------|
E|------------------------|-----------0---------------|---------------------------------|


E|--------------------|-------------|--------|--------|--------|--------|--------|
B|--------------5-----|-4-----------|--------|--------|--------|--------|--------|
G|-5------------4-----|-4-----------|--------|--------|--------|--------|--------|
D|-----5--------4-----|-4-----------|--------|--------|--------|--------|--------|
A|---------3----2-----|-2-----------|--------|--------|--------|--------|--------|
E|--------------------|-------------|--------|--------|--------|--------|--------|


E|--------|--------|--------|--------|--------|--------|--------|--------|--------|
B|--------|--------|--------|--------|--------|--------|--------|--------|--------|
G|--------|--------|--------|--------|--------|--------|--------|--------|--------|
D|--------|--------|--------|--------|--------|--------|--------|--------|--------|
A|--------|--------|--------|--------|--------|--------|--------|--------|--------|
E|--------|--------|--------|--------|--------|--------|--------|--------|--------|


E|----------------|-------------------------------------|-------------------------------------|
B|------------0---|--------------0--0---------------0---|--------------0--0---------------0---|
G|----------------|----3--3-------------3---------------|----3--3-------------3---3-----------|
D|----------------|----------4--------------4-----------|----------4------------------4-------|
A|----------------|-------------------------------------|--------------4--4-------------------|
E|------------4---|-------4------2--2-----------2---0---|-------0-----------------2-------4---|


E|-------------------------------------|-------------------------------------|-------------------------------------|
B|--------------0--0---------------0---|--------------0--0---------------0---|--------------0--0---------------0---|
G|----3--3-------------3---------------|----3--3-------------3---3-----------|----3--3-------------3---------------|
D|----------4--------------4-----------|----------4------------------4-------|----------4--------------4-----------|
A|-------------------------------------|--------------4--4-------------------|-------------------------------------|
E|-------4------2--2-----------2---0---|-------0-----------------2-------4---|-------4------2--2-----------2---0---|


E|-------------------------------------|-------------------------------------|-------------------------------------|
B|--------------0--0---------------0---|--------------0--0---------------0---|--------------0--0---------------0---|
G|----3--3-------------3---3-----------|----3--3-------------3---------------|----3--3-------------3---3-----------|
D|----------4------------------4-------|----------4--------------4-----------|----------4------------------4-------|
A|--------------4--4-------------------|-------------------------------------|--------------4--4-------------------|
E|-------0-----------------2-------4---|-------4------2--2-----------2---0---|-------0-----------------2-------4---|


E|-------------------------------------|-------------------------------------|-------------------------------------|
B|--------------0--0---------------0---|--------------0--0---------------0---|--------------0--0---------------0---|
G|----3--3-------------3---------------|----3--3-------------3---3-----------|----3--3-------------3---------------|
D|----------4--------------4-----------|----------4------------------4-------|----------4--------------4-----------|
A|-------------------------------------|--------------4--4-------------------|-------------------------------------|
E|-------4------2--2-----------2---0---|-------0-----------------2-------4---|-------4------2--2-----------2---0---|


E|-------------------------------------|-------------------------------------|-------------------------------------|
B|--------------0--0---------------0---|--------------0--0---------------0---|--------------0--0---------------0---|
G|----3--3-------------3---3-----------|----3--3-------------3---------------|----3--3-------------3---3-----------|
D|----------4------------------4-------|----------4--------------4-----------|----------4------------------4-------|
A|--------------4--4-------------------|-------------------------------------|--------------4--4-------------------|
E|-------0-----------------2-------4---|-------4------2--2-----------2---0---|-------0-----------------2-------4---|


E|-------------------------------------|-------------------------------------|
B|--------------0--0---------------0---|--------------0--0-------------------|
G|----3--3-------------3---------------|----3--3-------------3---3-----------|
D|----------4--------------4-----------|----------4------------------4-------|
A|-------------------------------------|--------------4--4-------------------|
E|-------4------2--2-----------2---0---|-------0-----------------2-----------|





Track 2: Lead

E|--------|--------|--------|--------|-----------------------|----------------------------------|
B|--------|--------|--------|--------|-12---11---------------|----------------------------------|
G|--------|--------|--------|--------|----------13-8-----8---|-8----------8--6------------------|
D|--------|--------|--------|--------|-----------------------|------6--9----------9--8----9--11-|
A|--------|--------|--------|--------|-----------------------|----------------------------------|
E|--------|--------|--------|--------|-----------------------|----------------------------------|


E|-----------------------------|----------------------|-----------------|---------------------|
B|-----------------------------|----------11-12-14----|-----------------|---------------------|
G|-------------------------11--|-13---13--------------|-----------------|---------------------|
D|-9----9---11--8----8--9------|----------------------|-----------------|---------------------|
A|-----------------------------|----------------------|-----------------|---------------------|
E|-----------------------------|----------------------|-----------------|---------------------|


E|---------------------|---------------------|-----------------|-------------|-----------------|
B|---------------------|---------------------|-----------------|-------------|-----------------|
G|---------------------|---------------------|-4----6----8-----|-9-----8-----|-6----6----4-----|
D|---------------------|---------------------|-----------------|-------------|-----------------|
A|---------------------|---------------------|-----------------|-------------|-----------------|
E|---------------------|---------------------|-----------------|-------------|-----------------|


E|-------------|-------------|--------|--------|--------|--------|--------|--------|
B|-7-----5-----|-------------|--------|--------|--------|--------|--------|--------|
G|-------------|-4-----------|--------|--------|--------|--------|--------|--------|
D|-------------|-------------|--------|--------|--------|--------|--------|--------|
A|-------------|-------------|--------|--------|--------|--------|--------|--------|
E|-------------|-------------|--------|--------|--------|--------|--------|--------|


E|--------|--------|--------|--------|--------|--------|--------|--------|--------|
B|--------|--------|--------|--------|--------|--------|--------|--------|--------|
G|--------|--------|--------|--------|--------|--------|--------|--------|--------|
D|--------|--------|--------|--------|--------|--------|--------|--------|--------|
A|--------|--------|--------|--------|--------|--------|--------|--------|--------|
E|--------|--------|--------|--------|--------|--------|--------|--------|--------|


E|--------|--------|-------------|-------------|------------------------------------|
B|--------|--------|-------------|-------------|------------------------------------|
G|--------|--------|-------------|-------------|------------------------------4-----|
D|--------|--------|-------------|-------------|-4----------------------------4-----|
A|--------|--------|-------------|-------------|------7--6--4-----------------2-----|
E|--------|--------|-------------|-------------|---------------7--6--4--2--0--------|


E|-------------|-------------|-------------|-------------|-------------|-------------|
B|-------------|-------------|-------------|-------------|-------------|-------------|
G|-------2-----|-------------|-------------|-------4-----|-------2-----|-------------|
D|-------2-----|-------6-----|-------4-----|-2-----4-----|-------2-----|-------6-----|
A|-------0-----|-------6-----|-------4-----|-2-----2-----|-------0-----|-------6-----|
E|-------------|-------4-----|-------2-----|-0-----------|-------------|-------4-----|


E|-------------|-------------|-------------|-------------|-------------|-------------|
B|-------------|-------------|-------------|-------------|-------------|-------------|
G|-------------|-------------|-------5-----|-------7-----|-------------|-7-----5-----|
D|-------4-----|-2-----5-----|-------5-----|-------7-----|-------2-----|-7-----5-----|
A|-------4-----|-2-----5-----|-------3-----|-------9-----|-------2-----|-5-----3-----|
E|-------2-----|-0-----3-----|-------------|-------------|-------0-----|-------------|


E|-------------|----------------------------------|----------------------------------------------|
B|-------5-----|-4--------------------------------|----------------------------------------------|
G|-------4-----|-4--------------------------------|----------------------------------------------|
D|-------4-----|-4--------------------------------|----------------------------------4----4---4--|
A|-------2-----|-2-------------5--7-----7---5-----|---------5--7-----7---5-----5--2--4----4---4--|
E|-------------|-------0----7------------------7--|-0----7------------------7--------2----2---2--|


E|-----------------------|-----------------|---------------------|-----------------|
B|-----------------------|-----------------|---------------------|-----------------|
G|-----------------------|-----------------|-------4----3--------|-------4-----2---|
D|----4---4----------6---|-------6-----6---|-------4----4----2---|-------4-----2---|
A|----4---4----------6---|-------7-----6---|-------4----4----2---|-------2-----0---|
E|----2---2----------4---|-------4-----4---|-------2----2----0---|-----------------|


E|---------------------|-----------------|---------------------|-----------------|
B|---------------------|-----------------|---------------------|-----------------|
G|-------4----3--------|-----------------|-------4----3--------|-------4-----2---|
D|-------4----4----6---|-------6-----6---|-------4----4----2---|-------4-----2---|
A|-------4----4----6---|-------7-----6---|-------4----4----2---|-------2-----0---|
E|-------2----2----4---|-------4-----4---|-------2----2----0---|-----------------|


E|-------------------|----------0-----------------------0--------------|----------0-----------------0--------------------|
B|-------------------|----0--------0--------------0--------0-----------|----0--------0-----------------0-----------------|
G|-------4-----------|-6--------------6--------8--------------8--------|-9--------------9-----------------8--------------|
D|-------4--------6--|-------6--------------9--------9--------------9--|-------9-----------------9-----------9--------6--|
A|-------2-----4-----|-------------------6-----------------------7-----|----------------------9-----------------9--4-----|
E|-------------------|-------------------------------------------------|-------------------7-----------------------------|


E|----------0-----------------------0--------------|----------0------------------|
B|----0--------0--------------0--------0-----------|----0--------0-----0-----0---|
G|-6--------------6--------8--------------8--------|-9--------------9--3-----3---|
D|-------6--------------9--------9--------------9--|-------9-----------4-----4---|
A|-------------------6-----------------------7-----|-------------------4-----4---|
E|-------------------------------------------------|-------------------2-----2---|


E|--------|--------|--------|--------|--------|--------|--------|--------|--------|
B|--------|--------|--------|--------|--------|--------|--------|--------|--------|
G|--------|--------|--------|--------|--------|--------|--------|--------|--------|
D|--------|--------|--------|--------|--------|--------|--------|--------|--------|
A|--------|--------|--------|--------|--------|--------|--------|--------|--------|
E|--------|--------|--------|--------|--------|--------|--------|--------|--------|


E|--------|--------|--------|--------|--------|--------|--------|--------|
B|--------|--------|--------|--------|--------|--------|--------|--------|
G|--------|--------|--------|--------|--------|--------|--------|--------|
D|--------|--------|--------|--------|--------|--------|--------|--------|
A|--------|--------|--------|--------|--------|--------|--------|--------|
E|--------|--------|--------|--------|--------|--------|--------|--------|





Track 3: Sax

E|--------|--------|--------|--------|--------|--------|--------|--------|--------|
B|--------|--------|--------|--------|--------|--------|--------|--------|--------|
G|--------|--------|--------|--------|--------|--------|--------|--------|--------|
D|--------|--------|--------|--------|--------|--------|--------|--------|--------|
A|--------|--------|--------|--------|--------|--------|--------|--------|--------|
E|--------|--------|--------|--------|--------|--------|--------|--------|--------|


E|--------|--------|--------|--------|--------|--------|--------|--------|--------|
B|--------|--------|--------|--------|--------|--------|--------|--------|--------|
G|--------|--------|--------|--------|--------|--------|--------|--------|--------|
D|--------|--------|--------|--------|--------|--------|--------|--------|--------|
A|--------|--------|--------|--------|--------|--------|--------|--------|--------|
E|--------|--------|--------|--------|--------|--------|--------|--------|--------|


E|--------|--------|----------------------|----------------------------|--------------------------------|
B|--------|--------|-------12---11--------|----------------------------|--------------------------------|
G|--------|--------|----------------13-8--|-------8---8----------8--6--|--------------------------------|
D|--------|--------|----------------------|----------------6--9--------|-----9--8----9--11-9----9---11--|
A|--------|--------|----------------------|----------------------------|--------------------------------|
E|--------|--------|----------------------|----------------------------|--------------------------------|


E|-------------------------------|-14----------|--------|-------------|----------------19-|
B|-------------------------11-12-|-------------|--------|-------------|-------------------|
G|------------11--13---13--------|-------------|--------|-------------|-------------------|
D|-8----8--9---------------------|-------------|--------|-------------|-------------------|
A|-------------------------------|-------------|--------|-------------|-------------------|
E|-------------------------------|-------------|--------|-------------|-------------------|


E|-19------------------------|-------------|--------|--------|--------|--------|--------|
B|----19-19-17-17---16-------|-------------|--------|--------|--------|--------|--------|
G|---------------------16----|-------------|--------|--------|--------|--------|--------|
D|---------------------------|-------------|--------|--------|--------|--------|--------|
A|---------------------------|-------------|--------|--------|--------|--------|--------|
E|---------------------------|-------------|--------|--------|--------|--------|--------|


E|--------|--------|--------|--------|--------|--------|--------|--------|--------|
B|--------|--------|--------|--------|--------|--------|--------|--------|--------|
G|--------|--------|--------|--------|--------|--------|--------|--------|--------|
D|--------|--------|--------|--------|--------|--------|--------|--------|--------|
A|--------|--------|--------|--------|--------|--------|--------|--------|--------|
E|--------|--------|--------|--------|--------|--------|--------|--------|--------|


E|--------|--------|--------|--------|--------|--------|--------|--------|--------|
B|--------|--------|--------|--------|--------|--------|--------|--------|--------|
G|--------|--------|--------|--------|--------|--------|--------|--------|--------|
D|--------|--------|--------|--------|--------|--------|--------|--------|--------|
A|--------|--------|--------|--------|--------|--------|--------|--------|--------|
E|--------|--------|--------|--------|--------|--------|--------|--------|--------|


E|--------|--------|--------|--------|--------|--------|--------|--------|--------|
B|--------|--------|--------|--------|--------|--------|--------|--------|--------|
G|--------|--------|--------|--------|--------|--------|--------|--------|--------|
D|--------|--------|--------|--------|--------|--------|--------|--------|--------|
A|--------|--------|--------|--------|--------|--------|--------|--------|--------|
E|--------|--------|--------|--------|--------|--------|--------|--------|--------|


E|--------|--------|--------|--------|--------|--------|--------|--------|--------|
B|--------|--------|--------|--------|--------|--------|--------|--------|--------|
G|--------|--------|--------|--------|--------|--------|--------|--------|--------|
D|--------|--------|--------|--------|--------|--------|--------|--------|--------|
A|--------|--------|--------|--------|--------|--------|--------|--------|--------|
E|--------|--------|--------|--------|--------|--------|--------|--------|--------|


E|--------|--------|--------|--------|--------|--------|--------|--------|--------|
B|--------|--------|--------|--------|--------|--------|--------|--------|--------|
G|--------|--------|--------|--------|--------|--------|--------|--------|--------|
D|--------|--------|--------|--------|--------|--------|--------|--------|--------|
A|--------|--------|--------|--------|--------|--------|--------|--------|--------|
E|--------|--------|--------|--------|--------|--------|--------|--------|--------|


E|--------|--------|
B|--------|--------|
G|--------|--------|
D|--------|--------|
A|--------|--------|
E|--------|--------|





Track 4: Acoustic

E|--------|--------|--------|--------|--------|--------|--------|--------|--------|
B|--------|--------|--------|--------|--------|--------|--------|--------|--------|
G|--------|--------|--------|--------|--------|--------|--------|--------|--------|
D|--------|--------|--------|--------|--------|--------|--------|--------|--------|
A|--------|--------|--------|--------|--------|--------|--------|--------|--------|
E|--------|--------|--------|--------|--------|--------|--------|--------|--------|


E|--------|--------|--------|--------|--------|--------|--------|--------|--------|
B|--------|--------|--------|--------|--------|--------|--------|--------|--------|
G|--------|--------|--------|--------|--------|--------|--------|--------|--------|
D|--------|--------|--------|--------|--------|--------|--------|--------|--------|
A|--------|--------|--------|--------|--------|--------|--------|--------|--------|
E|--------|--------|--------|--------|--------|--------|--------|--------|--------|


E|--------|--------|--------|--------|--------|--------|--------|--------|--------|
B|--------|--------|--------|--------|--------|--------|--------|--------|--------|
G|--------|--------|--------|--------|--------|--------|--------|--------|--------|
D|--------|--------|--------|--------|--------|--------|--------|--------|--------|
A|--------|--------|--------|--------|--------|--------|--------|--------|--------|
E|--------|--------|--------|--------|--------|--------|--------|--------|--------|


E|--------|--------|--------|--------|--------|--------|--------|--------|--------|
B|--------|--------|--------|--------|--------|--------|--------|--------|--------|
G|--------|--------|--------|--------|--------|--------|--------|--------|--------|
D|--------|--------|--------|--------|--------|--------|--------|--------|--------|
A|--------|--------|--------|--------|--------|--------|--------|--------|--------|
E|--------|--------|--------|--------|--------|--------|--------|--------|--------|


E|--------|--------|--------|--------|--------|--------|--------|--------|--------|
B|--------|--------|--------|--------|--------|--------|--------|--------|--------|
G|--------|--------|--------|--------|--------|--------|--------|--------|--------|
D|--------|--------|--------|--------|--------|--------|--------|--------|--------|
A|--------|--------|--------|--------|--------|--------|--------|--------|--------|
E|--------|--------|--------|--------|--------|--------|--------|--------|--------|


E|--------|--------|--------|--------|--------|-------------|-----------------|-----------------|
B|--------|--------|--------|--------|--------|-------------|-----------------|-------11--------|
G|--------|--------|--------|--------|--------|-------------|-----------------|-----------------|
D|--------|--------|--------|--------|--------|-------------|-----------------|-----------------|
A|--------|--------|--------|--------|--------|-------------|-----------------|-----------------|
E|--------|--------|--------|--------|--------|-------------|-----------------|-----------------|


E|--------|--------|--------|--------|--------|--------|--------|--------|--------|
B|--------|--------|--------|--------|--------|--------|--------|--------|--------|
G|--------|--------|--------|--------|--------|--------|--------|--------|--------|
D|--------|--------|--------|--------|--------|--------|--------|--------|--------|
A|--------|--------|--------|--------|--------|--------|--------|--------|--------|
E|--------|--------|--------|--------|--------|--------|--------|--------|--------|


E|--------|--------|--------|--------|--------|--------|--------|--------|--------|
B|--------|--------|--------|--------|--------|--------|--------|--------|--------|
G|--------|--------|--------|--------|--------|--------|--------|--------|--------|
D|--------|--------|--------|--------|--------|--------|--------|--------|--------|
A|--------|--------|--------|--------|--------|--------|--------|--------|--------|
E|--------|--------|--------|--------|--------|--------|--------|--------|--------|


E|--------|--------|--------|--------|--------|--------|--------|--------|--------|
B|--------|--------|--------|--------|--------|--------|--------|--------|--------|
G|--------|--------|--------|--------|--------|--------|--------|--------|--------|
D|--------|--------|--------|--------|--------|--------|--------|--------|--------|
A|--------|--------|--------|--------|--------|--------|--------|--------|--------|
E|--------|--------|--------|--------|--------|--------|--------|--------|--------|


E|--------|--------|
B|--------|--------|
G|--------|--------|
D|--------|--------|
A|--------|--------|
E|--------|--------|





Track 5: Lead

E|--------|--------|--------|--------|--------|--------|--------|--------|--------|
B|--------|--------|--------|--------|--------|--------|--------|--------|--------|
G|--------|--------|--------|--------|--------|--------|--------|--------|--------|
D|--------|--------|--------|--------|--------|--------|--------|--------|--------|
A|--------|--------|--------|--------|--------|--------|--------|--------|--------|
E|--------|--------|--------|--------|--------|--------|--------|--------|--------|


E|--------|--------|--------|--------|--------|--------|--------|--------|--------|
B|--------|--------|--------|--------|--------|--------|--------|--------|--------|
G|--------|--------|--------|--------|--------|--------|--------|--------|--------|
D|--------|--------|--------|--------|--------|--------|--------|--------|--------|
A|--------|--------|--------|--------|--------|--------|--------|--------|--------|
E|--------|--------|--------|--------|--------|--------|--------|--------|--------|


E|--------|--------|--------|--------|--------|--------|--------|--------|--------|
B|--------|--------|--------|--------|--------|--------|--------|--------|--------|
G|--------|--------|--------|--------|--------|--------|--------|--------|--------|
D|--------|--------|--------|--------|--------|--------|--------|--------|--------|
A|--------|--------|--------|--------|--------|--------|--------|--------|--------|
E|--------|--------|--------|--------|--------|--------|--------|--------|--------|


E|--------|--------|--------|--------|--------|--------|--------|--------|--------|
B|--------|--------|--------|--------|--------|--------|--------|--------|--------|
G|--------|--------|--------|--------|--------|--------|--------|--------|--------|
D|--------|--------|--------|--------|--------|--------|--------|--------|--------|
A|--------|--------|--------|--------|--------|--------|--------|--------|--------|
E|--------|--------|--------|--------|--------|--------|--------|--------|--------|


E|--------|--------|--------|--------|--------|--------|--------|--------|--------|
B|--------|--------|--------|--------|--------|--------|--------|--------|--------|
G|--------|--------|--------|--------|--------|--------|--------|--------|--------|
D|--------|--------|--------|--------|--------|--------|--------|--------|--------|
A|--------|--------|--------|--------|--------|--------|--------|--------|--------|
E|--------|--------|--------|--------|--------|--------|--------|--------|--------|


E|--------|--------|--------|--------|--------|--------|--------|----------------|
B|--------|--------|--------|--------|--------|--------|--------|------------12--|
G|--------|--------|--------|--------|--------|--------|--------|----------------|
D|--------|--------|--------|--------|--------|--------|--------|----------------|
A|--------|--------|--------|--------|--------|--------|--------|----------------|
E|--------|--------|--------|--------|--------|--------|--------|----------------|


E|----------------------------|-------------------------------------|---------------------------------------|
B|------11-9--11----9--12-12--|-----12---111211---------------------|----12---------------------------------|
G|----------------------------|-----------------11------------8-9---|---------8---8----8-9-11--9-8----------|
D|----------------------------|--------------------11---8-9-11------|------------------------------11-119-7-|
A|----------------------------|-------------------------------------|---------------------------------------|
E|----------------------------|-------------------------------------|---------------------------------------|


E|---------------------------------------------------16181921--|-----23---23-------19-21-21--|
B|---------------------------------------------161719----------|----------------21-----------|
G|---------------------------131516------151618----------------|-----------------------------|
D|----7----------------131416------141618----------------------|-----------------------------|
A|-11----11-9--9---9-------------------------------------------|-----------------------------|
E|-------------------------------------------------------------|-----------------------------|


E|-----24---21---19-18--19-21-19-16----|-----------------------------------------------19-17--|
B|---------------------------------1916|----19-16----------------------------------1921-------|
G|-------------------------------------|-18------1816---18-16-16----16-------16-20------------|
D|-------------------------------------|-------------18----------16---1816--------------------|
A|-------------------------------------|----------------------------------18------------------|
E|-------------------------------------|------------------------------------------------------|


E|---21----19----16----14----11----9-----------------------------------------|----------------|
B|-19--1917--1714--1412--129---9-7---7-9-7-5-7-5-3-5-4-5-0-4-5-125-4-0-2-----|----------------|
G|-----------------------------------------------------------------------6---|----------------|
D|---------------------------------------------------------------------------|----------------|
A|---------------------------------------------------------------------------|----------------|
E|---------------------------------------------------------------------------|----------------|


E|--------|--------|--------|--------|--------|--------|--------|--------|--------|
B|--------|--------|--------|--------|--------|--------|--------|--------|--------|
G|--------|--------|--------|--------|--------|--------|--------|--------|--------|
D|--------|--------|--------|--------|--------|--------|--------|--------|--------|
A|--------|--------|--------|--------|--------|--------|--------|--------|--------|
E|--------|--------|--------|--------|--------|--------|--------|--------|--------|


E|--------|--------|--------|--------|--------|--------|--------|--------|--------|
B|--------|--------|--------|--------|--------|--------|--------|--------|--------|
G|--------|--------|--------|--------|--------|--------|--------|--------|--------|
D|--------|--------|--------|--------|--------|--------|--------|--------|--------|
A|--------|--------|--------|--------|--------|--------|--------|--------|--------|
E|--------|--------|--------|--------|--------|--------|--------|--------|--------|


E|--------|--------|
B|--------|--------|
G|--------|--------|
D|--------|--------|
A|--------|--------|
E|--------|--------|





Track 6: Piano

E|--------------------------------|-----------------------------------|--------------------------------|
B|-0--------------0--0------------|-0--------------0--0---------------|-0--------------0--0------------|
G|------3--3-------------3--------|------3--3-------------3---3-------|------3--3-------------3--------|
D|------------4--------------4----|------------4------------------4---|------------4--------------4----|
A|--------------------------------|-----------------------------------|--------------------------------|
E|--------------------------------|-----------------------------------|--------------------------------|


E|-----------------------------------|-------------|-----------------|-------------|
B|-0--------------0--0---------------|-------------|-------5---------|-------------|
G|------3--3-------------3---3-------|-4-----3-----|-1-----6----3----|-4-----3-----|
D|------------4------------------4---|-6-----4-----|-2-----6----4----|-6-----4-----|
A|-----------------------------------|-6-----4-----|-2-----4----4----|-6-----4-----|
E|-----------------------------------|-4-----2-----|-0----------2----|-4-----2-----|


E|-------------|-----------------------|---------------------------------|---------2-------4---------------|
B|-6-----------|-------4-------4-------|-5-------5-------4-------4-------|-2-------2-------5-------5-------|
G|-6-----1-----|-------4-------4-------|-4-------4-------4-------4-------|-4-------3-------4-------4-------|
D|-6-----2-----|-------6---6---6---6---|-6---6---6---6---6---6---6---6---|-4---4-------4-------6-------6---|
A|-4-----2-----|-----------------------|---------------------------------|---------------------------------|
E|-------0-----|-------4---------------|-4---------------4---------------|-2---------------0---------------|


E|-2---------------0-------0-------|----------------------------4------|------------4-----------------4------|
B|-4-------4-------2-------2-------|-2-------2-------4-----------------|-5-----------------4-----------------|
G|-4-------4-------2---2-------2---|-4-------3-------4------4----------|-4------4----------4------4----------|
D|-4---4-------4-------------------|-4---4-------4---6---6---------6---|-6---6---------6---6---6---------6---|
A|-2---------------0---------------|-----------------------------------|-------------------------------------|
E|---------------------------------|-2---------------4-----------------|-4-----------------4-----------------|


E|---------2-------4---------------|-2---------------0-------0-------|-4---------------------0---|
B|-2-------2-------5-------5-------|-4-------4-------2-------2-------|-5-----------------0-------|
G|-4-------3-------4-------4-------|-4-------4-------2---2-------2---|-4-----------6-------------|
D|-4---4-------4-------6-------6---|-4---4-------4-------------------|----------6-----6----------|
A|---------------------------------|-2---------------0---------------|-------4-------------------|
E|-2---------------0---------------|---------------------------------|-0-------------------------|


E|---------------0-----------------0---|----------0--------------------------0---|
B|-----------0-----------------0-------|-------4-----4-------------------0-------|
G|-------8-----------------9-----------|----4------------4---------6-------------|
D|----9-----------------9--------------|------------------------6-----6----------|
A|-6-----------------7-----------------|-2-------------------4-------------------|
E|-------------------------------------|-----------------------------------------|


E|---------------0-----------------0---|---------------------------|-------------|
B|-----------0-----------------0-------|----------0----------------|-------------|
G|-------8-----------------9-----------|-------3-----3-------4-----|-3-----1-----|
D|----9-----------------9--------------|----4------------4---6-----|-4-----2-----|
A|-6-----------------7-----------------|---------------------6-----|-4-----2-----|
E|-------------------------------------|-2-------------------4-----|-2-----0-----|


E|-----------------|-------------|-------------|--------|--------|--------|--------|
B|-5---------------|-------6-----|-------------|--------|--------|--------|--------|
G|-6----3----4-----|-3-----6-----|-1-----------|--------|--------|--------|--------|
D|-6----4----6-----|-4-----6-----|-2-----------|--------|--------|--------|--------|
A|-4----4----6-----|-4-----4-----|-2-----------|--------|--------|--------|--------|
E|------2----4-----|-2-----------|-0-----------|--------|--------|--------|--------|


E|--------|--------|-------------|-----------------------0---|---------------0-----------------0---|
B|--------|--------|-------------|-------------------0-------|-----------0-----------------0-------|
G|--------|--------|-------------|-------------6-------------|-------8-----------------9-----------|
D|--------|--------|-------------|----------6-----6----------|----9-----------------9--------------|
A|--------|--------|-------------|-------4-------------------|-6-----------------7-----------------|
E|--------|--------|-------------|---------------------------|-------------------------------------|


E|----------0--------------------------0---|---------------0-----------------0---|
B|-------4-----4-------------------0-------|-----------0-----------------0-------|
G|----4------------4---------6-------------|-------8-----------------9-----------|
D|------------------------6-----6----------|----9-----------------9--------------|
A|-2-------------------4-------------------|-6-----------------7-----------------|
E|-----------------------------------------|-------------------------------------|


E|------------11---|-12---11--------11---|-12---11--------11---|-12---11-------7---11--12--|
B|------------4----|-5----4---------4----|-5----4---------4----|-5----4------------4---5---|
G|-3---------------|---------------------|---------------------|---------------4-----------|
D|-4---------------|---------------------|---------------------|---------------------------|
A|-4---------------|---------------------|---------------------|---------------------------|
E|-2---------------|---------------------|---------------------|---------------------------|


E|-----7---11--12-------11---|-12---11--------11---|-12---11--------11---|-12---11---------|
B|---------4---5--------4----|-5----4---------4----|-5----4---------4----|-5----4----------|
G|-----4---------------------|---------------------|---------------------|-----------------|
D|---------------------------|---------------------|---------------------|-----------------|
A|---------------------------|---------------------|---------------------|-----------------|
E|---------------------------|---------------------|---------------------|-----------------|


E|-------------|-----------------------|-----------------2-----|-------------2----------------|
B|-------------|-----------------------|-------------1---------|------------------------------|
G|-------------|-------------4---0-----|---------0-------2-----|---------2-------1--------1---|
D|-------5-----|---------5-------2-----|-----2-----------0-----|-----0-----------2--------2---|
A|-------5-----|-----5-----------3-----|-3---------------------|-----------------2----2-------|
E|-------3-----|-3---------------------|-----------------2-----|-2---------------0----0-------|


E|-2--------2---------|-----------------------|-------------|-----------------------|
B|-3--------3---------|-------------1---5-----|-4-----------|-----------------------|
G|-2----2-------0-----|---------0-------4-----|-4-----------|-----------------------|
D|-0----0-------2-----|-----2-----------4-----|-4-----2-----|-2-----2---4----4---4--|
A|--------------3-----|-3---------------2-----|-2-----2-----|-2-----2---4----4---4--|
E|--------------------|-----------------------|-------0-----|-0-----0---2----2---2--|


E|--------------------------|---------------------------------|---------------------2-------4---|
B|----------------------4---|-----4-------5-------5-------4---|-----4-------2-------2-------5---|
G|----------------------4---|-----4-------4-------4-------4---|-----4-------4-------3-------4---|
D|----4---4-------------6---|-6---6---6---6---6---6---6---6---|-6---6---6---4---4-------4-------|
A|----4---4-----------------|---------------------------------|---------------------------------|
E|----2---2-------------4---|-------------4---------------4---|-------------2---------------0---|


E|-------------2---------------0---|-----0---------------------------|--------4-----------------4----------|
B|-----5-------4-------4-------2---|-----2-------2-------2-------4---|---------------5-----------------4---|
G|-----4-------4-------4-------2---|-2-------2---4-------3-------4---|----4----------4------4----------4---|
D|-6-------6---4---4-------4-------|-------------4---4-------4---6---|-6---------6---6---6---------6---6---|
A|-------------2---------------0---|---------------------------------|-------------------------------------|
E|---------------------------------|-------------2---------------4---|---------------4-----------------4---|


E|--------4--------------2-------4---|-------------2---------------0---|-----0-------2-----2---------|
B|---------------2-------2-------5---|-----5-------4-------4-------2---|-----2-------4-----4---------|
G|----4----------4-------3-------4---|-----4-------4-------4-------2---|-2-------2---4-----4---------|
D|-6---------6---4---4-------4-------|-6-------6---4---4-------4-------|-------------4-----4------6--|
A|-----------------------------------|-------------2---------------0---|-------------2---------4-----|
E|---------------2---------------0---|---------------------------------|-----------------------------|


E|-----------0-----------------0---------|---------0------------0----------------|
B|-------0-----------------0-------------|-----0-------------4-----4-------------|
G|-6-------------------8-----------------|-9--------------4------------4---------|
D|----6-------------9-----------------9--|------------------------------------6--|
A|---------------6-----------------7-----|-------------2-------------------4-----|
E|---------------------------------------|---------------------------------------|


E|-----------0-----------------0---------|---------0-------------|----------------|
B|-------0-----------------0-------------|-----0-------0-----0---|------------0---|
G|-6-------------------8-----------------|-9-----------3-----3---|----------------|
D|----6-------------9-----------------9--|-------------4-----4---|----------------|
A|---------------6-----------------7-----|-----------------------|----------------|
E|---------------------------------------|-------------2-----2---|----------------|


E|----------------------------------|-------------------------------------|----------------------------------|
B|--------------0--0------------0---|--------------0--0---------------0---|--------------0--0------------0---|
G|----3--3-------------3------------|----3--3-------------3---3-----------|----3--3-------------3------------|
D|----------4--------------4--------|----------4------------------4-------|----------4--------------4--------|
A|----------------------------------|-------------------------------------|----------------------------------|
E|----------------------------------|-------------------------------------|----------------------------------|


E|-------------------------------------|----------------------------------|-------------------------------------|
B|--------------0--0---------------0---|--------------0--0------------0---|--------------0--0---------------0---|
G|----3--3-------------3---3-----------|----3--3-------------3------------|----3--3-------------3---3-----------|
D|----------4------------------4-------|----------4--------------4--------|----------4------------------4-------|
A|-------------------------------------|----------------------------------|-------------------------------------|
E|-------------------------------------|----------------------------------|-------------------------------------|


E|----------------------------------|-------------------------------------|----------------------------------|
B|--------------0--0------------0---|--------------0--0---------------0---|--------------0--0------------0---|
G|----3--3-------------3------------|----3--3-------------3---3-----------|----3--3-------------3------------|
D|----------4--------------4--------|----------4------------------4-------|----------4--------------4--------|
A|----------------------------------|-------------------------------------|----------------------------------|
E|----------------------------------|-------------------------------------|----------------------------------|


E|-------------------------------------|----------------------------------|-------------------------------------|
B|--------------0--0---------------0---|--------------0--0------------0---|--------------0--0-------------------|
G|----3--3-------------3---3-----------|----3--3-------------3------------|----3--3-------------3---3-----------|
D|----------4------------------4-------|----------4--------------4--------|----------4------------------4-------|
A|-------------------------------------|----------------------------------|-------------------------------------|
E|-------------------------------------|----------------------------------|-------------------------------------|


E|--------|--------|--------|--------|
B|--------|--------|--------|--------|
G|--------|--------|--------|--------|
D|--------|--------|--------|--------|
A|--------|--------|--------|--------|
E|--------|--------|--------|--------|





Track 7: Bass

G|------------------------|------------------------|------------------------|------------------------|
D|------------------------|------------------------|------------------------|------------------------|
A|------------------------|-----------4--4---------|------------------------|-----------4--4---------|
E|-4----4----2--2-----2---|-0----0------------2----|-4----4----2--2-----2---|-0----0------------2----|


G|-------------|-----------------|-------------|-------------|-------------|-------------|
D|-------------|-----------------|-------------|-------------|-------------|-------------|
A|-------------|-------4---------|-------------|-4-----------|-------------|-------------|
E|-4-----2-----|-0----------2----|-4-----2-----|-------0-----|-------4-----|-4-----4-----|


G|-------------|-------------|-------------|-------------|-------------|-------------|
D|-------------|-------------|-------------|-------------|-------------|-------------|
A|-------------|-2-----0-----|-------------|-------------|-------------|-2-----0-----|
E|-2-----0-----|-------------|-2-----4-----|-4-----4-----|-2-----0-----|-------------|


G|-------------|-------------|-------------|-------------|--------------------|-------------|
D|-------------|-------------|-------------|-------------|--------------------|-------------|
A|-------4-----|-6-----7-----|-2-----4-----|-6-----7-----|--------------------|-------------|
E|-0-----------|-------------|-------------|-------------|-2----2---2---4-----|-2-----0-----|


G|-----------------|-------------|----------------|----------------------|--------------------|
D|-----------------|-------------|----------------|----------------------|--------------------|
A|-4---------------|-------4-----|----------------|-------------------2--|------2-------------|
E|------2----4-----|-2-----------|-0-----4-----4--|----------4--4--------|---------2----0-----|


G|-----------------|--------------------|----------------------|--------------------|
D|-----------------|--------------------|----------------------|--------------------|
A|-2-----0---------|--------------------|-------------------2--|------2-------------|
E|-------------2---|------0----4-----4--|----------4--4--------|---------2----0-----|


G|-------------|-----------------------|---------------------------------|---------------------------------|
D|-------------|-----------------------|---------------------------------|---------------------------------|
A|-2-----0-----|-------4---4---4---4---|-6---6---6---6---7---7---7---7---|-2---2---2---2---4---4---4---4---|
E|-------------|-0---------------------|---------------------------------|---------------------------------|


G|---------------------------------|-------------|-------------|-------------|-------------|
D|---------------------------------|-------------|-------------|-------------|-------------|
A|-6---6---6---6---7---7---7---7---|-------2-----|-------0-----|-------------|-------------|
E|---------------------------------|-2-----------|-------------|-------4-----|-------2-----|


G|-------------|-------------|-------------|-------------|-------------|--------------------|
D|-------------|-------------|-------------|-------------|-------------|--------------------|
A|-------2-----|-------0-----|-------------|-------------|-------------|--------------3-----|
E|-0-----------|-------------|-------4-----|-------2-----|-0-----3-----|------3---3---------|


G|--------------------|---------------------------|--------------------|--------------------|
D|--------------------|---------------------------|--------------------|--------------------|
A|------3---3---------|---------------------------|-5----5---5---3-----|------3---3---2-----|
E|--------------2-----|------2---2---0----0---0---|--------------------|--------------------|


G|----------------------------------|----------------------------------------------|
D|------------------2---------------|------------2---------------------------------|
A|-2----------2--5--------7---5--2--|------2--5--------7---5--2--5--2--------------|
E|-------0--------------------------|-0--------------------------------2----2---2--|


G|--------------------------|-----------------|-----------------|-----------------|
D|--------------------------|-----------------|-----------------|-----------------|
A|--------------------------|-----------------|-----------------|-------2-----0---|
E|----2---2-------------4---|-------4-----4---|-------2-----0---|-----------------|


G|-----------------|-----------------|-----------------|-----------------|-------------------|
D|-----------------|-----------------|-----------------|-----------------|-------------------|
A|-----------------|-----------------|-----------------|-------2-----0---|-------2-----4--4--|
E|-------2-----4---|-------4-----4---|-------2-----0---|-----------------|-------------------|


G|-------------------------------------------------|-------------------------------------------------|
D|-------------------------------------------------|-------------------------------------------------|
A|-4--4--4--4--4--4--6--6--6--6--6--6--6--6--7--7--|-7--7--7--7--7--7--2--2--2--2--2--2--2--2--4--4--|
E|-------------------------------------------------|-------------------------------------------------|


G|-------------------------------------------------|-----------------------------|
D|-------------------------------------------------|-----------------------------|
A|-4--4--4--4--4--4--6--6--6--6--6--6--6--6--7--7--|-7--7--7--7--7--7------------|
E|-------------------------------------------------|-------------------2-----2---|


G|----------------|---------------------------|---------------------------|---------------------------|
D|----------------|---------------------------|---------------------------|---------------------------|
A|----------------|---------------------------|----------4--4-------------|---------------------------|
E|------------4---|-----4----2--2-----2---0---|-----0------------2----4---|-----4----2--2-----2---0---|


G|---------------------------|---------------------------|---------------------------|
D|---------------------------|---------------------------|---------------------------|
A|----------4--4-------------|---------------------------|----------4--4-------------|
E|-----0------------2----4---|-----4----2--2-----2---0---|-----0------------2----4---|


G|---------------------------|---------------------------|---------------------------|
D|---------------------------|---------------------------|---------------------------|
A|---------------------------|----------4--4-------------|---------------------------|
E|-----4----2--2-----2---0---|-----0------------2----4---|-----4----2--2-----2---0---|


G|---------------------------|---------------------------|---------------------------|
D|---------------------------|---------------------------|---------------------------|
A|----------4--4-------------|---------------------------|----------4--4-------------|
E|-----0------------2----4---|-----4----2--2-----2---0---|-----0------------2--------|


G|--------|--------|--------|--------|
D|--------|--------|--------|--------|
A|--------|--------|--------|--------|
E|--------|--------|--------|--------|