Menu:

 

Search:

 

dream theater - a change of seasons pt vi the inevitable summer:

 



Title: A Change of Seasons VI: The Inevitable Summer
Artist: 
Album: A Change of Seasons
Author: Dream Theater


Track 1: Distortion Gutiar_Petrucci

E|----------------|--------------------------|--------|----------------------|---------------------|
B|----------------|--------------------------|--------|----------------------|---------------------|
G|----------------|----------------7--9--9---|-9------|-9-----7--9--7--6-----|-------6-------------|
D|----------------|------------9-------------|--------|----------------------|---------------------|
A|-2---2----------|--------------------------|--------|----------------------|---------------------|
E|-2---2----------|--------------------------|--------|----------------------|---------------------|
B|-0---0----------|--------------------------|--------|----------------------|---------------------|


E|---------------------------------|-------------|-------------------|---------12----------10--------------|
B|---------------------------------|-------------|------------12-----|-----10----------7-----------10------|
G|------4--6--6---6---6-6-7-6-4----|--------4----|-------------------|-------------------------7-------9---|
D|---------------------------------|-------------|--------9----------|-------------------------------------|
A|---------------------------------|-------------|-------------------|-------------------------------------|
E|---------------------------------|-------------|-------------------|-------------------------------------|
B|---------------------------------|-------------|-------------------|-------------------------------------|


E|--------|----------------------------|------------------|-------------|-----------------------|
B|--------|----------------7-----------|------------------|-------------|---------------12--14--|
G|-9------|-9--------------7--9--9--7--|------------------|-------------|-----------11----------|
D|--------|----------------------------|-9--7-------------|-------------|-----------------------|
A|--------|----------------------------|-------9---9------|-------------|-----------------------|
E|--------|----------------------------|------------------|-------------|-----------------------|
B|--------|----------------------------|------------------|------0------|-----------------------|


E|----------------|-------------------------|----------------------|-------------------------|
B|-14-----12------|---------------10-12-12--|-12----12-10-10--10---|-------------------------|
G|------------11--|-----------11------------|----------------------|---------------7--9--9---|
D|----------------|-------------------------|----------------------|-----------9-------------|
A|----------------|-------------------------|----------------------|-------------------------|
E|----------------|-------------------------|----------------------|-------------------------|
B|----------------|-------------------------|----------------------|-------------------------|


E|-----------------------------------|-------------10------------|---------------------------------|
B|------7---8---8---7--8--7----------|---------------------------|-8-----------12--12--12--12------|
G|-9-------------------------9-------|-----11--11----------------|-----------------------------11--|
D|-----------------------------------|-----------------------9---|-----9---12--12--12--12--12------|
A|-----------------------------------|---------------------------|---------------------------------|
E|-----------------------------------|---------------------------|---------------------------------|
B|-----------------------------------|---------------------------|---------------------------------|


E|----------------|-------------14--14---14---|-14--12-10-12---12--10---------|--------------------|
B|-12--14--14-----|-14------------------------|-----------------------12-10---|----------10--11----|
G|----------------|-----11--12----------------|-------------------------------|------12------------|
D|----------------|---------------------------|-------------------------------|--------------------|
A|----------------|---------------------------|-------------------------------|--------------------|
E|----------------|---------------------------|-------------------------------|--------------------|
B|----------------|---------------------------|-------------------------------|--------------------|


E|-----------------------------|----10-13--13---13--12-10-11--11--|-10--------------10------|
B|-11--10------------------10--|-13-------------------------------|----13-10----11------12--|
G|--------12-10----10--12------|----------------------------------|-------------------------|
D|-----------------------------|----------------------------------|-------------------------|
A|-----------------------------|----------------------------------|-------------------------|
E|-----------------------------|----------------------------------|-------------------------|
B|-----------------------------|----------------------------------|-------------------------|


E|--------10------|----------------|---------------19------17--|-----15--15--15------17--17------|
B|-12---------12--|-12-----12--10--|------17---17--17--17--17--|-17--17--17--17--15--------------|
G|----------------|----------------|---------------------------|---------------------------------|
D|----------------|----------------|---------------------------|---------------------------------|
A|----------------|----------------|---------------------------|---------------------------------|
E|----------------|----------------|---------------------------|---------------------------------|
B|----------------|----------------|---------------------------|---------------------------------|


E|-----------------------------------------------|-----------------------------------|
B|-15--15--12------------------12----------------|---------------------15-15------14-|
G|------------11-14------14-14----14-11----11----|---------------14-16---------16----|
D|--------------------------------------14----12-|------12-14-16---------------------|
A|-----------------------------------------------|-14--------------------------------|
E|-----------------------------------------------|-----------------------------------|
B|-----------------------------------------------|-----------------------------------|


E|-------------------------------------------------|---------------------------|-------------------------------------|
B|-15-15-14----14----------------------------------|---------------------------|---------15----------------15-17-17--|
G|----------16----16-14-------------------------11-|-9--12-11-9--11----11--11--|-11--12------14--14--14-16-----------|
D|----------------------16-14-16-14-12----12-11----|---------------------------|-------------------------------------|
A|-------------------------------------14----------|---------------------------|-------------------------------------|
E|-------------------------------------------------|---------------------------|-------------------------------------|
B|-------------------------------------------------|---------------------------|-------------------------------------|


E|----------------------------------------|------------------------|-18-----|-----18--17--17---------------|
B|-----17--17---17--20-17----17-----------|----------------18--20--|--------|-20--------------20--18-------|
G|------------------------19----19-16-16--|-16---------19----------|--------|-------------------------19---|
D|----------------------------------------|------------------------|--------|------------------------------|
A|----------------------------------------|------------------------|--------|------------------------------|
E|----------------------------------------|------------------------|--------|------------------------------|
B|----------------------------------------|------------------------|--------|------------------------------|


E|-------------18---18---18---|-18-----21-21----21------|-----------21----------19----------21--|
B|-----18--20-----------------|---------------------19--|-19---19-------19--17------17--19------|
G|-19-------------------------|-------------------------|---------------------------------------|
D|----------------------------|-------------------------|---------------------------------------|
A|----------------------------|-------------------------|---------------------------------------|
E|----------------------------|-------------------------|---------------------------------------|
B|----------------------------|-------------------------|---------------------------------------|


E|-------19-------17-------17----------|---------------------------------------|--------------------------------------------7--|
B|-19-17----17-15----15-14----14-14----|--------14-15---15--1514151412--141210-|----12108---8---10-8--7--8--7--0---0--7--8-----|
G|-------------------------------------|-----16--------------------------------|-----------------------------------------------|
D|-------------------------------------|---------------------------------------|-----------------------------------------------|
A|-------------------------------------|---------------------------------------|-----------------------------------------------|
E|-------------------------------------|---------------------------------------|-----------------------------------------------|
B|-------------------------------------|---------------------------------------|-----------------------------------------------|


E|-10---9--7--8---8---7-----------------|------------------------------------------|
B|-----------------------10-7-----------|------------------------------------------|
G|-----------------------------9--7--6--|-6--6----------2---2---4---4---6----6--7--|
D|--------------------------------------|-------4---4------------------------------|
A|--------------------------------------|------------------------------------------|
E|--------------------------------------|------------------------------------------|
B|--------------------------------------|------------------------------------------|


E|-------------------------|---------------------7---10--10--10--10--|-15--12-14-14---14--12--------------|
B|-------------------------|-------------7---10----------------------|-----------------------15-12-14-12--|
G|-6--4--6---6-----6-------|-----6---9-------------------------------|------------------------------------|
D|---------------------7---|-7---------------------------------------|------------------------------------|
A|-------------------------|-----------------------------------------|------------------------------------|
E|-------------------------|-----------------------------------------|------------------------------------|
B|-------------------------|-----------------------------------------|------------------------------------|


E|-----------------15--15---|----------15--15----|------15---------13-------12-------|
B|-------12-----------------|--------------------|-----------------------------------|
G|----------0--12-----------|------12------------|-----------9--10----10-9-----9--7--|
D|--------------------------|--------------------|-----------------------------------|
A|--------------------------|--------------------|-----------------------------------|
E|--------------------------|--------------------|-----------------------------------|
B|--------------------------|--------------------|-----------------------------------|


E|-10-------12--------------------------|---------9---5-------------------|---------------------8---6-------|
B|-------------------13-----------------|-----7-----------6-------5-------|-----4-----------8-----------7---|
G|----7--9-----9--10----10-10---10------|---------------------5-------4---|---------0---7-------------------|
D|--------------------------------------|-9-------------------------------|-7-------------------------------|
A|--------------------------------------|---------------------------------|---------------------------------|
E|--------------------------------------|---------------------------------|---------------------------------|
B|--------------------------------------|---------------------------------|---------------------------------|


E|-------------6---5---4-----------|---------------------------------------|-------------------------------------------------|
B|---------6---------------5-------|---------------------------------------|-------------------------------------------------|
G|-6---5-----------------------4---|---------------------------------------|-------------------------------------------------|
D|---------------------------------|-6---4---------------------------------|-------------------------------------------------|
A|---------------------------------|---------7---4-------------------------|-------------------------------------------------|
E|---------------------------------|-----------------7---------------------|-------------------------------------------------|
B|---------------------------------|---------------------0--2-----2-----2--|-0--2-----2-----2--0--2-----2-----2--0--2--2--2--|


E|-------------------------------------------------|-------------------------------------------------|
B|-------------------------------------------------|-------------------------------------------------|
G|-------------------------------------------------|-------------------------------------------------|
D|-------------------------------------------------|-------------------------------------------------|
A|-------------------------------------------------|-------------------------------------------------|
E|-------------------2--0--------------------------|-------------------------------------------------|
B|-0--2-----2--2-----------2--0--0--2-----2-----2--|-0--2-----2-----2--0--2-----2-----2--0--2--2--2--|


E|-------------------------------------------------|-------------------------------------------------|
B|-------------------------------------------------|-------------------------------------------------|
G|-------------------------------------------------|-------------------------------------------------|
D|-------------------------------------------------|-------------------------------------------------|
A|-------------------------------------------------|-------------------------------------------------|
E|-------------------2--0--------------------------|-------------------------------------------------|
B|-0--2-----2--2-----------2--0--0--2-----2-----2--|-0--2-----2-----2--0--2-----2-----2--0--2--2--2--|


E|-------------------------------------------------|--------------------------------------|
B|-------------------------------------------------|--------------------------------------|
G|-------------------------------------------------|--------------------------------------|
D|-------------------------------------------------|--------------------------------------|
A|-------------------------------------------------|-----------------------------2--------|
E|-------------------2--0--------------------------|-----------------------------2--------|
B|-0--2-----2--2-----------2--0--0--2-----2-----2--|-0--2-----2-----2--0--2--2---2--------|


E|-----------------------------|-------------------------------------------------|
B|-----------------------------|-------------------------------------------------|
G|-----------------------------|-------------------------------------------------|
D|-----------------------------|-------------------------------------------------|
A|-----------------------------|-------------------------------------------------|
E|-----------------------------|-------------------------------------------------|
B|-----------0--2-----2-----2--|-0--2-----2-----2--0--2-----2-----2--0--2--2--2--|


E|-------------------------------------------------|-------------------------------------------|
B|-------------------------------------------------|-------------------------------------------|
G|-------------------------------------------------|-------------------------------------------|
D|-------------------------------------------------|-------------------------------------------|
A|-------------------------------------------------|-------------------------------------------|
E|-------------------2--0--------------------------|-----------------------------7--9---9--9---|
B|-0--2-----2--2-----------2--0--0--2-----2-----2--|-0--2-----2-----2--0--2------5--7---7--7---|


E|--------------------------------------|-------------------------------------------------|
B|--------------------------------------|-------------------------------------------------|
G|--------------------------------------|-------------------------------------------------|
D|--------------------------------------|-------------------------------------------------|
A|--------------------------------------|-------------------------------------------------|
E|-9--10-10--10--5----------------------|-------------------------------------------------|
B|-7--8--8---8---3----0--2-----2-----2--|-0--2-----2-----2--0--2-----2-----2--0--2--2--2--|


E|-------------------------------------------------|-------------------------------------------|
B|-------------------------------------------------|-------------------------------------------|
G|-------------------------------------------------|-------------------------------------------|
D|-------------------------------------------------|-------------------------------------------|
A|-------------------------------------------------|-------------------------------------------|
E|-------------------2--0--------------------------|-----------------------------7--9---9--9---|
B|-0--2-----2--2-----------2--0--0--2-----2-----2--|-0--2-----2-----2--0--2------5--7---7--7---|


E|--------------------------------------|-------------------------------------------------|
B|--------------------------------------|-------------------------------------------------|
G|--------------------------------------|-------------------------------------------------|
D|--------------------------------------|-------------------------------------------------|
A|--------------------------------------|-------------------------------------------------|
E|-9--10-10--10--5----------------------|-------------------------------------------------|
B|-7--8--8---8---3----3--5-----5-----5--|-3--5-----5-----5--3--5-----5-----5--3--5--5--5--|


E|-------------------------------------------------|-------------------------------------------------|
B|-------------------------------------------------|-------------------------------------------------|
G|-------------------------------------------------|-------------------------------------------------|
D|-------------------------------------------------|-------------------------------------------------|
A|-------------------------------------------------|-------------------------------------------------|
E|-------------------5--3--------------------------|-------------------------------------------------|
B|-3--5-----5--5-----------5--3--3--5-----5-----5--|-3--5-----5-----5--3--5-----5-----5--3--5--5--5--|


E|-------------------------------------------------|-------------------------------------------------|
B|-------------------------------------------------|-------------------------------------------------|
G|-------------------------------------------------|-------------------------------------------------|
D|-------------------------------------------------|-------------------------------------------------|
A|-------------------------------------------------|-------------------------------------------------|
E|-------------------5--3--------------------------|-------------------------------------------------|
B|-3--5-----5--5-----------5--3--0--2-----2-----2--|-0--2-----2-----2--0--2-----2-----2--0--2--2--2--|


E|-------------------------------------------------|-------------------------------------------|
B|-------------------------------------------------|-------------------------------------------|
G|-------------------------------------------------|-------------------------------------------|
D|-------------------------------------------------|-------------------------------------------|
A|-------------------------------------------------|-------------------------------------------|
E|-------------------2--0--------------------------|-----------------------------7--9---9--9---|
B|-0--2-----2--2-----------2--0--0--2-----2-----2--|-0--2-----2-----2--0--2------5--7---7--7---|


E|-----------------------------|----------------|-----------------|-------------|-----------------|
B|-----------------------------|----------------|-------------5---|-------------|-----7-----5-----|
G|-----------------------------|----------------|-------------4---|------2------|-----6-----4-----|
D|-----------------------------|----------------|-------------2---|------2------|-----4-----2-----|
A|--------------------4--------|----------------|-----------------|------0------|-----------------|
E|-9--10-10--10--5----4--------|----------------|-----------------|-------------|-----------------|
B|-7--8--8---8---3----2--------|----------------|-----------------|-------------|-----------------|


E|-----------------|------------------|-----------------|-----------------|-----------------|
B|-----------------|-------5----------|-----------7-----|-----5-----------|-------------5---|
G|-6-----7-----6---|-------4-----2----|-----------6-----|-----4-----6-----|-7-----6-----4---|
D|-6-----7-----6---|-------2-----2----|-----------4-----|-----2-----6-----|-7-----6-----2---|
A|-4-----5-----4---|-------------0----|-----------------|-----------4-----|-5-----4---------|
E|-----------------|------------------|-----------------|-----------------|-----------------|
B|-----------------|------------------|-----------------|-----------------|-----------------|


E|-------------|--------------------------------|------------------------|--------------------------------|
B|-------------|--------------------------------|------------------------|--------------------------------|
G|------2------|--------------------------------|------------------------|--------------------------------|
D|------2------|----------2----4---2--4--2------|------4---------4-------|-----2----4---2--4--2-----------|
A|------0------|-----4----------------------4---|-2---------2--------4---|-----------------------4---0----|
E|-------------|--------------------------------|------------------------|--------------------------------|
B|-------------|--------------------------------|------------------------|--------------------------------|


E|------------------------|--------------------------------|------------------------|
B|------------------------|--------------------------------|------------------------|
G|------4-----------------|--------------------------------|------------------------|
D|-2---------2--------2---|-----4---2--4--2-----------4----|------4--------2----4---|
A|---------------4--------|------------------4---2---------|-2--------4-------------|
E|------------------------|--------------------------------|------------------------|
B|------------------------|--------------------------------|------------------------|


E|-----------------------------|---------------------------------|---------------------------------|
B|-----------------------------|---------------------------------|---------------------------------|
G|------------------------4----|---------------------------------|---------------------------------|
D|-2--4--2-----------2---------|-2-------------------------------|---------------------------------|
A|----------4---0--------------|---------------------------------|---------------------------------|
E|-----------------------------|---------4---5-------2---4-------|-0---2---------------------------|
B|-----------------------------|-----2-----------2-----------2---|---------2---4---5---2---5---2---|


E|---------------------------------|------------------------------|---------------------------------|
B|---------------------------------|------------------------------|---------------------------------|
G|---------------------------------|------------------------------|---------------------------------|
D|---------------------------------|------------------------------|---------------------------------|
A|---------------------------------|----------------------4---5---|---------------------------------|
E|-4---5-------2---4-------0---2---|-------------3----2---2---3---|-----7---9-------5---7-------4---|
B|---------2-----------2-----------|-2---4---5--------0-----------|-0---5---7---0---3---5---0---2---|


E|---------------------------------|---------------------------------|------------------|
B|---------------------------------|-----------------------------7---|------5-----7-----|
G|---------------------------------|-----------------------------6---|------4-----6-----|
D|---------------------------------|-----------------4---7---6-------|------------------|
A|---------------------------------|-----3---6---5-------------------|------------------|
E|-5-------5---------------2---5---|-4-------------------------------|------------------|
B|-3---0---3---0---3---2-----------|---------------------------------|------------------|


E|------------------------|-----0--0--0--0--0--0--0-------------|
B|-8--------------5-------|-----0--0--0--0--0--0--0-------------|
G|-7-----6--------4-------|-----2--2--2--2--2--2--2-------------|
D|-------6--------2-------|-------------------------------------|
A|-------4----------------|-------------------------------------|
E|------------------------|-------------------------------------|
B|------------------------|-------------------------------------|





Track 2: Finger Slide_Petrucci

E|--------|--------|--------|--------|--------|--------|--------|--------|--------|
B|--------|--------|--------|--------|--------|--------|--------|--------|--------|
G|--------|--------|--------|--------|--------|--------|--------|--------|--------|
D|--------|--------|--------|--------|--------|--------|--------|--------|--------|
A|--------|--------|--------|--------|--------|--------|--------|--------|--------|
E|--------|--------|--------|--------|--------|--------|--------|--------|--------|
B|--------|--------|--------|--------|--------|--------|--------|--------|--------|


E|--------|--------|--------|--------|---------------------|--------|--------|--------|
B|--------|--------|--------|--------|---------------------|--------|--------|--------|
G|--------|--------|--------|--------|-12---1----7---------|--------|--------|--------|
D|--------|--------|--------|--------|-12---1----7---------|--------|--------|--------|
A|--------|--------|--------|--------|-12---1----7---------|--------|--------|--------|
E|--------|--------|--------|--------|-12---1----7---------|--------|--------|--------|
B|--------|--------|--------|--------|---------------------|--------|--------|--------|


E|--------|--------|--------|--------|--------|--------|--------|--------|--------|
B|--------|--------|--------|--------|--------|--------|--------|--------|--------|
G|--------|--------|--------|--------|--------|--------|--------|--------|--------|
D|--------|--------|--------|--------|--------|--------|--------|--------|--------|
A|--------|--------|--------|--------|--------|--------|--------|--------|--------|
E|--------|--------|--------|--------|--------|--------|--------|--------|--------|
B|--------|--------|--------|--------|--------|--------|--------|--------|--------|


E|--------|--------|--------|--------|--------|--------|--------|--------|--------|
B|--------|--------|--------|--------|--------|--------|--------|--------|--------|
G|--------|--------|--------|--------|--------|--------|--------|--------|--------|
D|--------|--------|--------|--------|--------|--------|--------|--------|--------|
A|--------|--------|--------|--------|--------|--------|--------|--------|--------|
E|--------|--------|--------|--------|--------|--------|--------|--------|--------|
B|--------|--------|--------|--------|--------|--------|--------|--------|--------|


E|--------|--------|--------|--------|--------|--------|--------|--------|--------|
B|--------|--------|--------|--------|--------|--------|--------|--------|--------|
G|--------|--------|--------|--------|--------|--------|--------|--------|--------|
D|--------|--------|--------|--------|--------|--------|--------|--------|--------|
A|--------|--------|--------|--------|--------|--------|--------|--------|--------|
E|--------|--------|--------|--------|--------|--------|--------|--------|--------|
B|--------|--------|--------|--------|--------|--------|--------|--------|--------|


E|--------|--------|--------|--------|--------|--------|--------|--------|--------|
B|--------|--------|--------|--------|--------|--------|--------|--------|--------|
G|--------|--------|--------|--------|--------|--------|--------|--------|--------|
D|--------|--------|--------|--------|--------|--------|--------|--------|--------|
A|--------|--------|--------|--------|--------|--------|--------|--------|--------|
E|--------|--------|--------|--------|--------|--------|--------|--------|--------|
B|--------|--------|--------|--------|--------|--------|--------|--------|--------|


E|--------|--------|--------|--------|--------|--------|--------|--------|--------|
B|--------|--------|--------|--------|--------|--------|--------|--------|--------|
G|--------|--------|--------|--------|--------|--------|--------|--------|--------|
D|--------|--------|--------|--------|--------|--------|--------|--------|--------|
A|--------|--------|--------|--------|--------|--------|--------|--------|--------|
E|--------|--------|--------|--------|--------|--------|--------|--------|--------|
B|--------|--------|--------|--------|--------|--------|--------|--------|--------|


E|--------|--------|--------|--------|--------|--------|--------|--------|--------|
B|--------|--------|--------|--------|--------|--------|--------|--------|--------|
G|--------|--------|--------|--------|--------|--------|--------|--------|--------|
D|--------|--------|--------|--------|--------|--------|--------|--------|--------|
A|--------|--------|--------|--------|--------|--------|--------|--------|--------|
E|--------|--------|--------|--------|--------|--------|--------|--------|--------|
B|--------|--------|--------|--------|--------|--------|--------|--------|--------|


E|--------|--------|--------|--------|--------|--------|--------|--------|--------|
B|--------|--------|--------|--------|--------|--------|--------|--------|--------|
G|--------|--------|--------|--------|--------|--------|--------|--------|--------|
D|--------|--------|--------|--------|--------|--------|--------|--------|--------|
A|--------|--------|--------|--------|--------|--------|--------|--------|--------|
E|--------|--------|--------|--------|--------|--------|--------|--------|--------|
B|--------|--------|--------|--------|--------|--------|--------|--------|--------|


E|--------|--------|--------|--------|--------|--------|--------|--------|--------|
B|--------|--------|--------|--------|--------|--------|--------|--------|--------|
G|--------|--------|--------|--------|--------|--------|--------|--------|--------|
D|--------|--------|--------|--------|--------|--------|--------|--------|--------|
A|--------|--------|--------|--------|--------|--------|--------|--------|--------|
E|--------|--------|--------|--------|--------|--------|--------|--------|--------|
B|--------|--------|--------|--------|--------|--------|--------|--------|--------|


E|--------|--------|--------|--------|--------|--------|--------|--------|--------|
B|--------|--------|--------|--------|--------|--------|--------|--------|--------|
G|--------|--------|--------|--------|--------|--------|--------|--------|--------|
D|--------|--------|--------|--------|--------|--------|--------|--------|--------|
A|--------|--------|--------|--------|--------|--------|--------|--------|--------|
E|--------|--------|--------|--------|--------|--------|--------|--------|--------|
B|--------|--------|--------|--------|--------|--------|--------|--------|--------|


E|--------|--------|--------|--------|--------|--------|--------|--------|--------|
B|--------|--------|--------|--------|--------|--------|--------|--------|--------|
G|--------|--------|--------|--------|--------|--------|--------|--------|--------|
D|--------|--------|--------|--------|--------|--------|--------|--------|--------|
A|--------|--------|--------|--------|--------|--------|--------|--------|--------|
E|--------|--------|--------|--------|--------|--------|--------|--------|--------|
B|--------|--------|--------|--------|--------|--------|--------|--------|--------|


E|--------|--------|--------|--------|
B|--------|--------|--------|--------|
G|--------|--------|--------|--------|
D|--------|--------|--------|--------|
A|--------|--------|--------|--------|
E|--------|--------|--------|--------|
B|--------|--------|--------|--------|





Track 3: Synth - Additional Strings_Sherinian

E|--------|--------|--------|--------|--------|--------|--------|--------|--------|
B|--------|--------|--------|--------|--------|--------|--------|--------|--------|
G|--------|--------|--------|--------|--------|--------|--------|--------|--------|
D|--------|--------|--------|--------|--------|--------|--------|--------|--------|
A|--------|--------|--------|--------|--------|--------|--------|--------|--------|
E|--------|--------|--------|--------|--------|--------|--------|--------|--------|


E|--------|--------|--------|--------|--------|--------|--------|--------|--------|
B|--------|--------|--------|--------|--------|--------|--------|--------|--------|
G|--------|--------|--------|--------|--------|--------|--------|--------|--------|
D|--------|--------|--------|--------|--------|--------|--------|--------|--------|
A|--------|--------|--------|--------|--------|--------|--------|--------|--------|
E|--------|--------|--------|--------|--------|--------|--------|--------|--------|


E|--------|--------|--------|--------|--------|--------|--------|--------|-------------|
B|--------|--------|--------|--------|--------|--------|--------|--------|-------------|
G|--------|--------|--------|--------|--------|--------|--------|--------|-------------|
D|--------|--------|--------|--------|--------|--------|--------|--------|-------------|
A|--------|--------|--------|--------|--------|--------|--------|--------|-------------|
E|--------|--------|--------|--------|--------|--------|--------|--------|-------------|


E|--------|------------|------17---------|--------|-------------|--------|------------14---|
B|--------|------------|-----------------|--------|-------------|--------|-----------------|
G|--------|--------14--|-14---14---------|--------|-------------|--------|-----------------|
D|--------|------------|-----------------|--------|-------------|--------|-----------------|
A|--------|------------|-----------------|--------|-------------|--------|-----------------|
E|--------|------------|-----------------|--------|-------------|--------|-----------------|


E|-----12----10----|--------12--|-----------------|--------|-------------|--------|
B|-----------------|------------|-----------------|--------|-------------|--------|
G|-----------------|------------|-----------------|--------|-------------|--------|
D|-----------------|------------|-----------------|--------|-------------|--------|
A|-----------------|------------|-----------------|--------|-------------|--------|
E|-----------------|------------|-----------------|--------|-------------|--------|


E|-------------|--------|-------14----12--|--------12---|------14----12----|-------12----|
B|-------------|--------|-----------------|-------------|------------------|-------------|
G|-------------|--------|-----------------|-------------|------------------|-------------|
D|-------------|--------|-----------------|-------------|------------------|-------------|
A|-------------|--------|-----------------|-------------|------------------|-------------|
E|-------------|--------|-----------------|-------------|------------------|-------------|


E|-14----12-----|------12----14---|-----12----10----|-10----14----12--|-------------|
B|--------------|-----------------|-----------------|-----------------|-------------|
G|--------------|-----------------|-----------------|-----------------|-------------|
D|--------------|-----------------|-----------------|-----------------|-------------|
A|--------------|-----------------|-----------------|-----------------|-------------|
E|--------------|-----------------|-----------------|-----------------|-------------|


E|-----------14----12--|------10---------|--------|--------|--------|--------|--------|
B|------12-------------|-----------------|--------|--------|--------|--------|--------|
G|---------------------|-----------------|--------|--------|--------|--------|--------|
D|---------------------|-----------------|--------|--------|--------|--------|--------|
A|---------------------|-----------------|--------|--------|--------|--------|--------|
E|---------------------|-----------------|--------|--------|--------|--------|--------|


E|--------|--------|--------|--------|--------|--------|--------|--------|--------|
B|--------|--------|--------|--------|--------|--------|--------|--------|--------|
G|--------|--------|--------|--------|--------|--------|--------|--------|--------|
D|--------|--------|--------|--------|--------|--------|--------|--------|--------|
A|--------|--------|--------|--------|--------|--------|--------|--------|--------|
E|--------|--------|--------|--------|--------|--------|--------|--------|--------|


E|--------|--------|--------|--------|--------|--------|--------|--------|--------|
B|--------|--------|--------|--------|--------|--------|--------|--------|--------|
G|--------|--------|--------|--------|--------|--------|--------|--------|--------|
D|--------|--------|--------|--------|--------|--------|--------|--------|--------|
A|--------|--------|--------|--------|--------|--------|--------|--------|--------|
E|--------|--------|--------|--------|--------|--------|--------|--------|--------|


E|--------|--------|--------|--------|--------|--------|--------|--------|--------|
B|--------|--------|--------|--------|--------|--------|--------|--------|--------|
G|--------|--------|--------|--------|--------|--------|--------|--------|--------|
D|--------|--------|--------|--------|--------|--------|--------|--------|--------|
A|--------|--------|--------|--------|--------|--------|--------|--------|--------|
E|--------|--------|--------|--------|--------|--------|--------|--------|--------|


E|--------|--------|--------|--------|--------|--------|--------|--------|--------|
B|--------|--------|--------|--------|--------|--------|--------|--------|--------|
G|--------|--------|--------|--------|--------|--------|--------|--------|--------|
D|--------|--------|--------|--------|--------|--------|--------|--------|--------|
A|--------|--------|--------|--------|--------|--------|--------|--------|--------|
E|--------|--------|--------|--------|--------|--------|--------|--------|--------|


E|--------|--------|--------|--------|--------|--------|--------|--------|--------|
B|--------|--------|--------|--------|--------|--------|--------|--------|--------|
G|--------|--------|--------|--------|--------|--------|--------|--------|--------|
D|--------|--------|--------|--------|--------|--------|--------|--------|--------|
A|--------|--------|--------|--------|--------|--------|--------|--------|--------|
E|--------|--------|--------|--------|--------|--------|--------|--------|--------|


E|--------|--------|--------|--------|--------|--------|--------|--------|
B|--------|--------|--------|--------|--------|--------|--------|--------|
G|--------|--------|--------|--------|--------|--------|--------|--------|
D|--------|--------|--------|--------|--------|--------|--------|--------|
A|--------|--------|--------|--------|--------|--------|--------|--------|
E|--------|--------|--------|--------|--------|--------|--------|--------|





Track 4: Synth - Sawtooth_Sherinian

E|--------|--------|--------|--------|--------|--------|--------|--------|--------|
B|--------|--------|--------|--------|--------|--------|--------|--------|--------|
G|--------|--------|--------|--------|--------|--------|--------|--------|--------|
D|--------|--------|--------|--------|--------|--------|--------|--------|--------|
A|--------|--------|--------|--------|--------|--------|--------|--------|--------|
E|--------|--------|--------|--------|--------|--------|--------|--------|--------|


E|--------|--------|--------|--------|--------|--------|--------|--------|--------|
B|--------|--------|--------|--------|--------|--------|--------|--------|--------|
G|--------|--------|--------|--------|--------|--------|--------|--------|--------|
D|--------|--------|--------|--------|--------|--------|--------|--------|--------|
A|--------|--------|--------|--------|--------|--------|--------|--------|--------|
E|--------|--------|--------|--------|--------|--------|--------|--------|--------|


E|--------|--------|--------|--------|--------|--------|--------|--------|--------|
B|--------|--------|--------|--------|--------|--------|--------|--------|--------|
G|--------|--------|--------|--------|--------|--------|--------|--------|--------|
D|--------|--------|--------|--------|--------|--------|--------|--------|--------|
A|--------|--------|--------|--------|--------|--------|--------|--------|--------|
E|--------|--------|--------|--------|--------|--------|--------|--------|--------|


E|--------|--------|--------|--------|--------|--------|--------|--------|--------|
B|--------|--------|--------|--------|--------|--------|--------|--------|--------|
G|--------|--------|--------|--------|--------|--------|--------|--------|--------|
D|--------|--------|--------|--------|--------|--------|--------|--------|--------|
A|--------|--------|--------|--------|--------|--------|--------|--------|--------|
E|--------|--------|--------|--------|--------|--------|--------|--------|--------|


E|--------|--------|--------|--------|--------|--------|--------|--------|--------|
B|--------|--------|--------|--------|--------|--------|--------|--------|--------|
G|--------|--------|--------|--------|--------|--------|--------|--------|--------|
D|--------|--------|--------|--------|--------|--------|--------|--------|--------|
A|--------|--------|--------|--------|--------|--------|--------|--------|--------|
E|--------|--------|--------|--------|--------|--------|--------|--------|--------|


E|--------|--------|--------|--------|--------|--------|--------|--------|--------|
B|--------|--------|--------|--------|--------|--------|--------|--------|--------|
G|--------|--------|--------|--------|--------|--------|--------|--------|--------|
D|--------|--------|--------|--------|--------|--------|--------|--------|--------|
A|--------|--------|--------|--------|--------|--------|--------|--------|--------|
E|--------|--------|--------|--------|--------|--------|--------|--------|--------|


E|--------|--------|--------|--------|--------|--------|--------|--------|--------|
B|--------|--------|--------|--------|--------|--------|--------|--------|--------|
G|--------|--------|--------|--------|--------|--------|--------|--------|--------|
D|--------|--------|--------|--------|--------|--------|--------|--------|--------|
A|--------|--------|--------|--------|--------|--------|--------|--------|--------|
E|--------|--------|--------|--------|--------|--------|--------|--------|--------|


E|--------|--------|--------|--------------------------------------|-7-----------------16----------------19----------|
B|--------|--------|--------|--------------------9--------------5--|----5-----------14----14----------17-------19----|
G|--------|--------|--------|-----------6-----6-----6--------4-----|-------4-----13----------13----16-------16-------|
D|--------|--------|--------|--------------6-----------6--2--------|----------11----------------14-------------------|
A|--------|--------|--------|--------------------------------------|-------------------------------------------------|
E|--------|--------|--------|--------------------------------------|-------------------------------------------------|


E|--------19-19--19-----------19--|-19--------------------------------------12-14-12-|
B|-----19-------------------------|--------------14-12-------------14-12-------------|
G|--------------------------------|--------------------12-12-12-12-------13----------|
D|--------------------9---9-------|-----14---14--------------------------------------|
A|--------------------------------|--------------------------------------------------|
E|--------------------------------|--------------------------------------------------|


E|----------------------------12-14-12----------------------------|---------------------------------------------|
B|-14-12-------------14-12-------------14-12----12----12-12----12-|-12-14-12------------------------------------|
G|-------12-12-12-12-------13----------------13-------------------|----------13-11------------------------------|
D|----------------------------------------------------------------|----------------14-11----------9---9---11-9--|
A|----------------------------------------------------------------|----------------------14-11------------------|
E|----------------------------------------------------------------|----------------------------14---------------|


E|-------------------------------14----12-14-------|-14-12-12-1212------------------------------------|
B|-9-----12----11-------11-12-14----14-------14-12-|--------------14-12----------11-12----------------|
G|----9-----9-----9--11----------------------------|--------------------11----11----------------9-----|
D|-------------------------------------------------|-----------------------14----------11-13-10----9--|
A|-------------------------------------------------|--------------------------------------------------|
E|-------------------------------------------------|--------------------------------------------------|


E|--------------------------------------------------|---------------------------12191212-12---|
B|-------------------------------14--------11-12----|-11-12-------11-12-14--14----------------|
G|-8-----9-----11----13----11-----------11-------11-|----------11-----------------------------|
D|----9-----9-----11----14----14-----14-------------|-------14--------------------------------|
A|--------------------------------------------------|-----------------------------------------|
E|--------------------------------------------------|-----------------------------------------|


E|-12--12111211121112111211-----------------------------|---------------------------16--16--16--16--17--17--|
B|------------------------------151415141514151415141514|---------------------------------------------------|
G|------------------------------------------------------|-14--13-13-13-13-13-13-------13--13--13--13--14--14|
D|------------------------------------------------------|---------------------------------------------------|
A|------------------------------------------------------|---------------------------------------------------|
E|------------------------------------------------------|---------------------------------------------------|


E|-17--17--14--14--14--14--16--16--16--16--12--12--12--14--14--14--|-10--10--10--12--12--12---------------------------------------|
B|-----------------------------------------------------------------|-------------------------12-12--------------------12----------|
G|---14--14--11--11--11--11--13--13--13--13--9---9---9---11--11--11|---7---7---7---9---9---9-----------------13----13----------13-|
D|-----------------------------------------------------------------|--------------------------------------14----14----------14----|
A|-----------------------------------------------------------------|-----------------------------------16----------------16-------|
E|-----------------------------------------------------------------|--------------------------------------------------------------|


E|-------------------------------------------12-------14-------16-------19-|-------19-19----------19-18---18-18-18----------|
B|-------12----------------12-------14----14-------17-------17-------21----|----21----------19-19------------------19-------|
G|----13----------13----13-------13----13-------16-------18-------18-------|-21----------21---------------------------21-19-|
D|-14----------14----14-------16-------------------------------------------|------------------------------------------------|
A|----------16-------------------------------------------------------------|------------------------------------------------|
E|-------------------------------------------------------------------------|------------------------------------------------|


E|----------------------------------------------------------|----------------------------------------------------|
B|----------------------------------------------------------|----------------------------------------------------|
G|-18----21----21-20-18-------------------------------------|----------------------------------------------------|
D|----21----21----------16-------16----16----------11----11-|----------9-----9-----------7-----7-----------------|
A|-------------------------19-18----16----16----11----11----|-11----9-----9-----9-----5-----5-----5--------------|
E|-------------------------------------------12-------------|----11----------------7-----------------7--8--9-----|


E|--------------------|--------------|--------|------------|----------------|--------|
B|--------------------|--------------|--------|------------|----------------|--------|
G|--------------------|--------------|--------|------------|----------------|--------|
D|--------------------|--------------|--------|------------|----------------|--------|
A|--------------------|--------------|--------|------------|----------------|--------|
E|-----9--------------|--------------|--------|------------|----------------|--------|


E|-----------------|--------|--------------|--------|--------|--------|--------|--------|
B|-----------------|--------|--------------|--------|--------|--------|--------|--------|
G|-----------------|--------|--------------|--------|--------|--------|--------|--------|
D|-----------------|--------|--------------|--------|--------|--------|--------|--------|
A|-----------------|--------|--------------|--------|--------|--------|--------|--------|
E|-----------------|--------|--------------|--------|--------|--------|--------|--------|


E|--------|--------|--------|--------|--------|--------|--------|--------|--------|
B|--------|--------|--------|--------|--------|--------|--------|--------|--------|
G|--------|--------|--------|--------|--------|--------|--------|--------|--------|
D|--------|--------|--------|--------|--------|--------|--------|--------|--------|
A|--------|--------|--------|--------|--------|--------|--------|--------|--------|
E|--------|--------|--------|--------|--------|--------|--------|--------|--------|


E|--------|--------|--------|--------|
B|--------|--------|--------|--------|
G|--------|--------|--------|--------|
D|--------|--------|--------|--------|
A|--------|--------|--------|--------|
E|--------|--------|--------|--------|





Track 5: Bass_Myung

C|------------------------------|------------------------|--------|--------------------|
G|---------11-------9-----------|-----11-------9----9----|--------|---------------11---|
D|--------------12----------9---|----------12------------|--------|--------------------|
A|------------------------------|------------------------|--------|--------------------|
E|------------------------------|------------------------|--------|--------------------|
B|-0---0------------------------|-------------------0----|--------|-------0---0--------|


C|---------------------------|-------------|--------|------------------------------|
G|-----9------------11-------|-9----9------|--------|---------11-------9-----------|
D|-12----------9---------12--|-------------|--------|--------------12----------9---|
A|---------------------------|-------------|--------|------------------------------|
E|---------------------------|-------------|--------|------------------------------|
B|---------------------------|------0------|--------|-0---0------------------------|


C|------------------------|--------|--------------------|---------------------------|
G|-----11-------9----9----|--------|---------------11---|-----9------------11-------|
D|----------12------------|--------|--------------------|-12----------9---------12--|
A|------------------------|--------|--------------------|---------------------------|
E|------------------------|--------|--------------------|---------------------------|
B|-------------------0----|--------|-------0---0--------|---------------------------|


C|-------------|--------|-----------------------|---------------------------|-----------------------|
G|-9----9------|--------|-----------------------|---------------------------|-----------------------|
D|-------------|--------|-----------------------|---------------------------|-----------------------|
A|-------------|--------|-----------------------|---------------------------|-----------------------|
E|-------------|--------|-----------------------|-----7---10---7------------|-------------------7---|
B|------0------|--------|-0---0---------0---0---|-------------------0---0---|-------0---0-----------|


C|------------------------|---------------------------|--------------------|---------------------------------|
G|------------------------|---------------------------|--------------------|---------------------------------|
D|------------------------|---------------------------|--------------------|---------------------------------|
A|------------------------|---------------------------|--------------------|-------------------------9-------|
E|-10---7-----------------|------------------7---10---|-7------------------|-------------7---10--10------10--|
B|-----------0---0--------|------0---0----------------|------0---0---------|-0---0---------------------------|


C|------------------------|-----------------------------------|---------------------------|
G|------------------------|-----------------------------------|---------------------------|
D|------------------------|-----------------------------------|---------------------------|
A|------------------------|-------------7---9--7--------------|---------------------------|
E|-7---10---------7---10--|-----7---10------------10--7---10--|-----------7---10--10--7---|
B|------------------------|-----------------------------------|---------------------------|


C|---------------------------|-----------------------------------|-----------------------------|
G|---------------------------|-----------------------------------|-----------------------------|
D|-------------9-------------|-----------------------------------|-----------------------------|
A|-----7---9-----------------|-----------------------------------|-----------------------------|
E|-10--------------3----3----|-3---3--3--3---3---3---3---3---3---|-3---3---3----3----3---3--3--|
B|---------------------------|-----------------------------------|-----------------------------|


C|---------------------------------|---------------------------------|---------------------------------|
G|---------------------------------|---------------------------------|---------------------------------|
D|---------------------------------|---------------------------------|---------------------------------|
A|---------------------------------|---------------------------------|-------------5-------------------|
E|-3---3---3---3---3---3---3---3---|-5---7-------5---7-------5---7---|-----5---7-------7---5---5---7---|
B|---------------------------------|---------------------------------|---------------------------------|


C|---------------------------------|---------------------------------|---------------------------------|
G|---------------------------------|---------------------------------|---------------------------------|
D|---------------------------------|---------------------------------|---------------------------------|
A|---------------------------------|-----5---------------------------|---------------------------------|
E|-----5---7-------5---7-------5---|-7-------7---5---5---7-------5---|-7-------5---7-------5---7---5---|
B|---------------------------------|---------------------------------|---------------------------------|


C|---------------------------------|---------------------------------|---------------------------------|
G|---------------------------------|---------------------------------|---------------------------------|
D|---------------------------------|---------------------------------|---------------------------------|
A|-----5---------------------------|-----------------------------5---|---------------------------------|
E|-7-------5---7-------5---7-------|-5---7-------5---7---5---7-------|-5---7-------5---7-------5---7---|
B|---------------------------------|---------------------------------|---------------------------------|


C|---------------------------------|---------------------------------|---------------------------|
G|---------------------------------|---------------------------------|---------------------------|
D|---------------------------------|---------------------------------|---------------------------|
A|-------------5-------------------|---------------------------------|-------------5-------------|
E|-----5---7-------7---5---5---7---|-----5---7-------5---7-------5---|-7---5---7-------3----3----|
B|---------------------------------|---------------------------------|---------------------------|


C|-------------------------------------|----------------------------------|-----------------------------------|
G|-------------------------------------|----------------------------------|-----------------------------------|
D|-------------------------------------|----------------------------------|-----------------------------------|
A|-------------------------------------|----------------------------------|-----------------------------------|
E|-3---3--3--3---3---3---3---3---3--3--|-3---3---3----3---3--3--3---3--3--|-3--3--3---3---3---3---3---3---3---|
B|-------------------------------------|----------------------------------|-----------------------------------|


C|---------------------------------|------------------------------|------------------------------------|
G|---------------------------------|------------------------------|------------------------------------|
D|---------------------------------|------------------------------|------------------------------------|
A|---------------------------------|-------------5----------------|------------------------------------|
E|------7----5--5--5--7--7--7--5---|-5---7---7-------7---5--------|-7----5--5--5--7--7--7--5---5---7---|
B|-0-------------------------------|-------------------------0----|------------------------------------|


C|---------------------------|-------------------------------------------|-------------------------------|
G|---------------------------|-------------------------------------------|-------------------------------|
D|---------------------------|-------------------------------------------|-------------------------------|
A|---------------------------|-------------------------------------5--7--|-5-----------------------------|
E|---------0---2--------7----|-5--5--5--7--7--7--5---5---7---7-----------|-----7--------7----5--5--5--7--|
B|-0---2-----------0---------|-------------------------------------------|---------0---------------------|


C|-----------------------------------|------------------------------------|------------------------------|
G|-----------------------------------|------------------------------------|------------------------------|
D|-----------------------------------|------------------------------------|------------------------------|
A|-----------------------------------|------------------------------------|-------------5----------------|
E|-7--7--5---5---7-----------0---2---|---------7----5--5--5--7--7--7--5---|-5---7---7-------7---5--------|
B|-------------------0---2-----------|-0----------------------------------|-------------------------0----|


C|------------------------------------|---------------------------|-----------------------------------|
G|------------------------------------|---------------------------|-----------------------------------|
D|------------------------------------|---------------------------|-----------------------------------|
A|------------------------------------|---------------------------|-----------------------------------|
E|-7----5--5--5--7--7--7--5---5---7---|---------0---2---3----3----|-3---3--3--3---3---3---3---3---3---|
B|------------------------------------|-0---2---------------------|-----------------------------------|


C|-----------------------------|---------------------------------|------------------|
G|-----------------------------|---------------------------------|------------------|
D|-----------------------------|---------------------------------|-------3-----2----|
A|-----------------------------|---------------------------------|-2----------------|
E|-3---3---3----3----3---3--3--|-3---3---3---3---3---3---3---3---|------------------|
B|-----------------------------|---------------------------------|------------------|


C|---------------------|-----------------|---------------------------------------|
G|---------------------|-----------------|---------------------------------------|
D|-----5----------4----|-----3-----6-----|-----4---2-----------------------------|
A|----------3----------|-----------------|-------------4---2---------------------|
E|---------------------|-----------------|---------------------------------------|
B|---------------------|-----------------|---------------------0--2-----2-----2--|


C|-------------------------------------------------|-------------------------------------------------|
G|-------------------------------------------------|-------------------------------------------------|
D|-------------------------------------------------|-------------------------------------------------|
A|-------------------------------------------------|-------------------------------------------------|
E|-------------------------------------------------|-------------------2--0--------------------------|
B|-0--2-----2-----2--0--2-----2-----2--0--2--2--2--|-0--2-----2--2-----------2--0--0--2-----2-----2--|


C|-------------------------------------------------|-------------------------------------------------|
G|-------------------------------------------------|-------------------------------------------------|
D|-------------------------------------------------|-------------------------------------------------|
A|-------------------------------------------------|-------------------------------------------------|
E|-------------------------------------------------|-------------------2--0--------------------------|
B|-0--2-----2-----2--0--2-----2-----2--0--2--2--2--|-0--2-----2--2-----------2--0--0--2-----2-----2--|


C|-------------------------------------------------|-------------------------------------------------|
G|-------------------------------------------------|-------------------------------------------------|
D|-------------------------------------------------|-------------------------------------------------|
A|-------------------------------------------------|-------------------------------------------------|
E|-------------------------------------------------|-------------------2--0--------------------------|
B|-0--2-----2-----2--0--2-----2-----2--0--2--2--2--|-0--2-----2--2-----------2--0--0--2-----2-----2--|


C|--------------------------------------|-----------------------------|-------------------------------------------------|
G|--------------------------------------|-----------------------------|-------------------------------------------------|
D|--------------------------------------|-----------------------------|-------------------------------------------------|
A|--------------------------------------|-----------------------------|-------------------------------------------------|
E|--------------------------------------|-----------------------------|-------------------------------------------------|
B|-0--2-----2-----2--0--2--2---2--------|-----------0--2-----2-----2--|-0--2-----2-----2--0--2-----2-----2--0--2--2--2--|


C|-------------------------------------------------|-------------------------------------------|
G|-------------------------------------------------|-------------------------------------------|
D|-------------------------------------------------|-------------------------------------------|
A|-------------------------------------------------|-------------------------------------------|
E|-------------------2--0--------------------------|-----------------------------0--2---2--2---|
B|-0--2-----2--2-----------2--0--0--2-----2-----2--|-0--2-----2-----2--0--2--------------------|


C|--------------------------------------|-------------------------------------------------|
G|--------------------------------------|-------------------------------------------------|
D|--------------------------------------|-------------------------------------------------|
A|--------------------------------------|-------------------------------------------------|
E|-2--3--3---3--------------------------|-------------------------------------------------|
B|---------------3----0--2-----2-----2--|-0--2-----2-----2--0--2-----2-----2--0--2--2--2--|


C|-------------------------------------------------|-------------------------------------------|
G|-------------------------------------------------|-------------------------------------------|
D|-------------------------------------------------|-------------------------------------------|
A|-------------------------------------------------|-------------------------------------------|
E|-------------------2--0--------------------------|-----------------------------0--2---2--2---|
B|-0--2-----2--2-----------2--0--0--2-----2-----2--|-0--2-----2-----2--0--2--------------------|


C|--------------------------------------|-------------------------------------------------|
G|--------------------------------------|-------------------------------------------------|
D|--------------------------------------|-------------------------------------------------|
A|--------------------------------------|-------------------------------------------------|
E|-2--3--3---3--------------------------|-------------------------------------------------|
B|---------------3----3--5-----5-----5--|-3--5-----5-----5--3--5-----5-----5--3--5--5--5--|


C|-------------------------------------------------|-------------------------------------------------|
G|-------------------------------------------------|-------------------------------------------------|
D|-------------------------------------------------|-------------------------------------------------|
A|-------------------------------------------------|-------------------------------------------------|
E|-------------------5--3--------------------------|-------------------------------------------------|
B|-3--5-----5--5-----------5--3--3--5-----5-----5--|-3--5-----5-----5--3--5-----5-----5--3--5--5--5--|


C|-------------------------------------------------|-------------------------------------------------|
G|-------------------------------------------------|-------------------------------------------------|
D|-------------------------------------------------|-------------------------------------------------|
A|-------------------------------------------------|-------------------------------------------------|
E|-------------------5--3--------------------------|-------------------------------------------------|
B|-3--5-----5--5-----------5--3--0--2-----2-----2--|-0--2-----2-----2--0--2-----2-----2--0--2--2--2--|


C|-------------------------------------------------|-------------------------------------------|
G|-------------------------------------------------|-------------------------------------------|
D|-------------------------------------------------|-------------------------------------------|
A|-------------------------------------------------|-------------------------------------------|
E|-------------------2--0--------------------------|-----------------------------0--2---2--2---|
B|-0--2-----2--2-----------2--0--0--2-----2-----2--|-0--2-----2-----2--0--2--------------------|


C|-----------------------------|------------------------------|------------------------|
G|-----------------------------|------------------------------|------------------------|
D|-------------------------2---|-----4-------2-----------4----|------4--------2----4---|
A|--------------------4--------|----------------4---2---------|-2--------4-------------|
E|-2--3--3---3-----------------|------------------------------|------------------------|
B|---------------3-------------|------------------------------|------------------------|


C|-----------------------------|--------------------------------|------------------------|
G|------------------------4----|--------------------------------|------------------------|
D|-2--4--2-----------2---------|-2--------2----4---2--4--2------|------4---------4-------|
A|----------4---0--------------|-----4----------------------4---|-2---------2--------4---|
E|-----------------------------|--------------------------------|------------------------|
B|-----------------------------|--------------------------------|------------------------|


C|--------------------------------|------------------------|--------------------------------|
G|--------------------------------|------4-----------------|--------------------------------|
D|-----2----4---2--4--2-----------|-2---------2--------2---|-----4---2--4--2-----------4----|
A|-----------------------4---0----|---------------4--------|------------------4---2---------|
E|--------------------------------|------------------------|--------------------------------|
B|--------------------------------|------------------------|--------------------------------|


C|------------------------|-----------------------------|--------------------------------|
G|------------------------|------------------------4----|--------------------------------|
D|------4--------2----4---|-2--4--2-----------2---------|-2--------2----4---2--4--2------|
A|-2--------4-------------|----------4---0--------------|-----4----------------------4---|
E|------------------------|-----------------------------|--------------------------------|
B|------------------------|-----------------------------|--------------------------------|


C|------------------------|--------------------------------|------------------------|
G|------------------------|--------------------------------|------4-----------------|
D|------4---------4-------|-----2----4---2--4--2-----------|-2---------2--------2---|
A|-2---------2--------4---|-----------------------4---0----|---------------4--------|
E|------------------------|--------------------------------|------------------------|
B|------------------------|--------------------------------|------------------------|


C|--------------------------------|------------------------|-----------------------------|
G|--------------------------------|------------------------|------------------------4----|
D|-----4---2--4--2-----------4----|------4--------2----4---|-2--4--2-----------2---------|
A|------------------4---2---------|-2--------4-------------|----------4---0--------------|
E|--------------------------------|------------------------|-----------------------------|
B|--------------------------------|------------------------|-----------------------------|


C|---------------------------------|---------------------------------|---------------------------------|
G|---------------------------------|---------------------------------|---------------------------------|
D|-2-------------------------------|---------------------------------|---------------------------------|
A|---------------------------------|---------------------------------|---------------------------------|
E|---------4---5-------2---4-------|-0---2---------------------------|-4---5-------2---4-------0---2---|
B|-----2-----------2-----------2---|---------2---4---5---2---5---2---|---------2-----------2-----------|


C|------------------------------|---------------------------------|---------------------------------|
G|------------------------------|---------------------------------|---------------------------------|
D|------------------------------|---------------------------------|---------------------------------|
A|------------------------------|---------------------------------|---------------------------------|
E|-------------3----------------|---------------------------------|-------------------------2---5---|
B|-2---4---5--------0---7---8---|-0---5---7---0---4---5---0---2---|-3---0---3---0---3---2-----------|


C|---------------------------------|------------------|------------------------|-------------------------------------|
G|-----------------------------6---|------4-----14----|-14----13-------16------|-------------------------------------|
D|-----------------4---7---6---4---|------2-----------|-12---------------------|-------------------------------------|
A|-----3---6---5-------------------|------------------|------------------------|-----2--2--2--2--2--2--2-------------|
E|-4-------------------------------|------------------|------------------------|-------------------------------------|
B|---------------------------------|------------------|------------------------|-------------------------------------|