Menu:

 

Search:

 

dream theater - a change of seasons pt ii innocence:

 



Title: A Change of Seasons: 2. Innocence
Artist: 
Album: A Change of Seasons
Author: Dream Theater


Track 1: Guitar 2 - Petrucci- distortion

E|---------------------|-------------------------------|---------------------|-------------------------------|
B|---------------------|-------------------------------|---------------------|-------------------------------|
G|---------------------|-------------------------------|---------------------|-------------------------------|
D|-----------2----3----|-------------------------------|-----------2----3----|-------------------------------|
A|-4----5----2----2----|-4----5----------5---------5---|-4----5----2----2----|-4----5----------5---------5---|
E|-2----2----0---------|-2----2----4--4------3--3------|-2----2----0---------|-2----2----4--4------3--3------|
B|---------------------|-------------------------------|---------------------|-------------------------------|


E|---------------------|-------------------------------|---------------------|---------------------|
B|---------------------|-------------------------------|---------------------|---------------------|
G|---------------------|-------------------------------|---------------------|---------------------|
D|-----------2----3----|-------------------------------|-----------2----3----|-----------2---------|
A|-4----5----2----2----|-4----5----------5---------5---|-4----5----2----1----|-4----5----2----5----|
E|-2----2----0---------|-2----2----4--4------3--3------|-2----2----0---------|-2----2----0----5----|
B|---------------------|-------------------------------|---------------------|----------------3----|


E|----------------|--------------------------|--------------------------------|-----------------------|
B|----------------|--------------------------|--------------------------------|-----------------------|
G|--------9---11--|-11----9--9--9--------9---|-9------------------------------|-----------------------|
D|-9--------------|------------------12------|-----12--11--9--9--9--------9---|-9---------------------|
A|----------------|--------------------------|------------------------12------|-----12--10--9---9-----|
E|----------------|--------------------------|--------------------------------|-----------------------|
B|----------------|--------------------------|--------------------------------|-----------------------|


E|---------------------------|-------------------------|------------------------------|
B|-----------------------17--|-17----17--17-17-15--17--|-17--15--14-------------------|
G|-----------16------16------|-------------------------|-------------16--16---11--12--|
D|-9-----14------14----------|-------------------------|------------------------------|
A|---------------------------|-------------------------|------------------------------|
E|---------------------------|-------------------------|------------------------------|
B|---------------------------|-------------------------|------------------------------|


E|-----------------------|--------|--------|--------|--------|-------------|-------------|
B|-----------------------|--------|--------|--------|--------|-------------|-------------|
G|-12--11--9-------------|--------|--------|--------|--------|-------------|-------------|
D|-------------10--10----|--------|--------|--------|--------|-------------|-------------|
A|-----------------------|--------|--------|--------|--------|-------------|-------------|
E|-----------------------|--------|--------|--------|--------|-------------|-------------|
B|-----------------------|--------|--------|--------|--------|-------------|-------------|


E|-------------|-------------|-------------|-----------------|------------|----------------|
B|-------------|-------------|-------------|-----------------|------------|----------------|
G|-------------|-------------|-------------|----------2------|-----4------|-----4----------|
D|-------------|-------4-----|------5------|------5---2------|-----4------|-----4---4------|
A|-------------|-------4-----|------5------|------5---0------|-----2------|-----2---4------|
E|-------------|-------2-----|------3------|------3----------|------------|---------2------|
B|-------------|-------------|-------------|-----------------|------------|----------------|


E|--------|----------------|----------------------------|----------------|----------------|
B|--------|----------------|----------------------------|----------------|----------------|
G|--------|-----2----------|----------------------------|----------------|----------------|
D|-5------|-5---2----------|----------------------------|----------------|------------2---|
A|-5------|-5---0------2---|------------------------2---|------------2---|------------0---|
E|-3------|-3----------0---|-------1--0--------5----2---|------------2---|----------------|
B|--------|----------------|-------------3--0--3----0---|------------0---|----------------|


E|-----------------|------------------|--------|--------|-------------|------------------|
B|-----------------|------------------|--------|--------|-------------|------------------|
G|-----------------|------------------|--------|--------|-------------|------------------|
D|-------------2---|------------------|--------|--------|-2-----------|-2-----------2----|
A|-------5-----2---|------5-----3-----|-2------|-2------|-0-----5-----|-2-----5-----2----|
E|-------3-----0---|------5-----3-----|-2------|-2------|-------3-----|-0-----5-----0----|
B|-----------------|------3-----1-----|-0------|-0------|-------------|-------3----------|


E|------------------------|-------------------------------|------------------------|
B|------------------------|-------------------------------|------------------------|
G|------------------------|-------------------------------|------------------------|
D|---------------2----3---|-------------------------------|---------------2----3---|
A|-----4----5----2----2---|-----4----5-----------5-----5--|-----4----5----2----2---|
E|-----2----2----0--------|-----2----2----4--4------3-----|-----2----2----0--------|
B|------------------------|-------------------------------|------------------------|


E|-----------------------------|----------------|--------|--------|--------|--------|
B|-----------------------------|----------------|--------|--------|--------|--------|
G|-----------------------------|----------------|--------|--------|--------|--------|
D|-----------------------------|----------------|--------|--------|--------|--------|
A|-----4----5----------5-------|-5--------------|--------|--------|--------|--------|
E|-----2----2----4--4------3---|----------------|--------|--------|--------|--------|
B|-----------------------------|----------------|--------|--------|--------|--------|


E|--------|--------|--------|--------|--------|--------|--------|--------|--------|
B|--------|--------|--------|--------|--------|--------|--------|--------|--------|
G|--------|--------|--------|--------|--------|--------|--------|--------|--------|
D|--------|--------|--------|--------|--------|--------|--------|--------|--------|
A|--------|--------|--------|--------|--------|--------|--------|--------|--------|
E|--------|--------|--------|--------|--------|--------|--------|--------|--------|
B|--------|--------|--------|--------|--------|--------|--------|--------|--------|


E|--------|-------------------------------------|-------------------------------------|
B|--------|-------------------------------------|-------------------------------------|
G|--------|-------------------------------------|-------------------------------------|
D|--------|---------------4-------------2-------|-------4-------------2---------------|
A|--------|-----4---------2-------------0---4---|-------2-------------0---2-------5---|
E|--------|-----2---2--2------2---2--2------2---|-2--2------2---2--2------0---2---3---|
B|--------|-------------------------------------|-------------------------------------|


E|---------------------------------------|-----------------------------------|---------------------------------------|
B|---------------------------------------|-----------------------------------|---------------------------------------|
G|---------------------------------------|-----------------------------------|---------------------------------------|
D|-----------4-------------2-------------|-4-------------2-------------------|-------4-------------2-------------4---|
A|-4---------2-------------0---4---------|-2-------------0---2-----------4---|-------2-------------0---4---------2---|
E|-2---2--2------2---2--2------2---2--2--|-----2---2--2------0---2---2---2---|-2--2------2---2--2------2---2--2------|
B|---------------------------------------|-----------------------------------|---------------------------------------|


E|-------------------------------------|----------------------0--------------------|
B|-------------------------------------|-------------------------2-----------------|
G|-------------------------------------|-------------------4--------2-----4--2-----|
D|-----------2-------------------------|-4-------------4---------------4--------2--|
A|-----------0---2-------5---4---------|-2-------------2---------------------------|
E|-2---2--2------0---2---3---2---2--2--|-----2---2--2------------------------------|
B|-------------------------------------|-------------------------------------------|


E|---------------------------|-------------|-----------------|------------|----------------|
B|---------------------------|-------------|-----------------|------------|----------------|
G|---------------------------|-------------|----------2------|-----4------|-----4----------|
D|----4--2-------------4-----|------5------|------5---2------|-----4------|-----4---4------|
A|-4--------2--0-------4-----|------5------|------5---0------|-----2------|-----2---4------|
E|-----------------4---2-----|------3------|------3----------|------------|---------2------|
B|---------------------------|-------------|-----------------|------------|----------------|


E|--------|----------------|----------------------------|----------------|----------------|
B|--------|----------------|----------------------------|----------------|----------------|
G|--------|-----2----------|----------------------------|----------------|----------------|
D|-5------|-5---2----------|----------------------------|----------------|------------2---|
A|-5------|-5---0------2---|------------------------2---|------------2---|------------0---|
E|-3------|-3----------0---|-------1--0--------5----2---|------------2---|----------------|
B|--------|----------------|-------------3--0--3----0---|------------0---|----------------|


E|-----------------|------------------|--------|--------|-------------|------------------|
B|-----------------|------------------|--------|--------|-------------|------------------|
G|-----------------|------------------|--------|--------|-------------|-------------2----|
D|-------------2---|------------------|--------|--------|-2-----------|-2-----------2----|
A|-------5-----2---|------5-----3-----|-2------|-2------|-0-----5-----|-2-----5-----0----|
E|-------3-----0---|------5-----3-----|-2------|-2------|-------3-----|-0-----5----------|
B|-----------------|------3-----1-----|-0------|-0------|-------------|-------3----------|


E|------------|------------|
B|-----5------|-----5------|
G|-----4------|-----4------|
D|-----2------|-----2------|
A|-----2------|-----2------|
E|-----0------|-----0------|
B|------------|------------|





Track 2: Guitar 3  - Petrucci - Clean

E|--------|--------|--------|--------|-------------------------------------------------|
B|--------|--------|--------|--------|-------------------------------------------------|
G|--------|--------|--------|--------|-------------------------------9-----------10----|
D|--------|--------|--------|--------|-9--11-9-----12-11-9--------9-----9-----9--------|
A|--------|--------|--------|--------|----------9-----------9--11----------8--------9--|
E|--------|--------|--------|--------|-------------------------------------------------|
B|--------|--------|--------|--------|-------------------------------------------------|


E|-----------------------------------------|-------------------------------------------------|
B|-----------------------------------------|-------------------------------------------------|
G|-----------------------------------------|-------------------------------9-----------10----|
D|-9--11-9-----12-11-9---------12------12--|-9--11-9-----12-11-9--------9-----9-----9--------|
A|----------9-----------9--11------10------|----------9-----------9--11----------8--------9--|
E|-----------------------------------------|-------------------------------------------------|
B|-----------------------------------------|-------------------------------------------------|


E|-------------------------------------------------|--------|--------|--------|--------|
B|----------------------------------------------7--|--------|--------|--------|--------|
G|-------------------------------------------6-----|--------|--------|--------|--------|
D|-9--11-9-----12-11-9--------------9--7--9--------|--------|--------|--------|--------|
A|----------9-----------9--7--9--10----------------|--------|--------|--------|--------|
E|-------------------------------------------------|--------|--------|--------|--------|
B|-------------------------------------------------|--------|--------|--------|--------|


E|--------|--------|--------|--------|--------|--------|--------|--------|--------|
B|--------|--------|--------|--------|--------|--------|--------|--------|--------|
G|--------|--------|--------|--------|--------|--------|--------|--------|--------|
D|--------|--------|--------|--------|--------|--------|--------|--------|--------|
A|--------|--------|--------|--------|--------|--------|--------|--------|--------|
E|--------|--------|--------|--------|--------|--------|--------|--------|--------|
B|--------|--------|--------|--------|--------|--------|--------|--------|--------|


E|--------|--------|--------|--------|--------|--------|--------|--------|--------|
B|--------|--------|--------|--------|--------|--------|--------|--------|--------|
G|--------|--------|--------|--------|--------|--------|--------|--------|--------|
D|--------|--------|--------|--------|--------|--------|--------|--------|--------|
A|--------|--------|--------|--------|--------|--------|--------|--------|--------|
E|--------|--------|--------|--------|--------|--------|--------|--------|--------|
B|--------|--------|--------|--------|--------|--------|--------|--------|--------|


E|--------|--------|--------|--------|--------|--------|--------|--------|--------|
B|--------|--------|--------|--------|--------|--------|--------|--------|--------|
G|--------|--------|--------|--------|--------|--------|--------|--------|--------|
D|--------|--------|--------|--------|--------|--------|--------|--------|--------|
A|--------|--------|--------|--------|--------|--------|--------|--------|--------|
E|--------|--------|--------|--------|--------|--------|--------|--------|--------|
B|--------|--------|--------|--------|--------|--------|--------|--------|--------|


E|--------|--------|--------|--------|--------|--------|--------|--------|--------|
B|--------|--------|--------|--------|--------|--------|--------|--------|--------|
G|--------|--------|--------|--------|--------|--------|--------|--------|--------|
D|--------|--------|--------|--------|--------|--------|--------|--------|--------|
A|--------|--------|--------|--------|--------|--------|--------|--------|--------|
E|--------|--------|--------|--------|--------|--------|--------|--------|--------|
B|--------|--------|--------|--------|--------|--------|--------|--------|--------|


E|--------|--------|--------|--------|--------|--------|--------|--------|--------|
B|--------|--------|--------|--------|--------|--------|--------|--------|--------|
G|--------|--------|--------|--------|--------|--------|--------|--------|--------|
D|--------|--------|--------|--------|--------|--------|--------|--------|--------|
A|--------|--------|--------|--------|--------|--------|--------|--------|--------|
E|--------|--------|--------|--------|--------|--------|--------|--------|--------|
B|--------|--------|--------|--------|--------|--------|--------|--------|--------|


E|--------|--------|--------|-------------|----------------|-------------------------------------|
B|--------|--------|--------|-------------|----------------|-------------------------------------|
G|--------|--------|--------|-------------|----------------|-------4-----------2-------------4---|
D|--------|--------|--------|-------------|----------------|-4--4------4---------------4--4------|
A|--------|--------|--------|-------------|----------------|---------------4---------------------|
E|--------|--------|--------|-------------|----------------|---------------2---------------------|
B|--------|--------|--------|-------------|----------------|-------------------------------------|


E|--------------------|-----------------------|--------|--------|--------|--------|
B|--------------------|-----------------------|--------|--------|--------|--------|
G|---------2-----2----|-4-----------2---2-----|--------|--------|--------|--------|
D|-4------------------|-----4-----------------|--------|--------|--------|--------|
A|-----4--------------|---------4-------------|--------|--------|--------|--------|
E|-----2--------------|---------2-------------|--------|--------|--------|--------|
B|--------------------|-----------------------|--------|--------|--------|--------|


E|--------|--------|--------|--------|--------|--------|--------|--------|--------|
B|--------|--------|--------|--------|--------|--------|--------|--------|--------|
G|--------|--------|--------|--------|--------|--------|--------|--------|--------|
D|--------|--------|--------|--------|--------|--------|--------|--------|--------|
A|--------|--------|--------|--------|--------|--------|--------|--------|--------|
E|--------|--------|--------|--------|--------|--------|--------|--------|--------|
B|--------|--------|--------|--------|--------|--------|--------|--------|--------|


E|--------|--------|--------|--------|--------|
B|--------|--------|--------|--------|--------|
G|--------|--------|--------|--------|--------|
D|--------|--------|--------|--------|--------|
A|--------|--------|--------|--------|--------|
E|--------|--------|--------|--------|--------|
B|--------|--------|--------|--------|--------|





Track 3: Acoustic

E|--------|--------|--------|--------|--------|--------|--------|--------|--------|
B|--------|--------|--------|--------|--------|--------|--------|--------|--------|
G|--------|--------|--------|--------|--------|--------|--------|--------|--------|
D|--------|--------|--------|--------|--------|--------|--------|--------|--------|
A|--------|--------|--------|--------|--------|--------|--------|--------|--------|
E|--------|--------|--------|--------|--------|--------|--------|--------|--------|
B|--------|--------|--------|--------|--------|--------|--------|--------|--------|


E|--------|--------|--------|--------|--------|--------|--------|-----------------0---------------|
B|--------|--------|--------|--------|--------|--------|--------|-------------0-------0-----------|
G|--------|--------|--------|--------|--------|--------|--------|---------2-----------------------|
D|--------|--------|--------|--------|--------|--------|--------|-----4-----------------------0---|
A|--------|--------|--------|--------|--------|--------|--------|---------------------------------|
E|--------|--------|--------|--------|--------|--------|--------|-2-----------------------3-------|
B|--------|--------|--------|--------|--------|--------|--------|---------------------------------|


E|-------------0-------------------|---------------------------------|---------------------------------|
B|-----3-----------3---------------|-----------------2---------------|---------------------------------|
G|-2-------------------2-----------|-4-------------------------------|-----------------2---------------|
D|-----------------------------2---|-----2-------4-------4-----------|-4-----------0-------0-------4---|
A|-------------------------0-------|---------2-------------------2---|-----2---------------------------|
E|---------3-----------------------|-------------------------0-------|---------3---------------2-------|
B|---------------------------------|---------------------------------|---------------------------------|


E|---------0-----------------------|-----0---------------------------|---------------------------------|
B|-----0-------0---------------3---|---------3---------------0-------|---------2-----------------------|
G|-2-----------------------2-------|-------------2-------------------|---------------------------------|
D|---------------------0-----------|---------------------2-------2---|-----4-------4-----------4-------|
A|---------------------------------|-----------------0---------------|-2-------------------2-------2---|
E|-----------------3---------------|-3-------------------------------|-----------------0---------------|
B|---------------------------------|---------------------------------|---------------------------------|


E|---------------------------------|-0-----------------------3----|-3---------------------0---|
B|-----------------------------0---|-----0---------------3--------|---------------------------|
G|---------2---------------3-------|-----------------2------------|-----------2-------4-------|
D|-----0-------0-------------------|-------------0----------------|---------------2-----------|
A|---------------------4-----------|------------------------------|-------0-------------------|
E|-3---------------2---------------|---------3--------------------|---------------------------|
B|---------------------------------|------------------------------|---------------------------|


E|---------------------2----2---|----------------------0-------|-----------------5----5----|
B|-----------------2------------|------------------0-------0---|-------------3-------------|
G|-4-----------4----------------|--------------3---------------|---------2-----------------|
D|---------4--------------------|----------4-------------------|-----0---------------------|
A|-----2------------------------|------------------------------|---------------------------|
E|------------------------------|------2-----------------------|-3-------------------------|
B|------------------------------|------------------------------|---------------------------|


E|---------------------7-----------|----------------|--------|--------|--------|--------|
B|-----------------10------10------|----------------|--------|--------|--------|--------|
G|-------------9-------------------|----------------|--------|--------|--------|--------|
D|---------7-------------------9---|------------9---|--------|--------|--------|--------|
A|-----0-----------------------7---|------------7---|--------|--------|--------|--------|
E|-----------------------------0---|------------0---|--------|--------|--------|--------|
B|---------------------------------|----------------|--------|--------|--------|--------|


E|--------|--------|--------|--------|--------|--------|--------|--------|---------------------0-----------|
B|--------|--------|--------|--------|--------|--------|--------|--------|-----------------0-------0---0---|
G|--------|--------|--------|--------|--------|--------|--------|--------|-------------2-------------------|
D|--------|--------|--------|--------|--------|--------|--------|--------|---------4-----------------------|
A|--------|--------|--------|--------|--------|--------|--------|--------|---------------------------------|
E|--------|--------|--------|--------|--------|--------|--------|--------|-----2---------------------------|
B|--------|--------|--------|--------|--------|--------|--------|--------|---------------------------------|


E|----------------|-------------0-----0----|--------0-------|---------0-----0-----|
B|------------0---|-------------0-----0----|--------0-------|---------0-----0-----|
G|----------------|-------------4-----4----|--------4-------|-----6---------------|
D|----------------|---------4--------------|----------------|-7-------------------|
A|----------------|-----2------------------|------------7---|---------------------|
E|----------------|-0----------------------|----------------|---------------------|
B|----------------|------------------------|----------------|---------------------|


E|-----------0-----------|-----0-----0-----|-------0---------------|-9----------------------|
B|-----------0-----------|-----0-----0-----|-------0---------------|------9-----------------|
G|-----------------------|-8---------------|-------------------11--|-----------11--11-------|
D|-------------------9---|-----------------|---------------11------|-------------------11---|
A|---------------9-------|-----------------|-----------9-----------|------------------------|
E|-----------------------|-----------------|-----------------------|------------------------|
B|-----------------------|-----------------|-----------------------|------------------------|


E|-------------------7---|--------------------|-------------------0----|--------------------|
B|-----------------------|-----7--------------|---------------2--------|-0----2---2---------|
G|---------------9-------|----------9---9-----|-9---------2------------|--------------2-----|
D|-----------9-----------|--------------------|-------2----------------|--------------------|
A|-------7---------------|--------------------|------------------------|--------------------|
E|-----------------------|--------------------|------------------------|--------------------|
B|-----------------------|--------------------|------------------------|--------------------|


E|------------------0--------|-------------0-----------0-------|----------------|--------|
B|--------------4--------4---|---------------------4-----------|-4--------------|--------|
G|----------4----------------|-----4---4-------4-----------4---|----------------|--------|
D|------4--------------------|---------------------------------|----------------|--------|
A|---------------------------|---------------------------------|----------------|--------|
E|---------------------------|---------------------------------|----------------|--------|
B|---------------------------|---------------------------------|----------------|--------|


E|--------|--------|--------|--------|--------|-----------------------|-0-----------------------3----|
B|--------|--------|--------|--------|--------|-------------------0---|-----0---------------3--------|
G|--------|--------|--------|--------|--------|---------------3-------|-----------------2------------|
D|--------|--------|--------|--------|--------|-----------------------|-------------0----------------|
A|--------|--------|--------|--------|--------|-----------4-----------|------------------------------|
E|--------|--------|--------|--------|--------|-------2---------------|---------3--------------------|
B|--------|--------|--------|--------|--------|-----------------------|------------------------------|


E|-3---------------------0---|---------------------2----2---|----------------------0-------|
B|-------------------0-------|-0-----------0---2------------|------------------0-------0---|
G|-----------2---------------|------------------------------|--------------3---------------|
D|---------------2-----------|---------4--------------------|----------4-------------------|
A|-------0-------------------|-----2------------------------|------------------------------|
E|---------------------------|------------------------------|------2-----------------------|
B|---------------------------|------------------------------|------------------------------|


E|-----------------5----5----|---------------------7-----------|----------------|--------|
B|-------------3-------------|-----------------10------10------|----------------|--------|
G|---------2-----------------|-------------9-------------------|----------------|--------|
D|-----0---------------------|---------7-------------------9---|------------9---|--------|
A|---------------------------|-----0-----------------------7---|------------7---|--------|
E|-3-------------------------|-----------------------------0---|------------0---|--------|
B|---------------------------|---------------------------------|----------------|--------|


E|--------|--------|--------|--------|--------|--------|--------|--------|--------|
B|--------|--------|--------|--------|--------|--------|--------|--------|--------|
G|--------|--------|--------|--------|--------|--------|--------|--------|--------|
D|--------|--------|--------|--------|--------|--------|--------|--------|--------|
A|--------|--------|--------|--------|--------|--------|--------|--------|--------|
E|--------|--------|--------|--------|--------|--------|--------|--------|--------|
B|--------|--------|--------|--------|--------|--------|--------|--------|--------|





Track 4: Untitled

G|--------|--------|--------|--------|--------|--------|--------|--------|--------|
D|--------|--------|--------|--------|--------|--------|--------|--------|--------|
A|--------|--------|--------|--------|--------|--------|--------|--------|--------|
E|--------|--------|--------|--------|--------|--------|--------|--------|--------|


G|--------|--------|--------|--------|--------|--------|--------|--------|--------|
D|--------|--------|--------|--------|--------|--------|--------|--------|--------|
A|--------|--------|--------|--------|--------|--------|--------|--------|--------|
E|--------|--------|--------|--------|--------|--------|--------|--------|--------|


G|--------|--------|--------|--------|--------|--------|--------|--------|--------|
D|--------|--------|--------|--------|--------|--------|--------|--------|--------|
A|--------|--------|--------|--------|--------|--------|--------|--------|--------|
E|--------|--------|--------|--------|--------|--------|--------|--------|--------|


G|--------|--------|--------|--------|--------|--------|--------|--------|--------|
D|--------|--------|--------|--------|--------|--------|--------|--------|--------|
A|--------|--------|--------|--------|--------|--------|--------|--------|--------|
E|--------|--------|--------|--------|--------|--------|--------|--------|--------|


G|--------|--------|--------|--------|--------|--------|--------|--------|--------|
D|--------|--------|--------|--------|--------|--------|--------|--------|--------|
A|--------|--------|--------|--------|--------|--------|--------|--------|--------|
E|--------|--------|--------|--------|--------|--------|--------|--------|--------|


G|--------|--------|--------|--------|--------|--------|--------|--------|--------|
D|--------|--------|--------|--------|--------|--------|--------|--------|--------|
A|--------|--------|--------|--------|--------|--------|--------|--------|--------|
E|--------|--------|--------|--------|--------|--------|--------|--------|--------|


G|--------|--------|--------|--------|--------|--------|--------|--------|--------|
D|--------|--------|--------|--------|--------|--------|--------|--------|--------|
A|--------|--------|--------|--------|--------|--------|--------|--------|--------|
E|--------|--------|--------|--------|--------|--------|--------|--------|--------|


G|--------|--------|--------|--------|--------|--------|--------|--------|--------|
D|--------|--------|--------|--------|--------|--------|--------|--------|--------|
A|--------|--------|--------|--------|--------|--------|--------|--------|--------|
E|--------|--------|--------|--------|--------|--------|--------|--------|--------|


G|--------|--------|--------|--------|--------|--------|--------|--------|--------|
D|--------|--------|--------|--------|--------|--------|--------|--------|--------|
A|--------|--------|--------|--------|--------|--------|--------|--------|--------|
E|--------|--------|--------|--------|--------|--------|--------|--------|--------|


G|--------|--------|
D|--------|--------|
A|--------|--------|
E|--------|--------|