Menu:

 

Search:

 

dream theater - a change of seasons pt i the crimson sunrise:

 



Title: A Change of Seasons: 1  The Crimson Sunrise
Artist: 
Album: A Change of Seasons
Author: Dream Theater


Track 1: Guitar - Petrucci

E|---------------------------------|---------------------------------|---------------------------------|
B|---------------------------------|---------------------------------|---------------------------------|
G|---------------------------------|---------------------------------|---------------------------------|
D|---------2---5---5-------2---4---|-4-----------2---2---------------|---------0---------------0-------|
A|-----2---------------2-----------|-----2---5-----------2---5---7---|-----7-------7-------5-------5---|
E|---------------------------------|---------------------------------|-5---------------3---------------|
B|-0---------------0---------------|-0---------------0---------------|---------------------------------|


E|---------------------------------|---------------------------------|---------------------------------|
B|---------------------------------|---------------------------------|---------------------------------|
G|---------------------------------|---------------------------------|---------------------------------|
D|---------2---0-------------------|---------2---5---5-------2---4---|-4-----------2---2---------------|
A|-----2-------------------0-------|-----2---------------2-----------|-----2---5-----------2---5---7---|
E|-0-------------------2-----------|---------------------------------|---------------------------------|
B|-----------------3-----------3---|-0---------------0---------------|-0---------------0---------------|


E|---------------------------------|---------------------------------|---------------------------------|
B|---------------------------------|---------------------------------|---------------------------------|
G|---------------------------------|---------------------------------|---------------------------------|
D|---------0---------------0-------|---------2---0-------------------|---------2---5---5-------2---4---|
A|-----7-------7-------5-------5---|-----2-------------------3-------|-----2---------------2-----------|
E|-5---------------3---------------|-0-------------------3-----------|---------------------------------|
B|---------------------------------|-----------------1-----------1---|-0---------------0---------------|


E|---------------------------------|---------------------------------|---------------------------------|
B|---------------------------------|---------------------------------|---------------------------------|
G|---------------------------------|---------------------------------|---------------------------------|
D|-4-----------2---2---------------|---------0---------------0-------|---------2---0-------------------|
A|-----2---5-----------2---5---7---|-----7-------7-------5-------5---|-----2-------------------0-------|
E|---------------------------------|-5---------------3---------------|-0-------------------2-----------|
B|-0---------------0---------------|---------------------------------|-----------------3-----------3---|


E|---------------------------------|---------------------------------|---------------------------------|
B|---------------------------------|---------------------------------|---------------------------------|
G|---------------------------------|---------------------------------|---------------------------------|
D|---------2---5---5-------2---4---|-4-----------2---2---------------|---------0---------------0-------|
A|-----2---------------2-----------|-----2---5-----------2---5---7---|-----7-------7-------5-------5---|
E|---------------------------------|---------------------------------|-5---------------3---------------|
B|-0---------------0---------------|-0---------------0---------------|---------------------------------|


E|---------------------------------|-----------------0---------------|-----------------0---------------|
B|---------------------------------|-------------0-------------------|-------------3-----------3-------|
G|---------------------------------|---------2---------------4-------|---------2-----------------------|
D|---------2---0-------------------|-----4---------------------------|-----0---------------------------|
A|-----2-------------------3-------|---------------------------------|---------------------------------|
E|-0-------------------3-----------|-2-------------------2-------2---|-3-------------------3-------3---|
B|-----------------1-----------1---|---------------------------------|---------------------------------|


E|---------------------------------|---------------------------------|-----------------0---------------|
B|---------0---------------2-------|---------------------------------|-------------0-----------0-------|
G|---------------------------------|-------------------------2-------|---------2-----------------------|
D|-----2-------2-------4-------4---|---------4-----------0-------0---|-----4---------------------------|
A|-0---------------2---------------|-----2-------2-------------------|---------------------------------|
E|---------------------------------|-0---------------3---------------|-2-------------------2-------2---|
B|---------------------------------|---------------------------------|---------------------------------|


E|-----------------0---------------|---------------------------------|---------------------------------|
B|-------------3-----------3-------|---------0---------------2-------|---------------------------------|
G|---------2-----------------------|---------------------------------|-------------------------2-------|
D|-----0---------------------------|-----2-------2-------4-------4---|---------4-----------0-------0---|
A|---------------------------------|-0---------------2---------------|-----2-------2-------------------|
E|-3-------------------3-------3---|---------------------------------|-0---------------3---------------|
B|---------------------------------|---------------------------------|---------------------------------|


E|---------------------------------|---------------------------------|---------------------------------|
B|---------------------------------|---------------------------------|---------------------------------|
G|-------------------------0-------|---------------------------------|-----------------0---------------|
D|-----------------4---------------|---------7-------5---4-----------|---------4-----------------------|
A|-----2---5-----------------------|-5---7-----------------------2---|-5-------------------------------|
E|---------------------------------|---------------------------------|-----------------------------5---|
B|-0-----------0-------0-------0---|-------------0-----------0-------|-----0-------0-------0---3-------|


E|------------------------------|---------------------------------|---------------------------------|
B|------------------------------|---------------------------------|---------------------------------|
G|------------------------------|---------0-----------------------|---------------------------------|
D|---------2--------------------|-4-----------------------7-------|-5---4---2---------------4-------|
A|-5-------2--------2---5-------|-----------------5---7-----------|-------------2---5---------------|
E|------------------------------|---------------------------------|---------------------------------|
B|-----3--------0-----------0---|-----0-------0---------------0---|---------------------0-------0---|


E|---------------------------|--------|--------|--------|--------|--------|--------|
B|---------------------------|--------|--------|--------|--------|--------|--------|
G|-0-------------------------|--------|--------|--------|--------|--------|--------|
D|----------------------2----|--------|--------|--------|--------|--------|--------|
A|-----------------5----2----|--------|--------|--------|--------|--------|--------|
E|-------------5-------------|--------|--------|--------|--------|--------|--------|
B|-----0---3-----------------|--------|--------|--------|--------|--------|--------|


E|--------|--------|--------|--------|--------|--------|--------|--------|--------|
B|--------|--------|--------|--------|--------|--------|--------|--------|--------|
G|--------|--------|--------|--------|--------|--------|--------|--------|--------|
D|--------|--------|--------|--------|--------|--------|--------|--------|--------|
A|--------|--------|--------|--------|--------|--------|--------|--------|--------|
E|--------|--------|--------|--------|--------|--------|--------|--------|--------|
B|--------|--------|--------|--------|--------|--------|--------|--------|--------|


E|--------|--------|--------|--------|--------|--------|--------|--------|--------|
B|--------|--------|--------|--------|--------|--------|--------|--------|--------|
G|--------|--------|--------|--------|--------|--------|--------|--------|--------|
D|--------|--------|--------|--------|--------|--------|--------|--------|--------|
A|--------|--------|--------|--------|--------|--------|--------|--------|--------|
E|--------|--------|--------|--------|--------|--------|--------|--------|--------|
B|--------|--------|--------|--------|--------|--------|--------|--------|--------|


E|--------|--------|--------|--------|--------|--------|--------|--------|--------|
B|--------|--------|--------|--------|--------|--------|--------|--------|--------|
G|--------|--------|--------|--------|--------|--------|--------|--------|--------|
D|--------|--------|--------|--------|--------|--------|--------|--------|--------|
A|--------|--------|--------|--------|--------|--------|--------|--------|--------|
E|--------|--------|--------|--------|--------|--------|--------|--------|--------|
B|--------|--------|--------|--------|--------|--------|--------|--------|--------|


E|--------|--------|--------|--------|--------|--------|--------|--------|--------|
B|--------|--------|--------|--------|--------|--------|--------|--------|--------|
G|--------|--------|--------|--------|--------|--------|--------|--------|--------|
D|--------|--------|--------|--------|--------|--------|--------|--------|--------|
A|--------|--------|--------|--------|--------|--------|--------|--------|--------|
E|--------|--------|--------|--------|--------|--------|--------|--------|--------|
B|--------|--------|--------|--------|--------|--------|--------|--------|--------|


E|--------|--------|--------|--------|--------|--------|--------|--------|--------|
B|--------|--------|--------|--------|--------|--------|--------|--------|--------|
G|--------|--------|--------|--------|--------|--------|--------|--------|--------|
D|--------|--------|--------|--------|--------|--------|--------|--------|--------|
A|--------|--------|--------|--------|--------|--------|--------|--------|--------|
E|--------|--------|--------|--------|--------|--------|--------|--------|--------|
B|--------|--------|--------|--------|--------|--------|--------|--------|--------|


E|--------|--------|--------|--------|--------|--------|--------|--------|--------|
B|--------|--------|--------|--------|--------|--------|--------|--------|--------|
G|--------|--------|--------|--------|--------|--------|--------|--------|--------|
D|--------|--------|--------|--------|--------|--------|--------|--------|--------|
A|--------|--------|--------|--------|--------|--------|--------|--------|--------|
E|--------|--------|--------|--------|--------|--------|--------|--------|--------|
B|--------|--------|--------|--------|--------|--------|--------|--------|--------|


E|--------|--------|--------|--------|--------|--------|--------|--------|--------|
B|--------|--------|--------|--------|--------|--------|--------|--------|--------|
G|--------|--------|--------|--------|--------|--------|--------|--------|--------|
D|--------|--------|--------|--------|--------|--------|--------|--------|--------|
A|--------|--------|--------|--------|--------|--------|--------|--------|--------|
E|--------|--------|--------|--------|--------|--------|--------|--------|--------|
B|--------|--------|--------|--------|--------|--------|--------|--------|--------|


E|--------|--------|--------|--------|--------|--------|--------|--------|--------|
B|--------|--------|--------|--------|--------|--------|--------|--------|--------|
G|--------|--------|--------|--------|--------|--------|--------|--------|--------|
D|--------|--------|--------|--------|--------|--------|--------|--------|--------|
A|--------|--------|--------|--------|--------|--------|--------|--------|--------|
E|--------|--------|--------|--------|--------|--------|--------|--------|--------|
B|--------|--------|--------|--------|--------|--------|--------|--------|--------|


E|--------|--------|--------|--------|--------|
B|--------|--------|--------|--------|--------|
G|--------|--------|--------|--------|--------|
D|--------|--------|--------|--------|--------|
A|--------|--------|--------|--------|--------|
E|--------|--------|--------|--------|--------|
B|--------|--------|--------|--------|--------|





Track 2: Guitar 2 - Petrucci

E|--------|--------|--------|--------|--------|--------|--------|--------|--------|
B|--------|--------|--------|--------|--------|--------|--------|--------|--------|
G|--------|--------|--------|--------|--------|--------|--------|--------|--------|
D|--------|--------|--------|--------|--------|--------|--------|--------|--------|
A|--------|--------|--------|--------|--------|--------|--------|--------|--------|
E|--------|--------|--------|--------|--------|--------|--------|--------|--------|
B|--------|--------|--------|--------|--------|--------|--------|--------|--------|


E|--------|--------|--------|--------|--------|--------|--------|--------|--------|
B|--------|--------|--------|--------|--------|--------|--------|--------|--------|
G|--------|--------|--------|--------|--------|--------|--------|--------|--------|
D|--------|--------|--------|--------|--------|--------|--------|--------|--------|
A|--------|--------|--------|--------|--------|--------|--------|--------|--------|
E|--------|--------|--------|--------|--------|--------|--------|--------|--------|
B|--------|--------|--------|--------|--------|--------|--------|--------|--------|


E|--------|--------|--------|--------|--------|--------|--------|--------|--------|
B|--------|--------|--------|--------|--------|--------|--------|--------|--------|
G|--------|--------|--------|--------|--------|--------|--------|--------|--------|
D|--------|--------|--------|--------|--------|--------|--------|--------|--------|
A|--------|--------|--------|--------|--------|--------|--------|--------|--------|
E|--------|--------|--------|--------|--------|--------|--------|--------|--------|
B|--------|--------|--------|--------|--------|--------|--------|--------|--------|


E|--------|--------|--------|--------|---------------------------------|---------------------------------|
B|--------|--------|--------|--------|---------------------------------|---------------------------------|
G|--------|--------|--------|--------|---------------------------------|---------------------------------|
D|--------|--------|--------|--------|---------------------------------|---------------------------------|
A|--------|--------|--------|--------|---------------------------------|---------------------------------|
E|--------|--------|--------|--------|-----14--15------12--14------10--|-12------9---10------7-------14--|
B|--------|--------|--------|--------|-0-----------0-----------0-------|-----0-----------0-------0-------|


E|---------------------------------|---------------------------------|---------------------------------|
B|---------------------------------|---------------------------------|---------------------------------|
G|---------------------------------|---------------------------------|---------------------------------|
D|---------------------------------|---------------------------------|---------------------------------|
A|---------------------------------|---------8-----------------------|---------------------------------|
E|-15------12--14------10--12------|-9---10--------------14--15------|-12--14------10--12------9---10--|
B|-----0-----------0-----------0---|-------------10--0-----------0---|---------0-----------0-----------|


E|---------------------------------|---------------------------------|---------------------------------|
B|---------------------------------|---------------------------------|---------------------------------|
G|---------------------------------|---------------------------------|---------------------------------|
D|---------------------------------|---------------------------------|---------------------------------|
A|---------------------------------|-------------------------8-------|---------------------------------|
E|-----7-------14--15------12--14--|-----10--12------9---10----------|-----9---10------7---9-------5---|
B|-0-------0-----------0-----------|-0-----------0---------------10--|-0---7---8---0---5---7---0---3---|


E|------------------------------|---------------------------------|------------------------------|
B|------------------------------|---------------------------------|------------------------------|
G|------------------------------|---------------------------------|------------------------------|
D|------------------------------|---------------------------------|------------------------------|
A|------------------------------|---------------------------------|------------------------------|
E|-7-------4---5-------5---5----|-----9---10------7---9-------5---|-7-------4---5---8--------9---|
B|-5---0---2---3---0---3---3----|-0---7---8---0---5---7---0---3---|-5---0---2---3---6----0---7---|


E|---------------------------------|------------------------------|---------------------------------|
B|---------------------------------|------------------------------|---------------------------------|
G|---------------------------------|------------------------------|---------------------------------|
D|---------------------------------|------------------------------|---------------------------------|
A|---------------------------------|------------------------------|---------------------------------|
E|-10------7---9-------5---7-------|-4---5-------5---5--------9---|-10------7---9-------5---7-------|
B|-8---0---5---7---0---3---5---0---|-2---3---0---3---3----0---7---|-8---0---5---7---0---3---5---0---|


E|------------------------------|---------------------------------|---------------------------------|
B|------------------------------|---------------------------------|---------------------------------|
G|------------------------------|---------------------------------|---------------------------------|
D|------------------------------|---------------------------------|---------------------------------|
A|------------------------------|---------------------------------|---------------------------------|
E|-4---5---8--------------------|---------------------------------|---------------------------------|
B|-2---3---6----0---7---8---0---|-5---7---0---3---5---0---2---3---|-0---3---0---7---8---0---5---7---|


E|------------------------------|---------------------------------|---------------------------------|
B|------------------------------|---------------------------------|---------------------------------|
G|------------------------------|---------------------------------|---------------------------------|
D|------------------------------|---------------------------------|---------------------------------|
A|------------------------------|---------------------------------|---------------------------------|
E|------------------------------|---------------------------------|---------------------------------|
B|-0---3---5---0---2---3---6----|-0---7---8---0---5---7---0---3---|-5---0---2---3---0---3---0---7---|


E|---------------------------------|------------------------|-----------------|----------------------|
B|---------------------------------|------------------------|-----------------|----------------------|
G|---------------------------------|------------------------|-----------------|----------------------|
D|---------------------------------|------------------------|-----------------|----------------------|
A|---------------------------------|------------------------|-----------------|----------------------|
E|---------------------------------|--------------2---2-----|-----------2-----|-----2--2--2---2------|
B|-8---0---5---7---0---3---5---0---|-2---3---6----0---0-----|-----------0-----|-----0--0--0---0------|


E|----------------|-------------0---|---------------------|------------0-----|-----------------|
B|----------------|-------7---------|------10-------------|------7-----------|-----------------|
G|----------------|-----------------|-----------7---------|------------------|-7---------------|
D|----------------|-9---------------|----------------9----|------------------|------7----9-----|
A|----------------|-----------------|---------------------|------------------|-----------------|
E|------------2---|-----------------|---------------------|------------------|-----------------|
B|------------0---|-----------------|---------------------|------------------|-----------------|


E|-------0----------|-----------------|-----0---------------|-----------------0---|
B|-7-----------10---|------------7----|---------------------|-----------0---------|
G|------------------|-7---------------|-----------7---------|------11-------------|
D|------------------|------9----------|----------------7----|-9-------------------|
A|------------------|-----------------|---------------------|---------------------|
E|------------------|-----------------|---------------------|---------------------|
B|------------------|-----------------|---------------------|---------------------|


E|-----------0--------|------------0-----|-------0-------------|-------0------|-----0------------------|
B|--------------------|------0-----------|---------------------|-0------------|-------------------8----|
G|--------------------|-9----------------|----------------2----|--------------|--------------7---------|
D|---------------7----|------------------|-----------2---------|--------------|---------5--------------|
A|--------------------|------------------|---------------------|--------------|------------------------|
E|--------------------|------------------|---------------------|--------------|------------------------|
B|--------------------|------------------|---------------------|--------------|------------------------|


E|-----5------5---|----------------------------------|--------------------------------|
B|----------------|----------------------------------|--------------------------------|
G|----------------|----------------------------------|--------------------------------|
D|----------------|----------------------------------|--------------------------------|
A|----------------|----------------------------------|-----------5--------------------|
E|----------------|-----7---7--7--5---7---7--7--5----|-7---7--7------7---5--------7---|
B|----------------|-0--------------------------------|------------------------0-------|


E|----------------------------------|--------------------------------|----------------------------------|
B|----------------------------------|--------------------------------|----------------------------------|
G|----------------------------------|--------------------------------|----------------------------------|
D|----------------------------------|--------------------------------|----------------------------------|
A|------------------------------5---|-----7---5----------------------|--------------------------5---7---|
E|-7--7--5---7---7--7--5----7-------|-5----------------7---7--7--5---|-7---7--7--5----7---7--7----------|
B|----------------------------------|--------------0-----------------|----------------------------------|


E|-------------------------------------|---------------------------|-----------------------------------|
B|-------------------------------------|---------------------------|-----------------------------------|
G|-------------------------------------|---------------------------|-----------------------------------|
D|-------------------------------------|---------------------------|-----------------------------------|
A|-5-----------------------------------|---------------------------|-----------------------------------|
E|-----7-------7---7--7--5---7---7--7--|-5----7--------------------|---------2-------4---2--2------5---|
B|---------0---------------------------|-----------0---3---5---7---|-2---2-------2-------------2-------|


E|---------------------------------|-----------------------------------|---------------------------------|
B|---------------------------------|-----------------------------------|---------------------------------|
G|---------------------------------|-----------------------------------|---------------------------------|
D|-----------------------------2---|-0---------------------------------|---------------------------------|
A|-----------------0---2---4-------|-----------------------------------|---------------------0---2---4---|
E|-----4---0---4-------------------|-------------2-------4---2--2------|-5-------4---0---4---------------|
B|-2-------------------------------|-----2---2-------2-------------2---|-----2---------------------------|


E|-----------------------------------|---------------------------------|---------------------------------|
B|-----------------------------------|---------------------------------|---------------------------------|
G|-----------------------------------|---------------------------------|---------------------------------|
D|-2---0-----------4-------6---4--4--|-----7---------------------------|-----2---0-----------7-------9---|
A|---------4---4-------4-------------|-4-------4---------------0---2---|-4-----------7---7-------7-------|
E|-----------------------------------|-------------4---0---4-----------|---------------------------------|
B|-----------------------------------|---------------------------------|---------------------------------|


E|-----------------------------------|---------------------------------|-----------------------------------|
B|-----------------------------------|---------------------------------|-----------------------------------|
G|-----------------------------------|---------------------------------|-----------------------------------|
D|-7--7------10------9---------------|-------------------------7-------|-9---7--7--------------9-----------|
A|-------7-------7-------10----------|-----7---10--8---7---7-------7---|-----------7-------7---------------|
E|---------------------------7---8---|-10------------------------------|---------------8---0---------------|
B|-----------------------------------|---------------------------------|---------------------------8---0---|


E|---------------------------------|-----------------------------------|---------------------------------|
B|---------------------------------|-----------------------------------|---------------------------------|
G|---------------------------------|-----------------------------------|---------------------------------|
D|---------------------------------|-----------------------------------|---------------------------------|
A|-----------------------------2---|-----2---0--0------3-------2-------|-2---3---5-----------------------|
E|---------0---3---2---0---0-------|-0-------------0-------0-------3---|-------------0---3---2-----------|
B|-1---3---------------------------|-----------------------------------|-------------------------2---2---|


E|-----------------------------------|---------------------------------|-----------------------------------|
B|-----------------------------------|---------------------------------|-----------------------------------|
G|-----------------------------------|---------------------------------|-----------------------------------|
D|-----------------------------------|---------------------2---0-------|-----------------------------------|
A|-----------------------------------|---------0---2---4---------------|---------------------------0---4---|
E|-2-------4---2--2------5-------4---|-0---4---------------------------|-----2-------4---2--2--------------|
B|-----2-------------2-------2-------|-----------------------------2---|-2-------2-------------2-----------|


E|---------------------------------|-----------------------------------|---------------------------------|
B|---------------------------------|-----------------------------------|---------------------------------|
G|---------------------------------|-----------------------------------|---------------------------------|
D|-6-----------------------2---0---|---------4-------6---4--4------7---|-----6-----------------------2---|
A|-------------0---2---4-----------|-4---4-------4-------------4-------|-4-------7-------0---2---4-------|
E|-----0---4-----------------------|-----------------------------------|-------------4-------------------|
B|---------------------------------|-----------------------------------|---------------------------------|


E|-----------------------------------|---------------------------------|-----------------------------------|
B|-----------------------------------|---------------------------------|-----------------------------------|
G|-----------------------------------|-5-------------------------------|-----------------------------------|
D|-0-----------7-------9---7--7------|---------9-----------------------|-----------------7-------9---7--7--|
A|-----7---7-------7-------------7---|-----7-------10--------------7---|-10--8---7---7-------7-------------|
E|-----------------------------------|-----------------7---8---10------|-----------------------------------|
B|-----------------------------------|---------------------------------|-----------------------------------|


E|---------------------------------|---------------------------------|-----------------------------------|
B|---------------------------------|---------------------------------|-----------------------------------|
G|---------------------------------|---------------------------------|-----------------------------------|
D|-------------9-------------------|---------------------------------|-----------------------------------|
A|-7-------7-----------------------|---------------------0-------2---|-0--0------3-------2-------2---3---|
E|-----8---0-----------------------|-0---3---2---0---0-------0-------|-------0-------0-------3-----------|
B|-----------------8---0---1---3---|---------------------------------|-----------------------------------|


E|-----------------------|------------------------|---------------------------|------------------------|
B|-----------------------|------------------------|---------------------------|------------------------|
G|-----------------------|------------------------|---------------------------|------------------------|
D|-----------------------|------------------------|-------------2---0---------|-----------2---2---4----|
A|-5---------------------|---------------2--------|-0---2---4-----------------|-----------0---0---2----|
E|-----0---3---2---4-----|-4-----5---5---0----4---|---------------------4-----|-----4-----0---0---2----|
B|-----------------2-----|-2-----3---3------------|---------------------2-----|-----2------------------|


E|------------------------------|--------------------|---------------------------------|
B|------------------------------|--------------------|---------------------------------|
G|------------------------------|--------------------|---------------------------------|
D|-----------------2---0--------|--------------------|---------------------2---1---5---|
A|-----0---2---4----------------|----------------2---|---------0---2---4---------------|
E|-4-----------------------4----|-----------5----0---|-----4---------------------------|
B|-------------------------2----|-----------3--------|---------------------------------|


E|------------------------------|------------------8---11--10--|-----11-10-8-----------------------------------|
B|------------------------------|-----7---10--9----------------|--------------10-9--7--------------------------|
G|------------------5---8---7---|------------------------------|-----------------------8--7--5-----------------|
D|-----4---7---6----------------|------------------------------|--------------------------------7-----4--------|
A|------------------------------|------------------------------|-----------------------------------6-----6--4--|
E|------------------------------|------------------------------|-----------------------------------------------|
B|------------------------------|------------------------------|-----------------------------------------------|


E|----------------------------|--------------------|
B|----------------------------|--------------------|
G|----------------------------|--------------------|
D|----------------------------|--------------------|
A|-3--------4-----4--4--4-----|----4--4------------|
E|----5--4--2-----2--2--2-----|----2--2------------|
B|----------------------------|--------------------|





Track 3: guitar 1

G|--------|--------|--------|--------|--------|--------|--------|--------|--------|
D|--------|--------|--------|--------|--------|--------|--------|--------|--------|
A|--------|--------|--------|--------|--------|--------|--------|--------|--------|
E|--------|--------|--------|--------|--------|--------|--------|--------|--------|


G|--------|--------|--------|--------|--------|--------|--------|--------|--------|
D|--------|--------|--------|--------|--------|--------|--------|--------|--------|
A|--------|--------|--------|--------|--------|--------|--------|--------|--------|
E|--------|--------|--------|--------|--------|--------|--------|--------|--------|


G|--------|--------|--------|--------|--------|--------|--------|--------|--------|
D|--------|--------|--------|--------|--------|--------|--------|--------|--------|
A|--------|--------|--------|--------|--------|--------|--------|--------|--------|
E|--------|--------|--------|--------|--------|--------|--------|--------|--------|


G|--------|--------|--------|--------|--------|--------|--------|--------|--------|
D|--------|--------|--------|--------|--------|--------|--------|--------|--------|
A|--------|--------|--------|--------|--------|--------|--------|--------|--------|
E|--------|--------|--------|--------|--------|--------|--------|--------|--------|


G|--------|--------|--------|--------|--------|--------|--------|--------|--------|
D|--------|--------|--------|--------|--------|--------|--------|--------|--------|
A|--------|--------|--------|--------|--------|--------|--------|--------|--------|
E|--------|--------|--------|--------|--------|--------|--------|--------|--------|


G|--------|--------|--------|--------|--------|--------|--------|--------|--------|
D|--------|--------|--------|--------|--------|--------|--------|--------|--------|
A|--------|--------|--------|--------|--------|--------|--------|--------|--------|
E|--------|--------|--------|--------|--------|--------|--------|--------|--------|


G|--------|--------|--------|--------|--------|--------|--------|--------|--------|
D|--------|--------|--------|--------|--------|--------|--------|--------|--------|
A|--------|--------|--------|--------|--------|--------|--------|--------|--------|
E|--------|--------|--------|--------|--------|--------|--------|--------|--------|


G|--------|--------|--------|--------|--------|--------|--------|--------|--------|
D|--------|--------|--------|--------|--------|--------|--------|--------|--------|
A|--------|--------|--------|--------|--------|--------|--------|--------|--------|
E|--------|--------|--------|--------|--------|--------|--------|--------|--------|


G|--------|--------|--------|--------|--------|--------|--------|--------|--------|
D|--------|--------|--------|--------|--------|--------|--------|--------|--------|
A|--------|--------|--------|--------|--------|--------|--------|--------|--------|
E|--------|--------|--------|--------|--------|--------|--------|--------|--------|


G|--------|--------|--------|--------|--------|--------|--------|--------|--------|
D|--------|--------|--------|--------|--------|--------|--------|--------|--------|
A|--------|--------|--------|--------|--------|--------|--------|--------|--------|
E|--------|--------|--------|--------|--------|--------|--------|--------|--------|


G|--------|--------|--------|--------|--------|--------|--------|--------|--------|
D|--------|--------|--------|--------|--------|--------|--------|--------|--------|
A|--------|--------|--------|--------|--------|--------|--------|--------|--------|
E|--------|--------|--------|--------|--------|--------|--------|--------|--------|


G|--------|--------|--------|--------|--------|--------|--------|--------|--------|
D|--------|--------|--------|--------|--------|--------|--------|--------|--------|
A|--------|--------|--------|--------|--------|--------|--------|--------|--------|
E|--------|--------|--------|--------|--------|--------|--------|--------|--------|


G|--------|--------|--------|--------|--------|--------|
D|--------|--------|--------|--------|--------|--------|
A|--------|--------|--------|--------|--------|--------|
E|--------|--------|--------|--------|--------|--------|