Menu:

 

Search:

 

doves - the man who told everything:

 



Title: The Man Who Told Everything
Artist: 
Album: Lost Souls
Author: Jimi Goodwin, Jez Williams & Andy Williams


Track 1: Gtr.1

E|-----------------------------------------|-------3-------------------------------|
B|-0------0---0--0---0--0--0--0--3------3--|-------3---3--3--3---8------8----------|
G|-0---0--0---0--0---0--0--0--0--4---4--4--|----4--4---4--4--4---9---9--9---9--9---|
D|-2---2--2---2--2---2--2--2--0--5---5--5--|----5--5---5--5--5---10--10-10--10-10--|
A|-2---2--2---2--2---2--2--2--0--5---5--5--|----5--5---5--5--5---10--10-10--10-10--|
E|-0---0--0----------0--0--0-----3---3--3--|----3--3---3-----3---8---8--8---8--8---|


E|---------------------------7---------7-----|-----------------------------------------|
B|-8--8--8--7--7------7---7--7---7--7--7--7--|-0------0---0--0---0--0--0--0--3------3--|
G|-9--9--9--8--8---8--8---8--8---8--8--8--8--|-0---0--0---0--0---0--0--0--0--4---4--4--|
D|-10-10-10-7--7---7--7---7--7---7--7--7--7--|-2---2--2---2--2---2--2--2--0--5---5--5--|
A|-10-10-10-9--9---9--9---9--9---9--9--9--9--|-2---2--2---2--2---2--2--2--0--5---5--5--|
E|-8-----8--7--7---7--7------7---7-----7--7--|-0---0--0----------0--0--0-----3---3--3--|


E|-------3-------------------------------|-------------7------7------7---------7-----|
B|-------3---3--3--3---8------8----------|-8--8--8--7--7------7---7--7---7--7--7--7--|
G|----4--4---4--4--4---9---9--9---9--9---|-9--9--9--8--8---8--8---8--8---8--8--8--8--|
D|----5--5---5--5--5---10--10-10--10-10--|-10-10-10-7--7---7--7---7--7---7--7--7--7--|
A|----5--5---5--5--5---10--10-10--10-10--|-10-10-10-9--9---9--9---9--9---9--9--9--9--|
E|----3--3---3-----3---8---8--8---8--8---|-8-----8--7--7---7--7------7---7-----7--7--|


E|-----------------------------------------|-------3-------------------------------|
B|-0------0---0--0---0--0--0--0--3------3--|-------3---3--3--3---8------8----------|
G|-0---0--0---0--0---0--0--0--0--4---4--4--|----4--4---4--4--4---9---9--9---9--9---|
D|-2---2--2---2--2---2--2--2--0--5---5--5--|----5--5---5--5--5---10--10-10--10-10--|
A|-2---2--2---2--2---2--2--2--0--5---5--5--|----5--5---5--5--5---10--10-10--10-10--|
E|-0---0--0----------0--0--0-----3---3--3--|----3--3---3-----3---8---8--8---8--8---|


E|---------------------------7---------7-----|-----------------------------------------|
B|-8--8--8--7--7------7---7--7---7--7--7--7--|-0------0---0--0---0--0--0--0--3------3--|
G|-9--9--9--8--8---8--8---8--8---8--8--8--8--|-0---0--0---0--0---0--0--0--0--4---4--4--|
D|-10-10-10-7--7---7--7---7--7---7--7--7--7--|-2---2--2---2--2---2--2--2--0--5---5--5--|
A|-10-10-10-9--9---9--9---9--9---9--9--9--9--|-2---2--2---2--2---2--2--2--0--5---5--5--|
E|-8-----8--7--7---7--7------7---7-----7--7--|-0---0--0----------0--0--0-----3---3--3--|


E|-------3-------------------------------|---------------------------7---------7-----|
B|-------3---3--3--3---8------8------8---|-8--8--8--7--7------7---7--7---7--7--7--7--|
G|----4--4---4--4--4---9---9--9---9--9---|-9--9--9--8--8---8--8---8--8---8--8--8--8--|
D|----5--5---5--5--5---10--10-10--10-10--|-10-10-10-7--7---7--7---7--7---7--7--7--7--|
A|----5--5---5--5--5---10--10-10--10-10--|-10-10-10-9--9---9--9---9--9---9--9--9--9--|
E|----3--3---3-----3---8---8--8---8--8---|-8-----8--7--7---7--7------7---7-----7--7--|


E|--------|--------|--------|--------|--------|--------|--------|--------|--------|
B|--------|--------|--------|--------|--------|--------|--------|--------|--------|
G|--------|--------|--------|--------|--------|--------|--------|--------|--------|
D|--------|--------|--------|--------|--------|--------|--------|--------|--------|
A|--------|--------|--------|--------|--------|--------|--------|--------|--------|
E|--------|--------|--------|--------|--------|--------|--------|--------|--------|


E|--------|--------|--------|-----------------------------------------|-------3-------------------------------|
B|--------|--------|--------|-0------0---0--0---0--0--0--0--3------3--|-------3---3--3--3---8------8----------|
G|--------|--------|--------|-0---0--0---0--0---0--0--0--0--4---4--4--|----4--4---4--4--4---9---9--9---9--9---|
D|--------|--------|--------|-2---2--2---2--2---2--2--2--0--5---5--5--|----5--5---5--5--5---10--10-10--10-10--|
A|--------|--------|--------|-2---2--2---2--2---2--2--2--0--5---5--5--|----5--5---5--5--5---10--10-10--10-10--|
E|--------|--------|--------|-0---0--0----------0--0--0-----3---3--3--|----3--3---3-----3---8---8--8---8--8---|


E|---------------------------7---------7-----|-----------------------------------------|
B|-8--8--8--7--7------7---7--7---7--7--7--7--|-0------0---0--0---0--0--0--0--3------3--|
G|-9--9--9--8--8---8--8---8--8---8--8--8--8--|-0---0--0---0--0---0--0--0--0--4---4--4--|
D|-10-10-10-7--7---7--7---7--7---7--7--7--7--|-2---2--2---2--2---2--2--2--0--5---5--5--|
A|-10-10-10-9--9---9--9---9--9---9--9--9--9--|-2---2--2---2--2---2--2--2--0--5---5--5--|
E|-8-----8--7--7---7--7------7---7-----7--7--|-0---0--0----------0--0--0-----3---3--3--|


E|-------3-------------------------------|---------------------------7---------7-----|
B|-------3---3--3--3---8------8----------|-8--8--8--7--7------7---7--7---7--7--7--7--|
G|----4--4---4--4--4---9---9--9---9--9---|-9--9--9--8--8---8--8---8--8---8--8--8--8--|
D|----5--5---5--5--5---10--10-10--10-10--|-10-10-10-7--7---7--7---7--7---7--7--7--7--|
A|----5--5---5--5--5---10--10-10--10-10--|-10-10-10-9--9---9--9---9--9---9--9--9--9--|
E|----3--3---3-----3---8---8--8---8--8---|-8-----8--7--7---7--7------7---7-----7--7--|


E|-----------------------------------------|-------3-------------------------------|
B|-0------0---0--0---0--0--0--0--3------3--|-------3---3--3--3---8------8----------|
G|-0---0--0---0--0---0--0--0--0--4---4--4--|----4--4---4--4--4---9---9--9---9--9---|
D|-2---2--2---2--2---2--2--2--0--5---5--5--|----5--5---5--5--5---10--10-10--10-10--|
A|-2---2--2---2--2---2--2--2--0--5---5--5--|----5--5---5--5--5---10--10-10--10-10--|
E|-0---0--0----------0--0--0-----3---3--3--|----3--3---3-----3---8---8--8---8--8---|


E|---------------------------7---------7-----|-----------------------------------------|
B|-8--8--8--7--7------7---7--7---7--7--7--7--|-0------0---0--0---0--0--0--0--3------3--|
G|-9--9--9--8--8---8--8---8--8---8--8--8--8--|-0---0--0---0--0---0--0--0--0--4---4--4--|
D|-10-10-10-7--7---7--7---7--7---7--7--7--7--|-2---2--2---2--2---2--2--2--0--5---5--5--|
A|-10-10-10-9--9---9--9---9--9---9--9--9--9--|-2---2--2---2--2---2--2--2--0--5---5--5--|
E|-8-----8--7--7---7--7------7---7-----7--7--|-0---0--0----------0--0--0-----3---3--3--|


E|-------3-------------------------------|---------------------------7---------7-----|
B|-------3---3--3--3---8------8----------|-8--8--8--7--7------7---7--7---7--7--7--7--|
G|----4--4---4--4--4---9---9--9---9--9---|-9--9--9--8--8---8--8---8--8---8--8--8--8--|
D|----5--5---5--5--5---10--10-10--10-10--|-10-10-10-7--7---7--7---7--7---7--7--7--7--|
A|----5--5---5--5--5---10--10-10--10-10--|-10-10-10-9--9---9--9---9--9---9--9--9--9--|
E|----3--3---3-----3---8---8--8---8--8---|-8-----8--7--7---7--7------7---7-----7--7--|


E|--------|--------|--------|--------|--------|--------|--------|--------|--------|
B|--------|--------|--------|--------|--------|--------|--------|--------|--------|
G|--------|--------|--------|--------|--------|--------|--------|--------|--------|
D|--------|--------|--------|--------|--------|--------|--------|--------|--------|
A|--------|--------|--------|--------|--------|--------|--------|--------|--------|
E|--------|--------|--------|--------|--------|--------|--------|--------|--------|


E|--------|--------|--------|-----------------------------------------|-------3-------------------------------|
B|--------|--------|--------|-0------0---0--0---0--0--0--0--3------3--|-------3---3--3--3---8------8----------|
G|--------|--------|--------|-0---0--0---0--0---0--0--0--0--4---4--4--|----4--4---4--4--4---9---9--9---9--9---|
D|--------|--------|--------|-2---2--2---2--2---2--2--2--0--5---5--5--|----5--5---5--5--5---10--10-10--10-10--|
A|--------|--------|--------|-2---2--2---2--2---2--2--2--0--5---5--5--|----5--5---5--5--5---10--10-10--10-10--|
E|--------|--------|--------|-0---0--0----------0--0--0-----3---3--3--|----3--3---3-----3---8---8--8---8--8---|


E|---------------------------7---------7-----|-----------------------------------------|
B|-8--8--8--7--7------7---7--7---7--7--7--7--|-0------0---0--0---0--0--0--0--3------3--|
G|-9--9--9--8--8---8--8---8--8---8--8--8--8--|-0---0--0---0--0---0--0--0--0--4---4--4--|
D|-10-10-10-7--7---7--7---7--7---7--7--7--7--|-2---2--2---2--2---2--2--2--0--5---5--5--|
A|-10-10-10-9--9---9--9---9--9---9--9--9--9--|-2---2--2---2--2---2--2--2--0--5---5--5--|
E|-8-----8--7--7---7--7------7---7-----7--7--|-0---0--0----------0--0--0-----3---3--3--|


E|-------3-------------------------------|---------------------------7---------7-----|
B|-------3---3--3--3---8------8----------|-8--8--8--7--7------7---7--7---7--7--7--7--|
G|----4--4---4--4--4---9---9--9---9--9---|-9--9--9--8--8---8--8---8--8---8--8--8--8--|
D|----5--5---5--5--5---10--10-10--10-10--|-10-10-10-7--7---7--7---7--7---7--7--7--7--|
A|----5--5---5--5--5---10--10-10--10-10--|-10-10-10-9--9---9--9---9--9---9--9--9--9--|
E|----3--3---3-----3---8---8--8---8--8---|-8-----8--7--7---7--7------7---7-----7--7--|


E|-----------------------------------------|-------3-------------------------------|
B|-0------0---0--0---0--0--0--0--3------3--|-------3---3--3--3---8------8----------|
G|-0---0--0---0--0---0--0--0--0--4---4--4--|----4--4---4--4--4---9---9--9---9--9---|
D|-2---2--2---2--2---2--2--2--0--5---5--5--|----5--5---5--5--5---10--10-10--10-10--|
A|-2---2--2---2--2---2--2--2--0--5---5--5--|----5--5---5--5--5---10--10-10--10-10--|
E|-0---0--0----------0--0--0-----3---3--3--|----3--3---3-----3---8---8--8---8--8---|


E|---------------------------7---------7-----|-----------------------------------------|
B|-8--8--8--7--7------7---7--7---7--7--7--7--|-0------0---0--0---0--0--0--0--3------3--|
G|-9--9--9--8--8---8--8---8--8---8--8--8--8--|-0---0--0---0--0---0--0--0--0--4---4--4--|
D|-10-10-10-7--7---7--7---7--7---7--7--7--7--|-2---2--2---2--2---2--2--2--0--5---5--5--|
A|-10-10-10-9--9---9--9---9--9---9--9--9--9--|-2---2--2---2--2---2--2--2--0--5---5--5--|
E|-8-----8--7--7---7--7------7---7-----7--7--|-0---0--0----------0--0--0-----3---3--3--|


E|-------3-------------------------------|---------------------------7---------7-----|
B|-------3---3--3--3---8------8----------|-8--8--8--7--7------7---7--7---7--7--7--7--|
G|----4--4---4--4--4---9---9--9---9--9---|-9--9--9--8--8---8--8---8--8---8--8--8--8--|
D|----5--5---5--5--5---10--10-10--10-10--|-10-10-10-7--7---7--7---7--7---7--7--7--7--|
A|----5--5---5--5--5---10--10-10--10-10--|-10-10-10-9--9---9--9---9--9---9--9--9--9--|
E|----3--3---3-----3---8---8--8---8--8---|-8-----8--7--7---7--7------7---7-----7--7--|


E|---------------------------------------|---------------------------------------|
B|-0------0------0------0------0------0--|-------0------0------0------0------0---|
G|-0---0--0---0--0---0--0---0--0---0--0--|----0--0---0--0---0--0---0--0---0--0---|
D|-2---2--2---2--2---2--2---2--2---2--2--|----2--2---2--2---2--2---2--2---2--2---|
A|-2---2--2---2--2---2--2---2--2---2--2--|----2--2---2--2---2--2---2--2---2--2---|
E|-0---0--0---0--0---0--0---0--0---0--0--|----0--0---0--0---0--0---0--0---0--0---|


E|-------------------------------------------|---------------------------------------|
B|----0------0------0------0--0--0--0--0--0--|-0------0------0------0------0------0--|
G|-0--0---0--0---0--0---0--0--0--0--0--0--0--|-0---0--0---0--0---0--0---0--0---0--0--|
D|-2--2---2--2---2--2---2--2--2--2--2--2--2--|-2---2--2---2--2---2--2---2--2---2--2--|
A|-2--2---2--2---2--2---2--2--2--2--2--2--2--|-2---2--2---2--2---2--2---2--2---2--2--|
E|-0--0---0--0---0--0---0--0--0--0--0--0--0--|-0---0--0---0--0---0--0---0--0---0--0--|


E|---------------------------------------|-------------------------------------------|
B|-------0------0------0------0------0---|----0------0------0------0--0--0--0--0--0--|
G|----0--0---0--0---0--0---0--0---0--0---|-0--0---0--0---0--0---0--0--0--0--0--0--0--|
D|----2--2---2--2---2--2---2--2---2--2---|-2--2---2--2---2--2---2--2--2--2--2--2--2--|
A|----2--2---2--2---2--2---2--2---2--2---|-2--2---2--2---2--2---2--2--2--2--2--2--2--|
E|----0--0---0--0---0--0---0--0---0--0---|-0--0---0--0---0--0---0--0--0--0--0--0--0--|


E|--------|--------|--------|--------|--------|--------|-----------------------------------------|
B|--------|--------|--------|--------|--------|--------|-0------0---0--0---0--0--0--0--3------3--|
G|--------|--------|--------|--------|--------|--------|-0---0--0---0--0---0--0--0--0--4---4--4--|
D|--------|--------|--------|--------|--------|--------|-2---2--2---2--2---2--2--2--0--5---5--5--|
A|--------|--------|--------|--------|--------|--------|-2---2--2---2--2---2--2--2--0--5---5--5--|
E|--------|--------|--------|--------|--------|--------|-0---0--0----------0--0--0-----3---3--3--|


E|-------3-------------------------------|---------------------------7---------7-----|
B|-------3---3--3--3---8------8----------|-8--8--8--7--7------7---7--7---7--7--7--7--|
G|----4--4---4--4--4---9---9--9---9--9---|-9--9--9--8--8---8--8---8--8---8--8--8--8--|
D|----5--5---5--5--5---10--10-10--10-10--|-10-10-10-7--7---7--7---7--7---7--7--7--7--|
A|----5--5---5--5--5---10--10-10--10-10--|-10-10-10-9--9---9--9---9--9---9--9--9--9--|
E|----3--3---3-----3---8---8--8---8--8---|-8-----8--7--7---7--7------7---7-----7--7--|


E|-----------------------------------------|-------3-------------------------------|
B|-0------0---0--0---0--0--0--0--3------3--|-------3---3--3--3---8------8----------|
G|-0---0--0---0--0---0--0--0--0--4---4--4--|----4--4---4--4--4---9---9--9---9--9---|
D|-2---2--2---2--2---2--2--2--0--5---5--5--|----5--5---5--5--5---10--10-10--10-10--|
A|-2---2--2---2--2---2--2--2--0--5---5--5--|----5--5---5--5--5---10--10-10--10-10--|
E|-0---0--0----------0--0--0-----3---3--3--|----3--3---3-----3---8---8--8---8--8---|


E|---------------------------7---------7-----|-----------------------------------------|
B|-8--8--8--7--7------7---7--7---7--7--7--7--|-0------0---0--0---0--0--0--0--3------3--|
G|-9--9--9--8--8---8--8---8--8---8--8--8--8--|-0---0--0---0--0---0--0--0--0--4---4--4--|
D|-10-10-10-7--7---7--7---7--7---7--7--7--7--|-2---2--2---2--2---2--2--2--0--5---5--5--|
A|-10-10-10-9--9---9--9---9--9---9--9--9--9--|-2---2--2---2--2---2--2--2--0--5---5--5--|
E|-8-----8--7--7---7--7------7---7-----7--7--|-0---0--0----------0--0--0-----3---3--3--|


E|-------3-------------------------------|---------------------------7---------7-----|
B|-------3---3--3--3---8------8----------|-8--8--8--7--7------7---7--7---7--7--7--7--|
G|----4--4---4--4--4---9---9--9---9--9---|-9--9--9--8--8---8--8---8--8---8--8--8--8--|
D|----5--5---5--5--5---10--10-10--10-10--|-10-10-10-7--7---7--7---7--7---7--7--7--7--|
A|----5--5---5--5--5---10--10-10--10-10--|-10-10-10-9--9---9--9---9--9---9--9--9--9--|
E|----3--3---3-----3---8---8--8---8--8---|-8-----8--7--7---7--7------7---7-----7--7--|


E|-----------------------------------------|-------3-------------------------------|
B|-0------0---0--0---0--0--0--0--3------3--|-------3---3--3--3---8------8----------|
G|-0---0--0---0--0---0--0--0--0--4---4--4--|----4--4---4--4--4---9---9--9---9--9---|
D|-2---2--2---2--2---2--2--2--0--5---5--5--|----5--5---5--5--5---10--10-10--10-10--|
A|-2---2--2---2--2---2--2--2--0--5---5--5--|----5--5---5--5--5---10--10-10--10-10--|
E|-0---0--0----------0--0--0-----3---3--3--|----3--3---3-----3---8---8--8---8--8---|


E|---------------------------7---------7-----|-----------------------------------------|
B|-8--8--8--7--7------7---7--7---7--7--7--7--|-0------0---0--0---0--0--0--0--3------3--|
G|-9--9--9--8--8---8--8---8--8---8--8--8--8--|-0---0--0---0--0---0--0--0--0--4---4--4--|
D|-10-10-10-7--7---7--7---7--7---7--7--7--7--|-2---2--2---2--2---2--2--2--0--5---5--5--|
A|-10-10-10-9--9---9--9---9--9---9--9--9--9--|-2---2--2---2--2---2--2--2--0--5---5--5--|
E|-8-----8--7--7---7--7------7---7-----7--7--|-0---0--0----------0--0--0-----3---3--3--|


E|-------3-------------------------------|---------------------------7---------7-----|
B|-------3---3--3--3---8------8----------|-8--8--8--7--7------7---7--7---7--7--7--7--|
G|----4--4---4--4--4---9---9--9---9--9---|-9--9--9--8--8---8--8---8--8---8--8--8--8--|
D|----5--5---5--5--5---10--10-10--10-10--|-10-10-10-7--7---7--7---7--7---7--7--7--7--|
A|----5--5---5--5--5---10--10-10--10-10--|-10-10-10-9--9---9--9---9--9---9--9--9--9--|
E|----3--3---3-----3---8---8--8---8--8---|-8-----8--7--7---7--7------7---7-----7--7--|


E|-----------------------------------------|-------3-------------------------------|
B|-0------0---0--0---0--0--0--0--3------3--|-------3---3--3--3---8------8----------|
G|-0---0--0---0--0---0--0--0--0--4---4--4--|----4--4---4--4--4---9---9--9---9--9---|
D|-2---2--2---2--2---2--2--2--0--5---5--5--|----5--5---5--5--5---10--10-10--10-10--|
A|-2---2--2---2--2---2--2--2--0--5---5--5--|----5--5---5--5--5---10--10-10--10-10--|
E|-0---0--0----------0--0--0-----3---3--3--|----3--3---3-----3---8---8--8---8--8---|


E|---------------------------7---------7-----|-----------------------------------------|
B|-8--8--8--7--7------7---7--7---7--7--7--7--|-0------0---0--0---0--0--0--0--3------3--|
G|-9--9--9--8--8---8--8---8--8---8--8--8--8--|-0---0--0---0--0---0--0--0--0--4---4--4--|
D|-10-10-10-7--7---7--7---7--7---7--7--7--7--|-2---2--2---2--2---2--2--2--0--5---5--5--|
A|-10-10-10-9--9---9--9---9--9---9--9--9--9--|-2---2--2---2--2---2--2--2--0--5---5--5--|
E|-8-----8--7--7---7--7------7---7-----7--7--|-0---0--0----------0--0--0-----3---3--3--|


E|-------3-------------------------------|---------------------------7---------7-----|
B|-------3---3--3--3---8------8----------|-8--8--8--7--7------7---7--7---7--7--7--7--|
G|----4--4---4--4--4---9---9--9---9--9---|-9--9--9--8--8---8--8---8--8---8--8--8--8--|
D|----5--5---5--5--5---10--10-10--10-10--|-10-10-10-7--7---7--7---7--7---7--7--7--7--|
A|----5--5---5--5--5---10--10-10--10-10--|-10-10-10-9--9---9--9---9--9---9--9--9--9--|
E|----3--3---3-----3---8---8--8---8--8---|-8-----8--7--7---7--7------7---7-----7--7--|


E|-----------------------------------------|-------3-------------------------------|
B|-0------0---0--0---0--0--0--0--3------3--|-------3---3--3--3---8------8----------|
G|-0---0--0---0--0---0--0--0--0--4---4--4--|----4--4---4--4--4---9---9--9---9--9---|
D|-2---2--2---2--2---2--2--2--0--5---5--5--|----5--5---5--5--5---10--10-10--10-10--|
A|-2---2--2---2--2---2--2--2--0--5---5--5--|----5--5---5--5--5---10--10-10--10-10--|
E|-0---0--0----------0--0--0-----3---3--3--|----3--3---3-----3---8---8--8---8--8---|


E|---------------------------7---------7-----|-----------------------------------------|
B|-8--8--8--7--7------7---7--7---7--7--7--7--|-0------0---0--0---0--0--0--0--3------3--|
G|-9--9--9--8--8---8--8---8--8---8--8--8--8--|-0---0--0---0--0---0--0--0--0--4---4--4--|
D|-10-10-10-7--7---7--7---7--7---7--7--7--7--|-2---2--2---2--2---2--2--2--0--5---5--5--|
A|-10-10-10-9--9---9--9---9--9---9--9--9--9--|-2---2--2---2--2---2--2--2--0--5---5--5--|
E|-8-----8--7--7---7--7------7---7-----7--7--|-0---0--0----------0--0--0-----3---3--3--|


E|-------3-------------------------------|---------------------------7---------7-----|
B|-------3---3--3--3---8------8----------|-8--8--8--7--7------7---7--7---7--7--7--7--|
G|----4--4---4--4--4---9---9--9---9--9---|-9--9--9--8--8---8--8---8--8---8--8--8--8--|
D|----5--5---5--5--5---10--10-10--10-10--|-10-10-10-7--7---7--7---7--7---7--7--7--7--|
A|----5--5---5--5--5---10--10-10--10-10--|-10-10-10-9--9---9--9---9--9---9--9--9--9--|
E|----3--3---3-----3---8---8--8---8--8---|-8-----8--7--7---7--7------7---7-----7--7--|


E|-----------------------------------------|-------3-------------------------------|
B|-0------0---0--0---0--0--0--0--3------3--|-------3---3--3--3---8------8----------|
G|-0---0--0---0--0---0--0--0--0--4---4--4--|----4--4---4--4--4---9---9--9---9--9---|
D|-2---2--2---2--2---2--2--2--0--5---5--5--|----5--5---5--5--5---10--10-10--10-10--|
A|-2---2--2---2--2---2--2--2--0--5---5--5--|----5--5---5--5--5---10--10-10--10-10--|
E|-0---0--0----------0--0--0-----3---3--3--|----3--3---3-----3---8---8--8---8--8---|


E|---------------------------7---------7-----|---------------------------------------|
B|-8--8--8--7--7------7---7--7---7--7--7--7--|-0------0------0------0------0------0--|
G|-9--9--9--8--8---8--8---8--8---8--8--8--8--|-0---0--0---0--0---0--0---0--0---0--0--|
D|-10-10-10-7--7---7--7---7--7---7--7--7--7--|-2---2--2---2--2---2--2---2--2---2--2--|
A|-10-10-10-9--9---9--9---9--9---9--9--9--9--|-2---2--2---2--2---2--2---2--2---2--2--|
E|-8-----8--7--7---7--7------7---7-----7--7--|-0---0--0---0--0---0--0---0--0---0--0--|


E|---------------------0-----|------0------|
B|-------0------0------0-----|------0------|
G|----0--0---0--0---0--0-----|------0------|
D|----2--2---2--2---2--2-----|------2------|
A|----2--2---2--2---2--2-----|------2------|
E|----0--0---0--0---0--0-----|------0------|





Track 2: Gtr.2

E|--------|--------|--------|-------------|-------------|------7------|--------|--------|
B|--------|--------|--------|-8------7----|-------8-----|------7------|--------|--------|
G|--------|--------|--------|-9------7----|-------9-----|------8------|--------|--------|
D|--------|--------|--------|-9------9----|-------9-----|------9------|--------|--------|
A|--------|--------|--------|-------------|-------------|-------------|--------|--------|
E|--------|--------|--------|-------------|-------------|-------------|--------|--------|


E|--------|--------|--------|--------|---------------------------|-----------------------------|
B|--------|--------|--------|--------|---------------------------|-------5---------------------|
G|--------|--------|--------|--------|---------------------------|-----------------------------|
D|--------|--------|--------|--------|-------------5----------7--|-------------------------4---|
A|--------|--------|--------|--------|------3------------5-------|----5-------------5----------|
E|--------|--------|--------|--------|-5--------5----------------|-------------3--------3------|


E|------------------------|---------------------------|-----------------------------|
B|------------------------|---------------------------|-----------------------------|
G|------------------4-----|---------------------------|-----------------------------|
D|-----------5------------|-------------2-------------|-------4-----------------7---|
A|------3--------3--------|------3-----------------3--|------------------9----------|
E|------------------------|-1--------1--------2-------|----2--------7--------7------|


E|-----------------------------------|---------------------------|-----------------------------|
B|-----------------------------------|---------------------------|-------5---------------------|
G|-----------------------------------|---------------------------|-----------------------------|
D|-----7-----7-----------7-----------|-------------5----------7--|-------------------------4---|
A|----------------9-----------9------|------3------------5-------|----5-------------5----------|
E|--------7-----------7-----------7--|-5--------5----------------|-------------3--------3------|


E|------------------------|---------------------------|-----------------------------|
B|------------------------|---------------------------|-----------------------------|
G|------------------4-----|---------------------------|-----------------------------|
D|-----------5------------|-------------2-------------|-------4-----------------7---|
A|------3--------3--------|------3-----------------3--|------------------9----------|
E|------------------------|-1--------1--------2-------|----2--------7--------7------|


E|-----------------------------------|--------|--------|--------|--------|--------|
B|-----------------------------------|--------|--------|--------|--------|--------|
G|-----------------------------------|--------|--------|--------|--------|--------|
D|-----7-----7-----------7-----------|--------|--------|--------|--------|--------|
A|----------------9-----------9------|--------|--------|--------|--------|--------|
E|--------7-----------7-----------7--|--------|--------|--------|--------|--------|


E|--------|--------|--------|--------|--------|--------|--------|------------------------------|
B|--------|--------|--------|--------|--------|--------|--------|------------------------------|
G|--------|--------|--------|--------|--------|--------|--------|------------------------------|
D|--------|--------|--------|--------|--------|--------|--------|-------------5-------------7--|
A|--------|--------|--------|--------|--------|--------|--------|------3---------------5-------|
E|--------|--------|--------|--------|--------|--------|--------|-5--------5-------5-----------|


E|--------------------------------|---------------------------|---------------------------|
B|-------5------------------------|---------------------------|---------------------------|
G|--------------------------------|---------------------4-----|---------------------------|
D|----------------------------4---|--------------5------------|-------------2-------------|
A|----5-------5--------5----------|---------3--------3--------|------3-----------------3--|
E|----------------3--------3------|-----3---------------------|-1--------1--------2-------|


E|-----------------------------|-----------------------------------|---------------------------|
B|-----------------------------|-----------------------------------|---------------------------|
G|-----------------------------|-----------------------------------|---------------------------|
D|-------4-----------------7---|-----7-----7-----------7-----------|-------------5----------7--|
A|------------------9----------|----------------9-----------9------|------3------------5-------|
E|----2--------7--------7------|--------7-----------7-----------7--|-5--------5----------------|


E|-----------------------------|------------------------|---------------------------|
B|-------5---------------------|------------------------|---------------------------|
G|-----------------------------|------------------4-----|---------------------------|
D|-------------------------4---|-----------5------------|-------------2-------------|
A|----5-------------5----------|------3--------3--------|------3-----------------3--|
E|-------------3--------3------|------------------------|-1--------1--------2-------|


E|-----------------------------|-----------------------------------|--------|--------|
B|-----------------------------|-----------------------------------|--------|--------|
G|-----------------------------|-----------------------------------|--------|--------|
D|-------4-----------------7---|-----7-----7-----------7-----------|--------|--------|
A|------------------9----------|----------------9-----------9------|--------|--------|
E|----2--------7--------7------|--------7-----------7-----------7--|--------|--------|


E|--------|--------|--------|--------|--------|--------|--------|--------|--------|
B|--------|--------|--------|--------|--------|--------|--------|--------|--------|
G|--------|--------|--------|--------|--------|--------|--------|--------|--------|
D|--------|--------|--------|--------|--------|--------|--------|--------|--------|
A|--------|--------|--------|--------|--------|--------|--------|--------|--------|
E|--------|--------|--------|--------|--------|--------|--------|--------|--------|


E|--------|--------|--------|--------|--------|--------|--------|---------------------------|
B|--------|--------|--------|--------|--------|--------|--------|---------------------------|
G|--------|--------|--------|--------|--------|--------|--------|---------------------------|
D|--------|--------|--------|--------|--------|--------|--------|-------------5----------7--|
A|--------|--------|--------|--------|--------|--------|--------|------3------------5-------|
E|--------|--------|--------|--------|--------|--------|--------|-5--------5----------------|


E|-----------------------------|------------------------|---------------------------|
B|-------5---------------------|------------------------|---------------------------|
G|-----------------------------|------------------4-----|---------------------------|
D|-------------------------4---|-----------5------------|-------------2-------------|
A|----5-------------5----------|------3--------3--------|------3-----------------3--|
E|-------------3--------3------|------------------------|-1--------1--------2-------|


E|-----------------------------|-----------------------------------|--------|--------|
B|-----------------------------|-----------------------------------|--------|--------|
G|-----------------------------|-----------------------------------|--------|--------|
D|-------4-----------------7---|-----7-----7-----------7-----------|--------|--------|
A|------------------9----------|----------------9-----------9------|--------|--------|
E|----2--------7--------7------|--------7-----------7-----------7--|--------|--------|


E|--------|--------|--------|--------|--------|--------|--------|--------|--------|
B|--------|--------|--------|--------|--------|--------|--------|--------|--------|
G|--------|--------|--------|--------|--------|--------|--------|--------|--------|
D|--------|--------|--------|--------|--------|--------|--------|--------|--------|
A|--------|--------|--------|--------|--------|--------|--------|--------|--------|
E|--------|--------|--------|--------|--------|--------|--------|--------|--------|


E|--------|--------|--------|--------|--------|--------|--------|--------|--------|
B|--------|--------|--------|--------|--------|--------|--------|--------|--------|
G|--------|--------|--------|--------|--------|--------|--------|--------|--------|
D|--------|--------|--------|--------|--------|--------|--------|--------|--------|
A|--------|--------|--------|--------|--------|--------|--------|--------|--------|
E|--------|--------|--------|--------|--------|--------|--------|--------|--------|


E|--------|--------|--------|--------|--------|--------|--------|--------|--------|
B|--------|--------|--------|--------|--------|--------|--------|--------|--------|
G|--------|--------|--------|--------|--------|--------|--------|--------|--------|
D|--------|--------|--------|--------|--------|--------|--------|--------|--------|
A|--------|--------|--------|--------|--------|--------|--------|--------|--------|
E|--------|--------|--------|--------|--------|--------|--------|--------|--------|


E|--------|--------|--------|--------|
B|--------|--------|--------|--------|
G|--------|--------|--------|--------|
D|--------|--------|--------|--------|
A|--------|--------|--------|--------|
E|--------|--------|--------|--------|





Track 3: Gtr.3

E|--------|--------|--------|--------|--------|--------|-------------|-------------|
B|--------|--------|--------|--------|--------|--------|-8------8----|-------------|
G|--------|--------|--------|--------|--------|--------|-9------9----|-------------|
D|--------|--------|--------|--------|--------|--------|-9------9----|-------------|
A|--------|--------|--------|--------|--------|--------|-------------|-------------|
E|--------|--------|--------|--------|--------|--------|-------------|-------------|


E|----------------|------------7--8--|----7--------------------|-------------|--------|
B|-----8---7------|-8----------------|-------10---8------------|-------------|--------|
G|-----9---8------|-9----------------|-------------------------|-------------|--------|
D|-----9----------|-9----------------|-------------------------|-------------|--------|
A|----------------|------------------|-------------------------|-------------|--------|
E|----------------|------------------|-------------------------|-------------|--------|


E|--------|--------|--------|--------|--------|--------|--------|--------|--------|
B|--------|--------|--------|--------|--------|--------|--------|--------|--------|
G|--------|--------|--------|--------|--------|--------|--------|--------|--------|
D|--------|--------|--------|--------|--------|--------|--------|--------|--------|
A|--------|--------|--------|--------|--------|--------|--------|--------|--------|
E|--------|--------|--------|--------|--------|--------|--------|--------|--------|


E|--------|--------|---------------------------------|-----------------------------------|
B|--------|--------|-8-----------8-----------8-------|-------8-----------8-----------8---|
G|--------|--------|------9-----------9-----------7--|------------7-----------9----------|
D|--------|--------|----------9-----------9----------|----9-----------9-----------10-----|
A|--------|--------|---------------------------------|-----------------------------------|
E|--------|--------|---------------------------------|-----------------------------------|


E|-----------------------------------|---------------------------------|-----------------------------------|
B|-----------7-----------7-----------|-8-----------8-----------8-------|-------8-----------8-----------8---|
G|----9-----------8-----------8------|------9-----------9-----------7--|------------7-----------9----------|
D|--------10----------9-----------9--|----------9-----------9----------|----9-----------9-----------10-----|
A|-----------------------------------|---------------------------------|-----------------------------------|
E|-----------------------------------|---------------------------------|-----------------------------------|


E|-----------------------------------|---------------------------------|-----------------------------------|
B|-----------7-----------7-----------|-8-----------8-----------8-------|-------8-----------8-----------8---|
G|----9-----------8-----------8------|------9-----------9-----------7--|------------7-----------9----------|
D|--------10----------9-----------9--|----------9-----------9----------|----9-----------9-----------10-----|
A|-----------------------------------|---------------------------------|-----------------------------------|
E|-----------------------------------|---------------------------------|-----------------------------------|


E|-----------------------------------|---------------------------------|-----------------------------------|
B|-----------7-----------7-----------|-8-----------8-----------8-------|-------8-----------8-----------8---|
G|----9-----------8-----------8------|------9-----------9-----------7--|------------7-----------9----------|
D|--------10----------9-----------9--|----------9-----------9----------|----9-----------9-----------10-----|
A|-----------------------------------|---------------------------------|-----------------------------------|
E|-----------------------------------|---------------------------------|-----------------------------------|


E|-----------------------------------|--------|--------|--------|-------------|--------------------|
B|-----------7-----------7-----------|--------|--------|--------|-------------|--------------------|
G|----9-----------8-----------8------|--------|--------|--------|-------------|--------------------|
D|--------10----------9-----------9--|--------|--------|--------|-------------|----------4----4----|
A|-----------------------------------|--------|--------|--------|-------------|--------------------|
E|-----------------------------------|--------|--------|--------|-------------|--------------------|


E|-------------|--------|--------|--------|--------|--------|--------|---------------------------------|
B|-------------|--------|--------|--------|--------|--------|--------|-8-----------8-----------8-------|
G|-------------|--------|--------|--------|--------|--------|--------|------9-----------9-----------7--|
D|------4------|--------|--------|--------|--------|--------|--------|----------9-----------9----------|
A|-------------|--------|--------|--------|--------|--------|--------|---------------------------------|
E|-------------|--------|--------|--------|--------|--------|--------|---------------------------------|


E|-----------------------------------|-----------------------------------|---------------------------------|
B|-------8-----------8-----------8---|-----------7-----------7-----------|-8-----------8-----------8-------|
G|------------7-----------9----------|----9-----------8-----------8------|------9-----------9-----------7--|
D|----9-----------9-----------10-----|--------10----------9-----------9--|----------9-----------9----------|
A|-----------------------------------|-----------------------------------|---------------------------------|
E|-----------------------------------|-----------------------------------|---------------------------------|


E|-----------------------------------|-----------------------------------|---------------------------------|
B|-------8-----------8-----------8---|-----------7-----------7-----------|-8-----------8-----------8-------|
G|------------7-----------9----------|----9-----------8-----------8------|------9-----------9-----------7--|
D|----9-----------9-----------10-----|--------10----------9-----------9--|----------9-----------9----------|
A|-----------------------------------|-----------------------------------|---------------------------------|
E|-----------------------------------|-----------------------------------|---------------------------------|


E|-----------------------------------|-----------------------------------|---------------------------------|
B|-------8-----------8-----------8---|-----------7-----------7-----------|-8-----------8-----------8-------|
G|------------7-----------9----------|----9-----------8-----------8------|------9-----------9-----------7--|
D|----9-----------9-----------10-----|--------10----------9-----------9--|----------9-----------9----------|
A|-----------------------------------|-----------------------------------|---------------------------------|
E|-----------------------------------|-----------------------------------|---------------------------------|


E|-----------------------------------|-----------------------------------|-------------|
B|-------8-----------8-----------8---|-----------7-----------7-----------|-------------|
G|------------7-----------9----------|----9-----------8-----------8------|-0------0----|
D|----9-----------9-----------10-----|--------10----------9-----------9--|-2------2----|
A|-----------------------------------|-----------------------------------|-2------2----|
E|-----------------------------------|-----------------------------------|-0------0----|


E|-------------|-------------|-2------5----|-----------6--5--5----|-6--5----6--5---6--5---6--5---6--5---|
B|-------------|-------------|-0-----------|----------------------|-------------------------------------|
G|-------0-----|------0------|-0-----------|----------------------|-------------------------------------|
D|-------2-----|------2------|-2-----------|-------7--------------|-------------------------------------|
A|-------2-----|------2------|-------------|----------------------|-------------------------------------|
E|-------0-----|------0------|-------------|----------------------|-------------------------------------|


E|--------|--------|--------|-------------|-----------------|-----------------------------------|
B|--------|--------|--------|-------------|-------------4---|-----------4-----------4-----------|
G|--------|--------|--------|-------------|-----------------|----2-----------2-----------2------|
D|--------|--------|--------|-------------|-----------------|--------4-----------4-----------4--|
A|--------|--------|--------|-------------|-----------------|-----------------------------------|
E|--------|--------|--------|-------------|-----------------|-----------------------------------|


E|---------------------------------|-------------------8-----------8---|----8-108-----------------------------|
B|-8-----------8-----------8-------|-------8----------------8----------|------------7------------------7------|
G|------9-----------9-----------7--|------------7---------------9------|-----------------8------9--8----------|
D|----------9-----------9----------|----9-----------9------------------|---------------------9-------------9--|
A|---------------------------------|-----------------------------------|--------------------------------------|
E|---------------------------------|-----------------------------------|--------------------------------------|


E|-------------------------7-------|-------7-----------10----------10--|-----------------------------------|
B|-8-----------8----------------8--|------------8-----------8----------|----8------7----7------7-----------|
G|------9-----------9--------------|----7-----------7-----------9------|--------9-----------8-------8------|
D|----------9-----------9----------|-----------------------------------|--------------------------------9--|
A|---------------------------------|-----------------------------------|-----------------------------------|
E|---------------------------------|-----------------------------------|-----------------------------------|


E|---------------------------------|-----------------------------------|-----------------------------------|
B|-8-----------8-----------8-------|-------8-----------8-----------8---|-----------7-----------7-----------|
G|------9-----------9-----------7--|------------7-----------9----------|----9-----------9-----------8------|
D|----------9-----------9----------|----9-----------9-----------10-----|--------10----------9-----------9--|
A|---------------------------------|-----------------------------------|-----------------------------------|
E|---------------------------------|-----------------------------------|-----------------------------------|


E|-------------------------7-------|-------7-----------8-----------8---|--------------------------------|
B|-8-----------8----------------8--|------------8-----------8------8---|----8------7-----------7----12--|
G|------9-----------9--------------|----7-----------7-----------9------|--------9-------8---------------|
D|----------9-----------9----------|-----------------------------------|--------------------9-----------|
A|---------------------------------|-----------------------------------|--------------------------------|
E|---------------------------------|-----------------------------------|--------------------------------|


E|---------------------------------|-----------------------------------|-----------------------------------|
B|-8-----------8-----------8-------|-------8-----------8-----------8---|-----------7-----------7-----------|
G|------9-----------9-----------7--|------------7-----------9----------|----9-----------8-----------8------|
D|----------9-----------9----------|----9-----------9-----------10-----|--------10----------9-----------9--|
A|---------------------------------|-----------------------------------|-----------------------------------|
E|---------------------------------|-----------------------------------|-----------------------------------|


E|---------------------------------|-----------------------------------|-----------------------------------|
B|-8-----------8-----------8-------|-------8-----------8-----------8---|-----------7-----------7-----------|
G|------9-----------9-----------7--|------------7-----------9----------|----9-----------8-----------8------|
D|----------9-----------9----------|----9-----------9-----------10-----|--------10----------9-----------9--|
A|---------------------------------|-----------------------------------|-----------------------------------|
E|---------------------------------|-----------------------------------|-----------------------------------|


E|---------------------------------|-----------------------------------|-----------------------------------|
B|-8-----------8-----------8-------|-------8-----------8-----------8---|-----------7-----------7-----------|
G|------9-----------9-----------7--|------------7-----------9----------|----9-----------8-----------8------|
D|----------9-----------9----------|----9-----------9-----------10-----|--------10----------9-----------9--|
A|---------------------------------|-----------------------------------|-----------------------------------|
E|---------------------------------|-----------------------------------|-----------------------------------|


E|---------------------------------|-----------------------------------|-----------------------------------|
B|-8-----------8-----------8-------|-------8-----------8-----------8---|-----------7-----------7-----------|
G|------9-----------9-----------7--|------------7-----------9----------|----9-----------8-----------8------|
D|----------9-----------9----------|----9-----------9-----------10-----|--------10----------9-----------9--|
A|---------------------------------|-----------------------------------|-----------------------------------|
E|---------------------------------|-----------------------------------|-----------------------------------|


E|---------------------------------|-----------------------------------|-----------------------------------|
B|-8-----------8-----------8-------|-------8-----------8-----------8---|-----------7-----------7-----------|
G|------9-----------9-----------7--|------------7-----------9----------|----9-----------8-----------8------|
D|----------9-----------9----------|----9-----------9-----------10-----|--------10----------9-----------9--|
A|---------------------------------|-----------------------------------|-----------------------------------|
E|---------------------------------|-----------------------------------|-----------------------------------|


E|---------------------------------|-----------------------------------|-----------------------------------|
B|-8-----------8-----------8-------|-------8-----------8-----------8---|-----------7-----------7-----------|
G|------9-----------9-----------7--|------------7-----------9----------|----9-----------8-----------8------|
D|----------9-----------9----------|----9-----------9-----------10-----|--------10----------9-----------9--|
A|---------------------------------|-----------------------------------|-----------------------------------|
E|---------------------------------|-----------------------------------|-----------------------------------|


E|--------|--------|--------|
B|--------|--------|--------|
G|--------|--------|--------|
D|--------|--------|--------|
A|--------|--------|--------|
E|--------|--------|--------|





Track 4: Gtr.4

E|--------|--------|--------|--------|--------|--------|--------|--------|--------|
B|--------|--------|--------|--------|--------|--------|--------|--------|--------|
G|--------|--------|--------|--------|--------|--------|--------|--------|--------|
D|--------|--------|--------|--------|--------|--------|--------|--------|--------|
A|--------|--------|--------|--------|--------|--------|--------|--------|--------|
E|--------|--------|--------|--------|--------|--------|--------|--------|--------|


E|--------|--------|--------|--------|--------|--------|--------|--------|--------|
B|--------|--------|--------|--------|--------|--------|--------|--------|--------|
G|--------|--------|--------|--------|--------|--------|--------|--------|--------|
D|--------|--------|--------|--------|--------|--------|--------|--------|--------|
A|--------|--------|--------|--------|--------|--------|--------|--------|--------|
E|--------|--------|--------|--------|--------|--------|--------|--------|--------|


E|--------|--------|--------|--------|--------|--------|--------|--------|--------|
B|--------|--------|--------|--------|--------|--------|--------|--------|--------|
G|--------|--------|--------|--------|--------|--------|--------|--------|--------|
D|--------|--------|--------|--------|--------|--------|--------|--------|--------|
A|--------|--------|--------|--------|--------|--------|--------|--------|--------|
E|--------|--------|--------|--------|--------|--------|--------|--------|--------|


E|--------|--------|--------|--------|--------|--------|--------|--------|--------|
B|--------|--------|--------|--------|--------|--------|--------|--------|--------|
G|--------|--------|--------|--------|--------|--------|--------|--------|--------|
D|--------|--------|--------|--------|--------|--------|--------|--------|--------|
A|--------|--------|--------|--------|--------|--------|--------|--------|--------|
E|--------|--------|--------|--------|--------|--------|--------|--------|--------|


E|--------|--------|--------|--------|--------|--------|-------------------------------------------|
B|--------|--------|--------|--------|--------|--------|-----------------------------------3-5-5---|
G|--------|--------|--------|--------|--------|--------|-------------------------------------------|
D|--------|--------|--------|--------|--------|--------|-2-----5--4--2--0--5--4--2--0---0----------|
A|--------|--------|--------|--------|--------|--------|-------------------------------------------|
E|--------|--------|--------|--------|--------|--------|-------------------------------------------|


E|-----------------|-------------------|-3--2-----------------------|--------------------|
B|-----5-----------|------3-5----5-----|-------5--3--3-----3--------|-------5---4----4---|
G|-----------------|-------------------|----------------------------|--------------------|
D|-----------------|-------------------|----------------------------|--------------------|
A|-----------------|-------------------|----------------------------|--------------------|
E|-----------------|-------------------|----------------------------|--------------------|


E|-------------|--------|--------|--------|--------|--------|--------|--------|--------|
B|------4------|--------|--------|--------|--------|--------|--------|--------|--------|
G|-------------|--------|--------|--------|--------|--------|--------|--------|--------|
D|-------------|--------|--------|--------|--------|--------|--------|--------|--------|
A|-------------|--------|--------|--------|--------|--------|--------|--------|--------|
E|-------------|--------|--------|--------|--------|--------|--------|--------|--------|


E|--------|--------|--------|--------|--------|--------|--------|--------|--------|
B|--------|--------|--------|--------|--------|--------|--------|--------|--------|
G|--------|--------|--------|--------|--------|--------|--------|--------|--------|
D|--------|--------|--------|--------|--------|--------|--------|--------|--------|
A|--------|--------|--------|--------|--------|--------|--------|--------|--------|
E|--------|--------|--------|--------|--------|--------|--------|--------|--------|


E|--------|-------7--5---------------|-----------------------|----------------------------|
B|--------|--------------8---5--7----|-----7-----3-----------|----------------------------|
G|--------|--------------------------|-----------4-----5--4--|----------------------------|
D|--------|--------------------------|-----------------------|----7-----5-----------------|
A|--------|--------------------------|-----------------------|-------------5----5---7-----|
E|--------|-5------------------------|-----------------------|----------------------------|


E|----------------------------------------|----------------------------------|-----------------------------------------|
B|----------------------------------------|----------------------------------|-----------------------------------------|
G|-5--4-----------------------5--4--------|----------------------------------|-----------------------------------------|
D|----------7-----5--5----5------------7--|----5--5----5---4----4---4--4--4--|-4--4---4--4---4--4--4--4--4--2--2---2---|
A|----------------------------------------|----------------------------------|-----------------------------------------|
E|----------------------------------------|----------------------------------|-----------------------------------------|


E|-------------|-------------|-------------|--------|--------|--------|--------|--------|
B|-------------|-------------|-------------|--------|--------|--------|--------|--------|
G|-------------|-------------|-------------|--------|--------|--------|--------|--------|
D|-2-----------|-------------|-------------|--------|--------|--------|--------|--------|
A|-------------|-------------|-------------|--------|--------|--------|--------|--------|
E|-------------|-------------|-------------|--------|--------|--------|--------|--------|


E|--------|--------|--------|--------|--------|--------|--------|--------|--------|
B|--------|--------|--------|--------|--------|--------|--------|--------|--------|
G|--------|--------|--------|--------|--------|--------|--------|--------|--------|
D|--------|--------|--------|--------|--------|--------|--------|--------|--------|
A|--------|--------|--------|--------|--------|--------|--------|--------|--------|
E|--------|--------|--------|--------|--------|--------|--------|--------|--------|


E|--------|--------|--------|--------|--------|--------|--------|--------|--------|
B|--------|--------|--------|--------|--------|--------|--------|--------|--------|
G|--------|--------|--------|--------|--------|--------|--------|--------|--------|
D|--------|--------|--------|--------|--------|--------|--------|--------|--------|
A|--------|--------|--------|--------|--------|--------|--------|--------|--------|
E|--------|--------|--------|--------|--------|--------|--------|--------|--------|


E|--------|--------|--------|--------|--------|--------|--------|
B|--------|--------|--------|--------|--------|--------|--------|
G|--------|--------|--------|--------|--------|--------|--------|
D|--------|--------|--------|--------|--------|--------|--------|
A|--------|--------|--------|--------|--------|--------|--------|
E|--------|--------|--------|--------|--------|--------|--------|





Track 5: Bass

G|--------|--------|--------|--------|--------|--------|----------------------------|
D|--------|--------|--------|--------|--------|--------|----------------------------|
A|--------|--------|--------|--------|--------|--------|----------------------------|
E|--------|--------|--------|--------|--------|--------|-12---7----0----0---3----3--|


G|-----------------------------------|-------------------------------------|-------------------------------|
D|-----------------------------------|-------------------------------------|-------------------------------|
A|-------------------3----3---3--3---|----3--3-----------------------------|-7----7----7---7---7---10---10-|
E|----3--3----3--3-------------------|----------5--7----7---7--7----7--7---|-------------------------------|


G|----------------------------|-------------------------------------|-------------------------------|
D|----------------------------|-------------------------------------|-------------------------------|
A|-----10---10--3----3----3---|----0--3--0--2----2----2----0--2--0--|-------------------------------|
E|----------------------------|-------------------------------------|-5----5----5---5---5---10---10-|


G|-------------------------------|-------------------------------|-------------------------------------|
D|-------------------------------|-------------------------------|-------------------------------------|
A|-------------------------------|-------------------------------|-------------------------------------|
E|-----10--10--10--3----3----3---|-3---3---8----8----8---8---8---|-1----1---1--1---1---0-1--2--2----2--|


G|---------------------------------|-------------------------------------------|-----------------------------------|
D|---------------------------------|-------------------------------------------|-----------------------------------|
A|-----------------2----2---2--2---|-2--0--2--0--2----2---2--2--0--2--0--2--0--|---------------------------5----5--|
E|-----2---3---2-------------------|-------------------------------------------|-5----5-----5--5---5---5-----------|


G|-------------------------------------|-----------------------------------|---------------------------------|
D|-------------------------------------|-----------------------------------|---------------------------------|
A|----5--5---5---5---------------------|-----------------------------------|---------------------------------|
E|-------------------3----3-----3--3---|-3---3---8----8-----8--8---8---8---|-1----1---1--1---1---1---2----2--|


G|---------------------------------|---------------------------------|-------------------------------|
D|---------------------------------|---------------------------------|-2----2----2---2---4---5----5--|
A|---------------------------------|---------------------------------|-------------------------------|
E|-----2---2---2---7----7---7--7---|-7---7---7----7---7--7---7---3---|-------------------------------|


G|----------------------------|-----------------------------------------|-------------------------------|
D|-----5----5-----------------|-----------------------------------------|-2----2----2---2---4---5----5--|
A|--------------3----3----3---|-----3--0--2---2--2--2--6--6----6--6-----|-------------------------------|
E|----------------------------|--------------------------------------7--|-------------------------------|


G|----------------------------|-----------------------------------------|-----------------------------------|
D|-----5----5-----------------|-----------------------------------------|-----------------------------------|
A|--------------3----3----3---|-----3--0--2----2------------------------|-------------7---7-----------------|
E|----------------------------|--------------------2--7--7-----7-----7--|-0----0---0----------3--5--3----3--|


G|----------------------------|---------------------------------------|---------------------------------|
D|----------------------------|---------------------------------------|---------------------------------|
A|------------------------10--|--------10-2----2--2--2--6----6--6--6--|-7-------------------------------|
E|-----3----3---8----8--------|-8---8---------------------------------|------3----0---0--0--2---3----3--|


G|---------------------------------|-----------------------------------|---------------------------------|
D|---------------------------------|-----------------------------------|---------------------------------|
A|-------------------3----3----3---|-----3-----------------------------|---------------------------------|
E|-----3----0--3--5----------------|--------5--7----7---5--7---7---7---|-5----5---5--5---5---5---10---10-|


G|-------------------------------|-------------------------------|---------------------------------|
D|-------------------------------|-------------------------------|---------------------------------|
A|-------------------------------|-------------------------------|---------------------------------|
E|-----10--10--10--3----3----3---|-3---3---8----8----8---8---8---|-1----1---0--1---1---1---2----2--|


G|-----------------------------------|---------------------------------------|---------------------------------|
D|-----------------------------------|---------------------------------------|---------------------------------|
A|-------------------2----2---2--2---|-2---2---2----2------2-----2-----2-----|-------------------------5----5--|
E|----2--2---2---2-------------------|------------------3-----3-----3-----3--|-5----5---5--5---5---5-----------|


G|-----------------------------------------|---------------------------------------|
D|-----------------------------------------|---------------------------------------|
A|----5--5--5--5--5--5--5------------------|---------3----3---3--3--3-----3-----3--|
E|-------------------------3----3---3--3---|-3---3---------------------------------|


G|-------------------------------------|-----------------------------------|-----------------------------------|
D|-------------------------------------|-----------------------------------|-----------------------------------|
A|-------------------------------------|-----------------------------------|-----------------------------------|
E|-1----1---1--1---1--1--1--1--2----2--|----2--2---2--1----7----7---7--7---|-7---7--7--7----7---7--10--10--10--|


G|---------------------------------|---------------------------------|---------------------------------|
D|-2----2------2---2---4---5----5--|----0--5---5---5-----------------|---------------------------------|
A|----------2----------------------|-------------------3----3----3---|-3---3---------------------------|
E|---------------------------------|---------------------------------|--------5--7----7----7---7---7---|


G|-------------------------------------|-----------------------------------|-----------------------------------------|
D|-------------------------------------|-----------------------------------|-----------------------------------------|
A|-------------7--7--7--7------10---10-|----10-------10--10--3----3----3---|-3-----3--0--2----2--2---6---6--6--6--6--|
E|-0----0---0--------------2-----------|-------10-10-----------------------|----3------------------------------------|


G|-----------------------------------|---------------------------------|-------------------------------------------|
D|-----------------------------------|---------------------------------|----5--------------------------------------|
A|-7---6-----------------------------|-----------------3----3----3--3--|-3-----3---0-2---2--2----------------------|
E|---------3---0---0--0--2---3----3--|-----3---3---3-------------------|--------------------------0--7--7--7---7---|


G|-----------------------------------|-----------------------------------|---------------------------------|
D|-----------------------------------|-----------------------------5--5--|---------------------------------|
A|-7-----------7---------------------|-------------------3----3----------|-3-------------------------------|
E|------0---0------0--0--2---3----3--|-----3----0--3--0------------------|-----3--3--7----7----7---7---7---|


G|-------------|--------|--------|--------|--------|--------|-----------------------------------|
D|-------------|--------|--------|--------|--------|--------|-----------------------------------|
A|-------------|--------|--------|--------|--------|--------|---------------------------5----5--|
E|-0------0----|--------|--------|--------|--------|--------|-5----5---5--5--0--5---5-----------|


G|-----------------------------------|-----------------------------------|-------------------------------------|
D|-----------------------------------|-----------------------------------|-3----3---3--3--0--3--3--3---4----4--|
A|----5--5---5---5-------------------|---------3----3---3--3--5--3-------|-------------------------------------|
E|-------------------3----3---3--3---|-3---3-------------------------3---|-------------------------------------|


G|-----------------------------------------|-------------------------------------------|
D|----4--4--0--4--4------------------------|-------------------------------------------|
A|-----------------------------------------|-------------------------------------------|
E|-------------------2---7----7---7--7--7--|-7--7--7--7--7----7--7--7--7--7--7--7--7---|


G|-----------------------------------|---------------------------------|---------------------------------------|
D|-----------------------------------|---------------------------------|---------------------------------------|
A|-----------------------------------|-------------------3----3----3---|-------3-----2----2--2--2--6----6--6---|
E|-0----0---0--0---0---3--5--3----3--|-----3----0--3--5----------------|----3-----3----------------------------|


G|-----------------------------------|-------------------------------------|---------------------------------------|
D|---------------------------5----5--|----5--------5---5---10---10-----10--|-------10----9----9------9--9----------|
A|-7----7------7---7--7--9-----------|-------5--5-------------------10-----|----10----10----------9--------6---6---|
E|----------7------------------------|-------------------------------------|---------------------------------------|


G|---------------------------------|-------------------------------------|---------------------------------------|
D|---------------------------------|-------------------------------------|---------------------------------------|
A|-------------7---7---9-----------|----------------0--3----3------3--3--|-----3-----2----2--2--2--6----6--6--6--|
E|-0----0---7--------------3----3--|-----3----0--3--------------3--------|-3------3------------------------------|


G|-----------------------------------|-----------------------------------|-----------------------------------------|
D|-----------------------------------|-----------------------------------|-----------------------------------------|
A|-7----2--2-----------------10---10-|-----10------10--------------------|-----------------------------------------|
E|------------3--0---0---2-----------|----------10-----8----8---0--8--8--|-8---8--0--7----7--7--0--7--7-----7--7---|


G|-----------------------------------|-------------------------------|-----------------------------------------|
D|-----------------------------------|-------------------------------|-----------------------------------------|
A|-------------7--7--7---9-----------|-----------------3----3----3---|----0--3---0-2----2--2--2--6----6--6--5--|
E|-0----0---7----------------3----3--|-----3----0--3-----------------|-----------------------------------------|


G|-----------------------------------|---------------------------------------|-----------------------------------------|
D|-----------------------------------|---------------------------------------|-----------------------------------7--9--|
A|-7----7---7--7--7----------10---10-|----10-------10--10-12-3----3---0--3---|----0--3--0--2----2---0--2---2--7--------|
E|-------------------0---2-----------|-------10-10---------------------------|-----------------------------------------|


G|-------------------------9----9--|-----9---------------------------|-------------9----9----9--0--7-----------|
D|----------------7--9-------------|-------------7--9----------------|-9-----9------------------------9--7--9--|
A|-7----7----7---------------------|----------7--------7----7----7---|-----------------------------------------|
E|---------------------------------|---------------------------------|-----------------------------------------|


G|---------------------------9----9--|-----9---------------------------|-------------9----9----9--9--7-------|
D|---------------9-----9-------------|----------7--7--9----------------|-9-----9-------------------------9---|
A|-7----7----7-----------------------|-------------------7----7----7---|-------------------------------------|
E|-----------------------------------|---------------------------------|-------------------------------------|


G|-----------------------9----9--|-----9--9--9---9-----------------|---------9----9----9-----------|
D|-------------------9-----------|---------------------------------|-----9------------------7--9---|
A|-7----7----7----7--------------|-------------------7----7----7---|-------------------------------|
E|-------------------------------|---------------------------------|-------------------------------|


G|--------------------9----9--|-----9--9--9---9-----------------|---------9----9----9----9------|
D|----------------9-----------|-------------------2----2----2---|-----9---------------------9---|
A|-7----7----7----------------|---------------------------------|-------------------------------|
E|----------------------------|---------------------------------|-------------------------------|


G|-------------|-------------|-------------|
D|-------------|-------------|-------------|
A|-7------7----|-------7-----|------7------|
E|-------------|-------------|-------------|