Menu:

 

Search:

 

django reinhardt - les yeux noirs 1941 solo:

 



Title: Les Yeux Noirs
Artist: 
Album: Paris, 13 December 1940.
Author: 


Track 1: Untitled

E|-----------------------|--------|-----------------------------------|--------|-----------------------------------|
B|---------------8---9---|-10-----|-10---11-10-9--10--13--11----------|-10-----|-10---11-10-9--10--11--10----------|
G|-------9---10----------|--------|---------------------------10--12--|--------|---------------------------12--10--|
D|-----------------------|--------|-----------------------------------|--------|-----------------------------------|
A|-----------------------|--------|-----------------------------------|--------|-----------------------------------|
E|-----------------------|--------|-----------------------------------|--------|-----------------------------------|


E|---------------------------|------------------6-----|-8--6--5----------0-----------0-------|
B|---------------------------|----------5---8---------|----------8---6-------3---2-------3---|
G|-9---12--10--9---7----6----|------6-----------------|--------------------------------------|
D|---------------------------|-7----------------------|--------------------------------------|
A|---------------------------|------------------------|--------------------------------------|
E|---------------------------|------------------------|--------------------------------------|


E|---------------------------------|-------------|-------------------6----|-5------|
B|---------------------------------|-3-----------|---------------6--------|--------|
G|-2---0-----------------------2---|------3------|-3---------7------------|--------|
D|---------3---2---0---2---3-------|-------------|-------8----------------|--------|
A|---------------------------------|-------------|------------------------|--------|
E|---------------------------------|-------------|------------------------|--------|


E|-4---5---8---7---6---5-----------|-0-------------------------------|-----------------------------0---|
B|-------------------------8---6---|-----3---2-----------------------|-------------------------2-------|
G|---------------------------------|-------------3---2---0-----------|-------------0---2---3-----------|
D|---------------------------------|-------------------------3---2---|-0-------2-----------------------|
A|---------------------------------|---------------------------------|-----4---------------------------|
E|---------------------------------|---------------------------------|---------------------------------|


E|--------|---------0-------5---10--9----|-------------9---12--10----------|---------10--13--12-----------|
B|-3------|-----3-------6----------------|---------10----------------------|-----11-----------------------|
G|--------|------------------------------|-----9---------------------------|-10-----------------------12--|
D|--------|------------------------------|-11--------------------------12--|----------------------14------|
A|--------|------------------------------|---------------------------------|------------------------------|
E|--------|------------------------------|---------------------------------|------------------------------|


E|-----12--15--13------------------|-13----17----13--|-12--15--12--------------------------|
B|-14--------------------------15--|-----------------|-------------14--12------------------|
G|-------------------------14------|-----------------|---------------------12--9---8---7---|
D|---------------------15----------|-----------------|-------------------------------------|
A|---------------------------------|-----------------|-------------------------------------|
E|---------------------------------|-----------------|-------------------------------------|


E|----------------|-------------------------------|-----------------10--|-12--13------12--10--------------|
B|-----11--11-----|-10---10---11--10--11----------|---------------------|---------------------11--10------|
G|----------------|-----------------------12--10--|---------------------|-----------------------------12--|
D|-11-------------|-------------------------------|-12---12---12--------|---------------------------------|
A|----------------|-------------------------------|---------------------|---------------------------------|
E|----------------|-------------------------------|---------------------|---------------------------------|


E|-----------------|------------------------------|-----------------10---10--12--10--|
B|-----------------|-------------12--10-----------|-------------10-------------------|
G|-12---12---12----|-----9---10----------10-------|---------10-----------------------|
D|-----------------|-------------------------12---|-9---12---------------------------|
A|-----------------|------------------------------|----------------------------------|
E|-----------------|------------------------------|----------------------------------|


E|-9-----6---8---6---5----|-5----4---5---4---3----0----|-1---3--1--0--------------------|
B|------------------------|----------------------------|----------------3---2-----------|
G|------------------------|----------------------------|------------------------3---2---|
D|------------------------|----------------------------|--------------------------------|
A|------------------------|----------------------------|--------------------------------|
E|------------------------|----------------------------|--------------------------------|


E|------------------------|-------------------------------------|-----3---------------------------|
B|------------------------|-------------------------------------|-5-------------------------------|
G|-0----------------------|-----------------------------3---6---|-------------------------3---6---|
D|-----3---2----3----3----|-2---3---2-----------2---5-----------|-----------------2---5-----------|
A|------------------------|-------------0---4-------------------|---------0---4-------------------|
E|------------------------|-------------------------------------|---------------------------------|


E|-----3---------------------------|---------------------------------|-----5---3---0-------------------|
B|-5-------6---3---0---------------|-------------------------0---3---|-6---------------2---------------|
G|---------------------2-----------|---------------------2-----------|---------------------3---0-------|
D|-------------------------3---0---|-------------0---3---------------|-----------------------------2---|
A|---------------------------------|-2---0---2-----------------------|---------------------------------|
E|---------------------------------|---------------------------------|---------------------------------|


E|---------------------------------|-3-------------------------------|-----------------------------5---|
B|-----------------------------5---|-----6---3---0-------------------|---------------------3---6-------|
G|---------------------3---6-------|-----------------2---------------|-----------------2---------------|
D|-------------2---5---------------|---------------------3---0-------|---------0---3-------------------|
A|-2---3---4-----------------------|-----------------------------0---|-1---2---------------------------|
E|---------------------------------|---------------------------------|---------------------------------|


E|-3---5---3---3-------------------6---|-6------6----|-10--------5---8---7---6---|
B|-----------------------------8-------|-------------|---------------------------|
G|-------------------------7-----------|-------------|---------------------------|
D|-----------------7---8---------------|-------------|---------------------------|
A|-------------------------------------|-------------|---------------------------|
E|-------------------------------------|-------------|---------------------------|


E|-5-----------0-------------------|---------------------------------|---------3---6---9----12---|
B|-----8---6-------3---2-----------|---------------------------------|-----5---------------------|
G|-------------------------3---2---|-0---------------------------3---|-6-------------------------|
D|---------------------------------|-----3---2---0-------2---5-------|---------------------------|
A|---------------------------------|-----------------4---------------|---------------------------|
E|---------------------------------|---------------------------------|---------------------------|


E|-10-------------|---------------------------------|---------------------------------|
B|----------------|---------------------------------|---------------------------------|
G|----------------|---------------------------------|---------------------------------|
D|----------------|---------------------------------|---------------------------------|
A|--------0---0---|-0---0---0---0---0---0---0---0---|-0---7-------0---6-------0---5---|
E|----------------|---------------------------------|---------------------------------|


E|---------------------------------|----------------|-------------------------5---4---|
B|---------------------------------|----------------|-------------0---3---6-----------|
G|---------------------------------|----------------|---------2-----------------------|
D|---------------------------------|----------------|-0---3---------------------------|
A|-----0---4-------0---3-------0---|-2------1---2---|---------------------------------|
E|---------------------------------|----------------|---------------------------------|


E|-3--------------|-------------0---3---2---1-------|---------------------------------|
B|----------------|---------2-------------------3---|-0---------------------------3---|
G|--------0---1---|-2---3---------------------------|-----2-------------------2-------|
D|----------------|---------------------------------|---------3---0---2---3-----------|
A|----------------|---------------------------------|---------------------------------|
E|----------------|---------------------------------|---------------------------------|


E|---------------------------------|---------------------------------|-----0-------6---10----|
B|---------------------------------|---------------------------------|-3-------8-------------|
G|---------------------------------|---------------------0---3---5---|-----------------------|
D|-0---3-------3---0---0---0---0---|-0---0---0---0---0---------------|-----------------------|
A|---------------------------------|---------------------------------|-----------------------|
E|---------------------------------|---------------------------------|-----------------------|


E|-5----8---7---6---5-----------|-----------------------|-------------6-----8--6--5------|
B|----------------------8---6---|-----8---6-------------|---------8------------------8---|
G|------------------------------|-9-----------7---7-----|-6---9--------------------------|
D|------------------------------|-----------------------|--------------------------------|
A|------------------------------|-----------------------|--------------------------------|
E|------------------------------|-----------------------|--------------------------------|


E|-----0---------------------------|---------------------------------|-5------|
B|-6-------3---2-------------------|---------------------3---5---6---|-6------|
G|-----------------3---2---0-------|-----------------2---------------|--------|
D|-----------------------------3---|-2---0---2---3-------------------|--------|
A|---------------------------------|---------------------------------|--------|
E|---------------------------------|---------------------------------|--------|





Track 2: Untitled

G|--------|--------|--------|--------|--------|--------|--------|--------|--------|
D|--------|--------|--------|--------|--------|--------|--------|--------|--------|
A|--------|--------|--------|--------|--------|--------|--------|--------|--------|
E|--------|--------|--------|--------|--------|--------|--------|--------|--------|


G|--------|--------|--------|--------|--------|--------|--------|--------|--------|
D|--------|--------|--------|--------|--------|--------|--------|--------|--------|
A|--------|--------|--------|--------|--------|--------|--------|--------|--------|
E|--------|--------|--------|--------|--------|--------|--------|--------|--------|


G|--------|--------|--------|--------|--------|--------|--------|--------|--------|
D|--------|--------|--------|--------|--------|--------|--------|--------|--------|
A|--------|--------|--------|--------|--------|--------|--------|--------|--------|
E|--------|--------|--------|--------|--------|--------|--------|--------|--------|


G|--------|--------|--------|--------|--------|--------|--------|--------|--------|
D|--------|--------|--------|--------|--------|--------|--------|--------|--------|
A|--------|--------|--------|--------|--------|--------|--------|--------|--------|
E|--------|--------|--------|--------|--------|--------|--------|--------|--------|


G|--------|--------|--------|--------|--------|--------|--------|--------|--------|
D|--------|--------|--------|--------|--------|--------|--------|--------|--------|
A|--------|--------|--------|--------|--------|--------|--------|--------|--------|
E|--------|--------|--------|--------|--------|--------|--------|--------|--------|


G|--------|--------|--------|--------|--------|--------|--------|--------|--------|
D|--------|--------|--------|--------|--------|--------|--------|--------|--------|
A|--------|--------|--------|--------|--------|--------|--------|--------|--------|
E|--------|--------|--------|--------|--------|--------|--------|--------|--------|


G|--------|--------|--------|--------|--------|--------|--------|--------|--------|
D|--------|--------|--------|--------|--------|--------|--------|--------|--------|
A|--------|--------|--------|--------|--------|--------|--------|--------|--------|
E|--------|--------|--------|--------|--------|--------|--------|--------|--------|


G|--------|--------|
D|--------|--------|
A|--------|--------|
E|--------|--------|