Menu:

 

Search:

 

disturbed - remember:

 



Title: Remember
Artist: 
Album: Believe
Author: Disturbed


Track 1: Guitar 1

D#|--------|--------|--------|--------|-------------------------------------------|
A#|--------|--------|--------|--------|-------------------------------------------|
F#|--------|--------|--------|--------|-------------------------------------------|
C#|--------|--------|--------|--------|-0---------8---------------7---------------|
G#|--------|--------|--------|--------|-0---0--3--8---0--0--0--3--7---0--3--0--3--|
C#|--------|--------|--------|--------|-0---0--3--8---0--0--0--3--7---0--3--0--3--|


D#|-----------------------------------------|-------------------------------------------|
A#|-----------------------------------------|-------------------------------------------|
F#|-----------------------------------------|-------------------------------------------|
C#|-0---------8---------------7------3------|-0---------8---------------7---------------|
G#|-0---0--3--8---0--0--0--3--7---0--3---3--|-0---0--3--8---0--0--0--3--7---0--3--0--3--|
C#|-0---0--3--8---0--0--0--3--7---0--3---3--|-0---0--3--8---0--0--0--3--7---0--3--0--3--|


D#|---------------------------------------------|-------------------------------------------|
A#|---------------------------------------------|-------------------------------------------|
F#|---------------------------------------------|-------------------------------------------|
C#|-0---------8---------------7--------3-----3--|-0---------8---------------7---------------|
G#|-0---0--3--8---0--0--0--3--7--0--0--3--0--3--|-0---0--3--8---0--0--0--3--7---0--3--0--3--|
C#|-0---0--3--8---0--0--0--3--7--0--0--3--0--3--|-0---0--3--8---0--0--0--3--7---0--3--0--3--|


D#|-----------------------------------------|-------------------------------------------|
A#|-----------------------------------------|-------------------------------------------|
F#|-----------------------------------------|-------------------------------------------|
C#|-0---------8---------------7------3------|-0---------8---------------7---------------|
G#|-0---0--3--8---0--0--0--3--7---0--3---3--|-0---0--3--8---0--0--0--3--7---0--3--0--3--|
C#|-0---0--3--8---0--0--0--3--7---0--3---3--|-0---0--3--8---0--0--0--3--7---0--3--0--3--|


D#|---------------------------------------------|-------------------------------------------|
A#|---------------------------------------------|-------------------------------------------|
F#|---------------------------------------------|-------------------------------------------|
C#|-0---------8---------------7--------3-----3--|-------------------------------------------|
G#|-0---0--3--8---0--0--0--3--7--0--0--3--0--3--|-----------13-----------12-----------------|
C#|-0---0--3--8---0--0--0--3--7--0--0--3--0--3--|-0---12-15-----0--12-15-----0--12-15-0--15-|


D#|-----------------------------------------|-------------------------------------------|
A#|-----------------------------------------|-------------------------------------------|
F#|-----------------------------------------|-------------------------------------------|
C#|-----------------------------------------|-------------------------------------------|
G#|-----------13-----------12-----------13--|----------12---------------------------13--|
C#|-0---12-15-----0--12-15----0---12-15-----|-0--12-15-----0--12-15-0--15-0---12-15-----|


D#|---------------------------------------------|---------------------------------------------|
A#|---------------------------------------------|---------------------------------------------|
F#|---------------------------------------------|---------------------------------------------|
C#|----------10-10-10---------------------------|---------------------------------------------|
G#|----------10-10-10-----------13-----------12-|-----------------------------13-----------12-|
C#|-0--12-15-10-10-10-0---12-15-----0--12-15----|----0--12-15-0--15-0---12-15-----0--12-15----|


D#|-------------------------------------------|---------------------------------------------|
A#|-------------------------------------------|---------------------------------------------|
F#|-------------------------------------------|------------------------------------5--------|
C#|-------------------------------------------|------------------------10-10-10-7-----7--5--|
G#|-----------13-----------12-----------------|-----------13-----------10-10-10-------------|
C#|-0---12-15-----0--12-15-----0--12-15-0--15-|-0---12-15-----0--12-15-10-10-10-------------|


D#|-------------------------------------------------|-------------------------------------------------|
A#|-------------------------------------------------|-------------------------------------------------|
F#|----------------5-----------------------5--------|----------------5--------------------------------|
C#|-3--3--------7-----7--5--3--3--------7-----7--5--|-3--3--------7-----7--5--3--3--------5--5--3--3--|
G#|-------5--3--------------------5--3--------------|-------5--3--------------------5--3--------------|
C#|-------------------------------------------------|-------------------------------------------------|


D#|-------------------------------------------------|-------------------------------------------------|
A#|-------------------------------------------------|-------------------------------------------------|
F#|----------------------------------------5--------|-------------------------------7--10-10-10-10----|
C#|-------3-----5--5--3--3--------------7-----7--5--|-3--3--------3--3--5--5--7--7-----------------10-|
G#|-5--3-----5--------------5--0--3--5--------------|-------5--3--------------------------------------|
C#|-------------------------------------------------|-------------------------------------------------|


D#|-------------------------------------------------|---------------------------------------------|
A#|-------------------------------------------------|---------------------------------------------|
F#|-------10-10-10----------10-10-------10-10-10----|-------10-10-10----------10-10-------12---12-|
C#|-10-10----------10-10-10-------10-12----------12-|-12-12----------12-12-12-------10-12---------|
G#|-------------------------------------------------|---------------------------------------------|
C#|-------------------------------------------------|---------------------------------------------|


D#|-------------------------------|--------------------------|--------------------|
A#|-------------------------------|--------------------------|--------------------|
F#|-12-10-----------------12---12-|-12-10-12---10---14--14---|--------------------|
C#|-------12---10---12-10---------|--------------------------|-----------12--12---|
G#|-------------------------------|--------------------------|--------------------|
C#|-------------------------------|--------------------------|--------------------|


D#|--------------------|-----------------|-----------------------------------------|
A#|--------------------|-----------------|-----------------------------------------|
F#|--------------------|-----------------|-----------------------------------------|
C#|-----12-------------|-----------------|-----------------------------------------|
G#|----------12--12----|-----------------|---------------13-----------12-----------|
C#|--------------------|------12--12-----|-----0---12-15-----0--12-15-----0--12-15-|


D#|-------------------------------------------|-------------------------------------------|
A#|-------------------------------------------|-------------------------------------------|
F#|-------------------------------------------|-------------------------------------------|
C#|-------------------------------------------|-------------------------------------------|
G#|-----------------13-----------12-----------|-13-----------12---------------------------|
C#|-0--15-0---12-15-----0--12-15----0---12-15-|-----0--12-15-----0--12-15-0--15-0---12-15-|


D#|-------------------------------------------|-------------------------------------------|
A#|-------------------------------------------|-------------------------------------------|
F#|-------------------------------------------|-------------------------------------------|
C#|--------------10-10-10---------------------|-------------------------------------------|
G#|-13-----------10-10-10-----------13--------|----12---------------------------13--------|
C#|-----0--12-15-10-10-10-0---12-15-----0--12-|-15-----0--12-15-0--15-0---12-15-----0--12-|


D#|-------------------------------------------|--------------------------------------|
A#|-------------------------------------------|--------------------------------------|
F#|-------------------------------------------|--------------------------------------|
C#|-------------------------------------------|--------------------------------------|
G#|----12-----------13-----------12-----------|-----------------13-----------12------|
C#|-15----0---12-15-----0--12-15-----0--12-15-|-0--15-0---12-15-----0--12-15---------|


D#|-----------------------------------------------|-------------------------------------------------|
A#|-----------------------------------------------|-------------------------------------------------|
F#|--------5-----------------------5--------------|----------5-----------------------5--------------|
C#|-----7-----7--5--3--3--------7-----7--5--3--3--|-------7-----7--5--3--3--------7-----7--5--3--3--|
G#|-----------------------5--3--------------------|-5--3--------------------5--3--------------------|
C#|-----------------------------------------------|-------------------------------------------------|


D#|-------------------------------------------------|-------------------------------------------------|
A#|-------------------------------------------------|-------------------------------------------------|
F#|-------------------------------------------------|----------5--------------------------------------|
C#|-------5--5--3--3--------3-----5--5--3--3--------|-------7-----7--5--3--3--------3--3--5--5--7--7--|
G#|-5--3--------------5--3-----5--------------5--0--|-3--5--------------------5--3--------------------|
C#|-------------------------------------------------|-------------------------------------------------|


D#|-------------------------------------------------|-------------------------------------------------|
A#|-------------------------------------------------|-------------------------------------------------|
F#|-7--10-10-10-10----------10-10-10----------10-10-|-------10-10-10----------10-10-10----------10-10-|
C#|----------------10-10-10----------10-10-10-------|-10-12----------12-12-12----------12-12-12-------|
G#|-------------------------------------------------|-------------------------------------------------|
C#|-------------------------------------------------|-------------------------------------------------|


D#|-------------------------------|-------------------------------|----------------------------------|
A#|-------------------------------|-------------------------------|----------------------------------|
F#|-------12---12-12-10-----------|-------12---12-12-10-12---10---|-14-------------------------------|
C#|-10-12---------------12---10---|-12-10-------------------------|-----8----8--8--8--12--12--12-12--|
G#|-------------------------------|-------------------------------|-----8----8--8--8--12--12--12-12--|
C#|-------------------------------|-------------------------------|-----8----8--8--8--12--12--12-12--|


D#|---------------------------------|----------------------------------|-----------------------------|
A#|---------------------------------|----------------------------------|---------------3-------------|
F#|---------------------------------|----------------------------------|---------------2-------------|
C#|-8---3--3--3--0----0----0----3---|-0---8----8--8--8--12--12--12-12--|-8---3----0----0----0----3---|
G#|-8---3--3--3--0----0----0----3---|-0---8----8--8--8--12--12--12-12--|-8---3----0----0----0----3---|
C#|-8---3--3--3--0----0----0----3---|-0---8----8--8--8--12--12--12-12--|-8---3----0----0----0----3---|


D#|----------------------------------|---------------------------------|---------------------------------|
A#|----------------------------------|-------------------3----3--------|---------------------------------|
F#|----------------------------------|-------------------2----2--------|---------------------------------|
C#|-0---8----8--8--8--12--12--12-12--|-8---3--3--3--0----0----0----3---|-0---5----5--5---5----5--5---5---|
G#|-0---8----8--8--8--12--12--12-12--|-8---3--3--3--0----0----0----3---|-0---5----5--5---5----5--5---5---|
C#|-0---8----8--8--8--12--12--12-12--|-8---3--3--3--0----0----0----3---|-0---5----5--5---5----5--5---5---|


D#|-------------------------------------|-------------------------------------------------|
A#|-------------------------------------|-------------------------------------------------|
F#|-------------------------------------|-------------------------------------------------|
C#|-5--5--2----2--2---2----2--2--2--2---|-2--2--------------8--8--------------7--7--------|
G#|-5--5--2----2--2---2----2--2--2--2---|-2--2--0--0--0--3--8--8--0--0--0--3--7--7--0--3--|
C#|-5--5--2----2--2---2----2--2--2--2---|-2--2--0--0--0--3--8--8--0--0--0--3--7--7--0--3--|


D#|-------------------------------------------------|-------------------------------------------------|
A#|-------------------------------------------------|-------------------------------------------------|
F#|-------------------------------------------------|-------------------------------------------------|
C#|-------------------8--8--------------7--7--------|-------------------8--8--------------7--7--------|
G#|-0--3--0--0--0--3--8--8--0--0--0--3--7--7--0--3--|-0--3--0--0--0--3--8--8--0--0--0--3--7--7--0--3--|
C#|-0--3--0--0--0--3--8--8--0--0--0--3--7--7--0--3--|-0--3--0--0--0--3--8--8--0--0--0--3--7--7--0--3--|


D#|-------------------------------------------------|-------------------------------------------------|
A#|-------------------------------------------------|-------------------------------------------------|
F#|-------------------------------------------------|-------------------------------------------------|
C#|-------------------8--8--------------7--7--------|-------------------8--8--------------7--7--------|
G#|-0--3--0--0--0--3--8--8--0--0--0--3--7--7--0--3--|-0--3--0--0--0--3--8--8--0--0--0--3--7--7--0--3--|
C#|-0--3--0--0--0--3--8--8--0--0--0--3--7--7--0--3--|-0--3--0--0--0--3--8--8--0--0--0--3--7--7--0--3--|


D#|-------------------------------------------------|-------------------------------------------------|
A#|-------------------------------------------------|-------------------------------------------------|
F#|-------------------------------------------------|-------------------------------------------------|
C#|-------------------8--8--------------7--7--------|-------------------8--8--------------7--7--------|
G#|-0--3--0--0--0--3--8--8--0--0--0--3--7--7--0--3--|-0--3--0--0--0--3--8--8--0--0--0--3--7--7--0--3--|
C#|-0--3--0--0--0--3--8--8--0--0--0--3--7--7--0--3--|-0--3--0--0--0--3--8--8--0--0--0--3--7--7--0--3--|


D#|-----------------------------------------------|-----------------------------------------------|
A#|-----------------------------------------------|-----------------------------------------------|
F#|-----------------------------------------------|--------5-----------------------5--------------|
C#|-------------------8--8--------------3------3--|-----7-----7--5--3--3--------7-----7--5--3--3--|
G#|-0--3--0--0--0--3--8--8--0--0--0--3--3------3--|-----------------------5--3--------------------|
C#|-0--3--0--0--0--3--8--8--0--0--0--3--3------3--|-----------------------------------------------|


D#|-------------------------------------------------|-------------------------------------------------|
A#|-------------------------------------------------|-------------------------------------------------|
F#|----------5-----------------------5--------------|-------------------------------------------------|
C#|-------7-----7--5--3--3--------7-----7--5--3--3--|-------5--5--3--3--------3-----5--5--3--3--------|
G#|-5--3--------------------5--3--------------------|-5--3--------------5--3-----5--------------5--0--|
C#|-------------------------------------------------|-------------------------------------------------|


D#|-------------------------------------------------|-------------------------------------------------|
A#|-------------------------------------------------|-------------------------------------------------|
F#|----------5--------------------------------------|-7--10-10-10-10----------10-10-10----------10-10-|
C#|-------7-----7--5--3--3--------3--3--5--5--7--7--|----------------10-10-10----------10-10-10-------|
G#|-3--5--------------------5--3--------------------|-------------------------------------------------|
C#|-------------------------------------------------|-------------------------------------------------|


D#|-------------------------------------------------|-------------------------------|
A#|-------------------------------------------------|-------------------------------|
F#|-------10-10-10----------10-10-10----------10-10-|-------12---12-12-10-----------|
C#|-10-12----------12-12-12----------12-12-12-------|-10-12---------------12---10---|
G#|-------------------------------------------------|-------------------------------|
C#|-------------------------------------------------|-------------------------------|


D#|-------------------------------|-----------------------------------------------|
A#|-------------------------------|-----------------------------------------------|
F#|-------12---12-12-10-12---10---|-14-----5-----------------------5--------------|
C#|-12-10-------------------------|-----7-----7--5--3--3--------7-----7--5--3--3--|
G#|-------------------------------|-----------------------5--3--------------------|
C#|-------------------------------|-----------------------------------------------|


D#|-------------------------------------------------|-------------------------------------------------|
A#|-------------------------------------------------|-------------------------------------------------|
F#|----------5-----------------------5--------------|-------------------------------------------------|
C#|-------7-----7--5--3--3--------7-----7--5--3--3--|-------5--5--3--3--------3-----5--5--3--3--------|
G#|-5--3--------------------5--3--------------------|-5--3--------------5--3-----5--------------5--0--|
C#|-------------------------------------------------|-------------------------------------------------|


D#|-------------------------------------------------|-------------------------------------------------|
A#|-------------------------------------------------|-------------------------------------------------|
F#|----------5--------------------------------------|-7--10-10-10-10----------10-10-10----------10-10-|
C#|-------7-----7--5--3--3--------3--3--5--5--7--7--|----------------10-10-10----------10-10-10-------|
G#|-3--5--------------------5--3--------------------|-------------------------------------------------|
C#|-------------------------------------------------|-------------------------------------------------|


D#|-------------------------------------------------|-------------------------------|
A#|-------------------------------------------------|-------------------------------|
F#|-------10-10-10----------10-10-10----------10-10-|-------12---12-12-10-----------|
C#|-10-12----------12-12-12----------12-12-12-------|-10-12---------------12---10---|
G#|-------------------------------------------------|-------------------------------|
C#|-------------------------------------------------|-------------------------------|


D#|-------------------------------|------------|------------|-----------------------------------------|
A#|-------------------------------|------------|------------|-----------------------------------------|
F#|-------12---12-12-10-12---10---|-14--14-----|-----15-----|-15--------------------------------------|
C#|-12-10-------------------------|------------|------------|-----0---------8---------------7---------|
G#|-------------------------------|------------|------------|-----0---0--3--8---0--0--0--3--7---0--3--|
C#|-------------------------------|------------|------------|-----0---0--3--8---0--0--0--3--7---0--3--|


D#|-------------------------------------------|-------------------------------------------|
A#|-------------------------------------------|-------------------------------------------|
F#|-------------------------------------------|-------------------------------------------|
C#|-------0---------8---------------7------3--|-------0---------8---------------7---------|
G#|-0--3--0---0--3--8---0--0--0--3--7---0--3--|----3--0---0--3--8---0--0--0--3--7---0--3--|
C#|-0--3--0---0--3--8---0--0--0--3--7---0--3--|----3--0---0--3--8---0--0--0--3--7---0--3--|


D#|-------------------------------------------|-------------------------------------------|
A#|-------------------------------------------|-------------------------------------------|
F#|-------------------------------------------|-------------------------------------------|
C#|-------0---------8---------------7------3--|-------0---------8---------------7---------|
G#|-0--3--0---0--3--8---0--0--0--3--7---0--3--|----3--0---0--3--8---0--0--0--3--7---0--3--|
C#|-0--3--0---0--3--8---0--0--0--3--7---0--3--|----3--0---0--3--8---0--0--0--3--7---0--3--|


D#|-------------------------------------------|----------------|
A#|-------------------------------------------|----------------|
F#|-------------------------------------------|----------------|
C#|-------0---------8---------------7------3--|----------------|
G#|-0--3--0---0--3--8---0--0--0--3--7---0--3--|----------------|
C#|-0--3--0---0--3--8---0--0--0--3--7---0--3--|----------------|





Track 2: Guitar 2

D#|--------|--------|--------|--------|--------|--------|--------|--------|--------|
A#|--------|--------|--------|--------|--------|--------|--------|--------|--------|
F#|--------|--------|--------|--------|--------|--------|--------|--------|--------|
C#|--------|--------|--------|--------|--------|--------|--------|--------|--------|
G#|--------|--------|--------|--------|--------|--------|--------|--------|--------|
C#|--------|--------|--------|--------|--------|--------|--------|--------|--------|


D#|--------|--------|--------|--------|--------|--------|--------|--------|--------|
A#|--------|--------|--------|--------|--------|--------|--------|--------|--------|
F#|--------|--------|--------|--------|--------|--------|--------|--------|--------|
C#|--------|--------|--------|--------|--------|--------|--------|--------|--------|
G#|--------|--------|--------|--------|--------|--------|--------|--------|--------|
C#|--------|--------|--------|--------|--------|--------|--------|--------|--------|


D#|------------------|---------------------------------------|-----------------------------------------|
A#|------------------|---------------------------------------|-----------------------------------------|
F#|------------------|---------------------------------------|-----------------------------------------|
C#|--------8---8--8--|-8--8--8----8--8--8--7---7--7--0----0--|-0--0--0----0--0--0--0---0--0--3---3--3--|
G#|--------8---8--8--|-8--8--8----8--8--8--7---7--7--0----0--|-0--0--0----0--0--0--0---0--0--3---3--3--|
C#|--------8---8--8--|-8--8--8----8--8--8--7---7--7--0----0--|-0--0--0----0--0--0--0---0--0--3---3--3--|


D#|-----------------------------------------|-----------------------------------------|
A#|-----------------------------------------|-----------------------------------------|
F#|-----------------------------------------|-----------------------------------------|
C#|-3--3--3----3--3--3--5--5--5--5--0----0--|-0--0--0----0--0--0--0---0--0--8---8--8--|
G#|-3--3--3----3--3--3--5--5--5--5--0----0--|-0--0--0----0--0--0--0---0--0--8---8--8--|
C#|-3--3--3----3--3--3--5--5--5--5--0----0--|-0--0--0----0--0--0--0---0--0--8---8--8--|


D#|---------------------------------------|-----------------------------------------|
A#|---------------------------------------|-----------------------------------------|
F#|-------------------------------7----7--|-7--7--7---------------------------------|
C#|-8--8--8----8--8--8--7---7--7--0----0--|-0--0--0----0--0--0--0---0--0--5---5--5--|
G#|-8--8--8----8--8--8--7---7--7--5----5--|-5--5--5----0--0--0--0---0--0--5---5--5--|
C#|-8--8--8----8--8--8--7---7--7--0----0--|-0--0--0----0--0--0--0---0--0--5---5--5--|


D#|-----------------------------------------|-----------------------------------------|
A#|-----------------------------------------|-----------------------------------------|
F#|-----------------------------------------|-----------------------------------------|
C#|-5--5--5---5--5--5--5--5---5--7--7----7--|-7--7--7---7--7--7--7--7---7-------------|
G#|-5--5--5---5--5--5--5--5---5--7--7----7--|-7--7--7---7--7--7--7--7---7-------------|
C#|-5--5--5---5--5--5--5--5---5--7--7----7--|-7--7--7---7--7--7--7--7---7---0---12-15-|


D#|-------------------------------------------|-------------------------------------------|
A#|-------------------------------------------|-------------------------------------------|
F#|-------------------------------------------|-------------------------------------------|
C#|-------------------------------------------|-------------------------------------------|
G#|-13-----------12---------------------------|-13-----------12-----------13-----------12-|
C#|-----0--12-15-----0--12-15-0--15-0---12-15-|-----0--12-15----0---12-15-----0--12-15----|


D#|---------------------------------------------|------------------|--------|--------|
A#|---------------------------------------------|------------------|--------|--------|
F#|---------------------------------------------|------------------|--------|--------|
C#|------------------------------------------10-|-10-10------------|--------|--------|
G#|-----------------------------13-----------10-|-10-10------------|--------|--------|
C#|----0--12-15-0--15-0---12-15-----0--12-15-10-|-10-10------------|--------|--------|


D#|--------|--------|--------|--------|---------------------------------------|---------------------------------------|
A#|--------|--------|--------|--------|---------------------------------------|---------------------------------------|
F#|--------|--------|--------|--------|---------------------------------------|---------------------------------------|
C#|--------|--------|--------|--------|-----8---8--8--8--8--8----8--8--8--7---|-7--7--0----0--0--0--0----0--0--0--0---|
G#|--------|--------|--------|--------|-----8---8--8--8--8--8----8--8--8--7---|-7--7--0----0--0--0--0----0--0--0--0---|
C#|--------|--------|--------|--------|-----8---8--8--8--8--8----8--8--8--7---|-7--7--0----0--0--0--0----0--0--0--0---|


D#|-------------------------------------------|---------------------------------------|
A#|-------------------------------------------|---------------------------------------|
F#|-------------------------------------------|---------------------------------------|
C#|-0--0--3---3--3--3--3--3----3--3--3--5--5--|-5--5--0----0--0--0--0----0--0--0--0---|
G#|-0--0--3---3--3--3--3--3----3--3--3--5--5--|-5--5--0----0--0--0--0----0--0--0--0---|
C#|-0--0--3---3--3--3--3--3----3--3--3--5--5--|-5--5--0----0--0--0--0----0--0--0--0---|


D#|-----------------------------------------|---------------------------------------|
A#|-----------------------------------------|---------------------------------------|
F#|-----------------------------------------|-------7----7--7--7--7-----------------|
C#|-0--0--8---8--8--8--8--8----8--8--8--7---|-7--7--0----0--0--0--0----0--0--0--0---|
G#|-0--0--8---8--8--8--8--8----8--8--8--7---|-7--7--5----5--5--5--5----0--0--0--0---|
C#|-0--0--8---8--8--8--8--8----8--8--8--7---|-7--7--0----0--0--0--0----0--0--0--0---|


D#|-------------------------------------------|-----------------------------------------|
A#|-------------------------------------------|-----------------------------------------|
F#|-------------------------------------------|-----------------------------------------|
C#|-0--0--5---5--5--5--5--5---5--5--5--5--5---|-5--7--7----7--7--7--7---7--7--7--7--7---|
G#|-0--0--5---5--5--5--5--5---5--5--5--5--5---|-5--7--7----7--7--7--7---7--7--7--7--7---|
C#|-0--0--5---5--5--5--5--5---5--5--5--5--5---|-5--7--7----7--7--7--7---7--7--7--7--7---|


D#|------------|------------|--------|--------|--------|--------|--------|--------|
A#|------------|------------|--------|--------|--------|--------|--------|--------|
F#|-----14-----|------------|--------|--------|--------|--------|--------|--------|
C#|-7----------|------------|--------|--------|--------|--------|--------|--------|
G#|-7----------|------------|--------|--------|--------|--------|--------|--------|
C#|-7----------|------------|--------|--------|--------|--------|--------|--------|


D#|--------|--------|--------|--------|--------|--------|--------|--------|---------------------------------------|
A#|--------|--------|--------|--------|--------|--------|--------|--------|---------------------------------------|
F#|--------|--------|--------|--------|--------|--------|--------|--------|---------------------------------------|
C#|--------|--------|--------|--------|--------|--------|--------|--------|-----8---8--8--8--8--8----8--8--8--7---|
G#|--------|--------|--------|--------|--------|--------|--------|--------|-----8---8--8--8--8--8----8--8--8--7---|
C#|--------|--------|--------|--------|--------|--------|--------|--------|-----8---8--8--8--8--8----8--8--8--7---|


D#|---------------------------------------|-------------------------------------------|
A#|---------------------------------------|-------------------------------------------|
F#|---------------------------------------|-------------------------------------------|
C#|-7--7--0----0--0--0--0----0--0--0--0---|-0--0--3---3--3--3--3--3----3--3--3--5--5--|
G#|-7--7--0----0--0--0--0----0--0--0--0---|-0--0--3---3--3--3--3--3----3--3--3--5--5--|
C#|-7--7--0----0--0--0--0----0--0--0--0---|-0--0--3---3--3--3--3--3----3--3--3--5--5--|


D#|---------------------------------------|-----------------------------------------|
A#|---------------------------------------|-----------------------------------------|
F#|---------------------------------------|-----------------------------------------|
C#|-5--5--0----0--0--0--0----0--0--0--0---|-0--0--8---8--8--8--8--8----8--8--8--7---|
G#|-5--5--0----0--0--0--0----0--0--0--0---|-0--0--8---8--8--8--8--8----8--8--8--7---|
C#|-5--5--0----0--0--0--0----0--0--0--0---|-0--0--8---8--8--8--8--8----8--8--8--7---|


D#|---------------------------------------|-------------------------------------------|
A#|---------------------------------------|-------------------------------------------|
F#|-------7----7--7--7--7-----------------|-------------------------------------------|
C#|-7--7--0----0--0--0--0----0--0--0--0---|-0--0--5---5--5--5--5--5---5--5--5--5--5---|
G#|-7--7--5----5--5--5--5----0--0--0--0---|-0--0--5---5--5--5--5--5---5--5--5--5--5---|
C#|-7--7--0----0--0--0--0----0--0--0--0---|-0--0--5---5--5--5--5--5---5--5--5--5--5---|


D#|-----------------------------------------|---------------------------------------|
A#|-----------------------------------------|---------------------------------------|
F#|-----------------------------------------|---------------------------------------|
C#|-5--7--7----7--7--7--7---7--7--7--7--7---|-7---8---8--8--8--8--8----8--8--8--7---|
G#|-5--7--7----7--7--7--7---7--7--7--7--7---|-7---8---8--8--8--8--8----8--8--8--7---|
C#|-5--7--7----7--7--7--7---7--7--7--7--7---|-7---8---8--8--8--8--8----8--8--8--7---|


D#|---------------------------------------|-------------------------------------------|
A#|---------------------------------------|-------------------------------------------|
F#|---------------------------------------|-------------------------------------------|
C#|-7--7--0----0--0--0--0----0--0--0--0---|-0--0--3---3--3--3--3--3----3--3--3--5--5--|
G#|-7--7--0----0--0--0--0----0--0--0--0---|-0--0--3---3--3--3--3--3----3--3--3--5--5--|
C#|-7--7--0----0--0--0--0----0--0--0--0---|-0--0--3---3--3--3--3--3----3--3--3--5--5--|


D#|---------------------------------------|-----------------------------------------|
A#|---------------------------------------|-----------------------------------------|
F#|---------------------------------------|-----------------------------------------|
C#|-5--5--0----0--0--0--0----0--0--0--0---|-0--0--8---8--8--8--8--8----8--8--8--7---|
G#|-5--5--0----0--0--0--0----0--0--0--0---|-0--0--8---8--8--8--8--8----8--8--8--7---|
C#|-5--5--0----0--0--0--0----0--0--0--0---|-0--0--8---8--8--8--8--8----8--8--8--7---|


D#|---------------------------------------|-------------------------------------------|
A#|---------------------------------------|-------------------------------------------|
F#|-------7----7--7--7--7-----------------|-------------------------------------------|
C#|-7--7--7----7--7--7--7----0--0--0--0---|-0--0--5---5--5--5--5--5---5--5--5--5--5---|
G#|-7--7--5----5--5--5--5----0--0--0--0---|-0--0--5---5--5--5--5--5---5--5--5--5--5---|
C#|-7--7--0----0--0--0--0----0--0--0--0---|-0--0--5---5--5--5--5--5---5--5--5--5--5---|


D#|-----------------------------------------|-----17-----|------------|--------|--------|
A#|-----------------------------------------|------------|------------|--------|--------|
F#|-----------------------------------------|------------|------------|--------|--------|
C#|-5--7--7----7--7--7--7---7--7--7--7--7---|-7----------|------------|--------|--------|
G#|-5--7--7----7--7--7--7---7--7--7--7--7---|-7----------|------------|--------|--------|
C#|-5--7--7----7--7--7--7---7--7--7--7--7---|-7----------|------------|--------|--------|


D#|--------|--------|--------|--------|--------|
A#|--------|--------|--------|--------|--------|
F#|--------|--------|--------|--------|--------|
C#|--------|--------|--------|--------|--------|
G#|--------|--------|--------|--------|--------|
C#|--------|--------|--------|--------|--------|





Track 3: Guitar 3

D#|--------|--------|--------|--------|--------|--------|--------|--------|--------|
A#|--------|--------|--------|--------|--------|--------|--------|--------|--------|
F#|--------|--------|--------|--------|--------|--------|--------|--------|--------|
C#|--------|--------|--------|--------|--------|--------|--------|--------|--------|
G#|--------|--------|--------|--------|--------|--------|--------|--------|--------|
C#|--------|--------|--------|--------|--------|--------|--------|--------|--------|


D#|--------|--------|--------|--------|--------|--------|--------|--------|--------|
A#|--------|--------|--------|--------|--------|--------|--------|--------|--------|
F#|--------|--------|--------|--------|--------|--------|--------|--------|--------|
C#|--------|--------|--------|--------|--------|--------|--------|--------|--------|
G#|--------|--------|--------|--------|--------|--------|--------|--------|--------|
C#|--------|--------|--------|--------|--------|--------|--------|--------|--------|


D#|------------------|---------------------------------------|-----------------------------------------|
A#|------------------|---------------------------------------|-----------------------------------------|
F#|--------10--10-10-|-10-10-10---10-10-10-10--10-10-10---10-|-10-10-10---10-10-10-7---7--7--9---9--9--|
C#|------------------|---------------------------------------|-----------------------------------------|
G#|------------------|---------------------------------------|-----------------------------------------|
C#|------------------|---------------------------------------|-----------------------------------------|


D#|-----------------------------------------|---------------------------------------|
A#|-----------------------------------------|---------------------------------------|
F#|-9--9--9----9--9--9--9--9--9--9--9----9--|-9--9--9----9--9--9--9---9--9--14---14-|
C#|-----------------------------------------|---------------------------------------|
G#|-----------------------------------------|---------------------------------------|
C#|-----------------------------------------|---------------------------------------|


D#|---------------------------------------|-----------------------------------------|
A#|---------------------------------------|-----------------------------------------|
F#|-14-14-14---14-14-14-15--15-15-14---14-|-14-14-14---10-10-10-10--9--9--12--12-10-|
C#|---------------------------------------|-----------------------------------------|
G#|---------------------------------------|-----------------------------------------|
C#|---------------------------------------|-----------------------------------------|


D#|-------------------------------------------|------------------------------------|
A#|-------------------------------------------|------------------------------------|
F#|-10-10-14--14-14-14-14-14--14-14-14--14-12-|-12-12-10--10-10-10-10-9---9--------|
C#|-------------------------------------------|------------------------------------|
G#|-------------------------------------------|------------------------------------|
C#|-------------------------------------------|------------------------------------|


D#|--------|--------|--------|--------|--------|--------|--------|--------|--------|
A#|--------|--------|--------|--------|--------|--------|--------|--------|--------|
F#|--------|--------|--------|--------|--------|--------|--------|--------|--------|
C#|--------|--------|--------|--------|--------|--------|--------|--------|--------|
G#|--------|--------|--------|--------|--------|--------|--------|--------|--------|
C#|--------|--------|--------|--------|--------|--------|--------|--------|--------|


D#|--------|---------------------------------------|---------------------------------------|
A#|--------|---------------------------------------|---------------------------------------|
F#|--------|-----10--10-10-10-10-10---10-10-10-10--|-10-10-10---10-10-10-10---10-10-10-7---|
C#|--------|---------------------------------------|---------------------------------------|
G#|--------|---------------------------------------|---------------------------------------|
C#|--------|---------------------------------------|---------------------------------------|


D#|-------------------------------------------|---------------------------------------|
A#|-------------------------------------------|---------------------------------------|
F#|-7--7--9---9--9--9--9--9----9--9--9--9--9--|-9--9--9----9--9--9--9----9--9--9--9---|
C#|-------------------------------------------|---------------------------------------|
G#|-------------------------------------------|---------------------------------------|
C#|-------------------------------------------|---------------------------------------|


D#|---------------------------------------|---------------------------------------|
A#|---------------------------------------|---------------------------------------|
F#|-9--9--14---14-14-14-14---14-14-14-15--|-15-15-14---14-14-14-14---10-10-10-10--|
C#|---------------------------------------|---------------------------------------|
G#|---------------------------------------|---------------------------------------|
C#|---------------------------------------|---------------------------------------|


D#|-------------------------------------------|-------------------------------------------|
A#|-------------------------------------------|-------------------------------------------|
F#|-9--9--12--12-10-10-10-14--14-14-14-14-14--|-14-14-14--14-12-12-12-10--10-10-10-10-9---|
C#|-------------------------------------------|-------------------------------------------|
G#|-------------------------------------------|-------------------------------------------|
C#|-------------------------------------------|-------------------------------------------|


D#|----------------|--------|--------|--------|--------|--------|--------|--------|
A#|----------------|--------|--------|--------|--------|--------|--------|--------|
F#|-9--------------|--------|--------|--------|--------|--------|--------|--------|
C#|----------------|--------|--------|--------|--------|--------|--------|--------|
G#|----------------|--------|--------|--------|--------|--------|--------|--------|
C#|----------------|--------|--------|--------|--------|--------|--------|--------|


D#|--------|--------|--------|--------|--------|--------|--------|--------|---------------------------------------|
A#|--------|--------|--------|--------|--------|--------|--------|--------|---------------------------------------|
F#|--------|--------|--------|--------|--------|--------|--------|--------|-----10--10-10-10-10-10---10-10-10-10--|
C#|--------|--------|--------|--------|--------|--------|--------|--------|---------------------------------------|
G#|--------|--------|--------|--------|--------|--------|--------|--------|---------------------------------------|
C#|--------|--------|--------|--------|--------|--------|--------|--------|---------------------------------------|


D#|---------------------------------------|-------------------------------------------|
A#|---------------------------------------|-------------------------------------------|
F#|-10-10-10---10-10-10-10---10-10-10-7---|-7--7--9---9--9--9--9--9----9--9--9--9--9--|
C#|---------------------------------------|-------------------------------------------|
G#|---------------------------------------|-------------------------------------------|
C#|---------------------------------------|-------------------------------------------|


D#|---------------------------------------|---------------------------------------|
A#|---------------------------------------|---------------------------------------|
F#|-9--9--9----9--9--9--9----9--9--9--9---|-9--9--14---14-14-14-14---14-14-14-15--|
C#|---------------------------------------|---------------------------------------|
G#|---------------------------------------|---------------------------------------|
C#|---------------------------------------|---------------------------------------|


D#|---------------------------------------|-------------------------------------------|
A#|---------------------------------------|-------------------------------------------|
F#|-15-15-14---14-14-14-14---10-10-10-10--|-9--9--12--12-10-10-10-14--14-14-14-14-14--|
C#|---------------------------------------|-------------------------------------------|
G#|---------------------------------------|-------------------------------------------|
C#|---------------------------------------|-------------------------------------------|


D#|-------------------------------------------|-----------------------------------------------|
A#|-------------------------------------------|-----10-13-10----------------10-10-10----------|
F#|-14-14-14--14-12-12-12-10--10-10-10-10-9---|-9------------12-10-10----------------12-10-10-|
C#|-------------------------------------------|-----------------------12-10-------------------|
G#|-------------------------------------------|-----------------------------------------------|
C#|-------------------------------------------|-----------------------------------------------|


D#|-------------------------------------------------|-------------------------------------------------|
A#|-------10-13-10----------------10-10-10----------|-------------------------------------------------|
F#|----------------12-10-10----------------12-10-10-|-------12-12-10-10-------------12-12-10-10-------|
C#|-12-10-------------------12-10-------------------|-12-10-------------12----10-12-------------12----|
G#|-------------------------------------------------|----------------------12----------------------12-|
C#|-------------------------------------------------|-------------------------------------------------|


D#|-------------------------------------------------|-------13-13-13------13-13-13------13-13-|
A#|-------10-13-10----------------------------10-10-|-13-15----------13------------13---------|
F#|----------------12-10-10-------10-10-12-12-------|-----------------------------------------|
C#|-10-12-------------------12-10-------------------|-----------------------------------------|
G#|-------------------------------------------------|-----------------------------------------|
C#|-------------------------------------------------|-----------------------------------------|


D#|-------13-13-13------13-13-13------13-13-|-----15---15-15-13-----------|-------15---15-15-13-15---13---|
A#|-13-15----------15------------15---------|-13----------------15---13---|-15-13-------------------------|
F#|-----------------------------------------|-----------------------------|-------------------------------|
C#|-----------------------------------------|-----------------------------|-------------------------------|
G#|-----------------------------------------|-----------------------------|-------------------------------|
C#|-----------------------------------------|-----------------------------|-------------------------------|


D#|-17-------------|--------|--------|--------|--------|--------|--------|--------|
A#|----------------|--------|--------|--------|--------|--------|--------|--------|
F#|----------------|--------|--------|--------|--------|--------|--------|--------|
C#|----------------|--------|--------|--------|--------|--------|--------|--------|
G#|----------------|--------|--------|--------|--------|--------|--------|--------|
C#|----------------|--------|--------|--------|--------|--------|--------|--------|


D#|--------|
A#|--------|
F#|--------|
C#|--------|
G#|--------|
C#|--------|





Track 4: Guitar 1

D#|--------|--------|--------|--------|--------|--------|--------|--------|--------|
A#|--------|--------|--------|--------|--------|--------|--------|--------|--------|
F#|--------|--------|--------|--------|--------|--------|--------|--------|--------|
C#|--------|--------|--------|--------|--------|--------|--------|--------|--------|
G#|--------|--------|--------|--------|--------|--------|--------|--------|--------|
C#|--------|--------|--------|--------|--------|--------|--------|--------|--------|


D#|--------|--------|--------|--------|--------|--------|--------|--------|--------|
A#|--------|--------|--------|--------|--------|--------|--------|--------|--------|
F#|--------|--------|--------|--------|--------|--------|--------|--------|--------|
C#|--------|--------|--------|--------|--------|--------|--------|--------|--------|
G#|--------|--------|--------|--------|--------|--------|--------|--------|--------|
C#|--------|--------|--------|--------|--------|--------|--------|--------|--------|


D#|--------|--------|--------|--------|--------|--------|--------|--------|--------|
A#|--------|--------|--------|--------|--------|--------|--------|--------|--------|
F#|--------|--------|--------|--------|--------|--------|--------|--------|--------|
C#|--------|--------|--------|--------|--------|--------|--------|--------|--------|
G#|--------|--------|--------|--------|--------|--------|--------|--------|--------|
C#|--------|--------|--------|--------|--------|--------|--------|--------|--------|


D#|--------|--------|--------|--------|--------|--------|--------|--------|--------|
A#|--------|--------|--------|--------|--------|--------|--------|--------|--------|
F#|--------|--------|--------|--------|--------|--------|--------|--------|--------|
C#|--------|--------|--------|--------|--------|--------|--------|--------|--------|
G#|--------|--------|--------|--------|--------|--------|--------|--------|--------|
C#|--------|--------|--------|--------|--------|--------|--------|--------|--------|


D#|--------|--------|--------|--------|--------|--------|--------|--------|--------|
A#|--------|--------|--------|--------|--------|--------|--------|--------|--------|
F#|--------|--------|--------|--------|--------|--------|--------|--------|--------|
C#|--------|--------|--------|--------|--------|--------|--------|--------|--------|
G#|--------|--------|--------|--------|--------|--------|--------|--------|--------|
C#|--------|--------|--------|--------|--------|--------|--------|--------|--------|


D#|--------|--------|--------|--------|--------|--------|--------|--------|--------|
A#|--------|--------|--------|--------|--------|--------|--------|--------|--------|
F#|--------|--------|--------|--------|--------|--------|--------|--------|--------|
C#|--------|--------|--------|--------|--------|--------|--------|--------|--------|
G#|--------|--------|--------|--------|--------|--------|--------|--------|--------|
C#|--------|--------|--------|--------|--------|--------|--------|--------|--------|


D#|--------|--------|--------|--------|--------|--------|--------|--------|--------|
A#|--------|--------|--------|--------|--------|--------|--------|--------|--------|
F#|--------|--------|--------|--------|--------|--------|--------|--------|--------|
C#|--------|--------|--------|--------|--------|--------|--------|--------|--------|
G#|--------|--------|--------|--------|--------|--------|--------|--------|--------|
C#|--------|--------|--------|--------|--------|--------|--------|--------|--------|


D#|--------|--------|--------|--------|--------|--------|--------|--------|--------|
A#|--------|--------|--------|--------|--------|--------|--------|--------|--------|
F#|--------|--------|--------|--------|--------|--------|--------|--------|--------|
C#|--------|--------|--------|--------|--------|--------|--------|--------|--------|
G#|--------|--------|--------|--------|--------|--------|--------|--------|--------|
C#|--------|--------|--------|--------|--------|--------|--------|--------|--------|


D#|--------|--------|--------|--------|--------|-----------------------------------------|
A#|--------|--------|--------|--------|--------|-----------------------------------------|
F#|--------|--------|--------|--------|--------|-----------------------------------------|
C#|--------|--------|--------|--------|--------|-----0---------8---------------7---------|
G#|--------|--------|--------|--------|--------|-----0---0--3--8---0--0--0--3--7---0--3--|
C#|--------|--------|--------|--------|--------|-----0---0--3--8---0--0--0--3--7---0--3--|


D#|-------------------------------------------|------------------|--------|--------|
A#|-------------------------------------------|------------------|--------|--------|
F#|-------------------------------------------|------------------|--------|--------|
C#|-------0---------8---------------7------3--|------------------|--------|--------|
G#|-0--3--0---0--3--8---0--0--0--3--7---0--3--|----3-------------|--------|--------|
C#|-0--3--0---0--3--8---0--0--0--3--7---0--3--|----3-------------|--------|--------|


D#|--------|--------|--------|--------|
A#|--------|--------|--------|--------|
F#|--------|--------|--------|--------|
C#|--------|--------|--------|--------|
G#|--------|--------|--------|--------|
C#|--------|--------|--------|--------|





Track 5: Bass

F#|--------|--------|--------|--------|-------------------------------------------|
C#|--------|--------|--------|--------|-------------------------------------------|
G#|--------|--------|--------|--------|-------------------------------------------|
C#|--------|--------|--------|--------|-0---0--3--8---0--0--0--3--7---0--3--0--3--|


F#|-----------------------------------------|-------------------------------------------|
C#|-----------------------------------------|-------------------------------------------|
G#|-----------------------------------------|-------------------------------------------|
C#|-0---0--3--8---0--0--0--3--7---0--3---3--|-0---0--3--8---0--0--0--3--7---0--3--0--3--|


F#|---------------------------------------------|-------------------------------------------|
C#|---------------------------------------------|-------------------------------------------|
G#|---------------------------------------------|-------------------------------------------|
C#|-0---0--3--8---0--0--0--3--7--0--0--3--0--2--|-0---0--3--8---0--0--0--3--7---0--3--0--3--|


F#|-----------------------------------------|-------------------------------------------|
C#|-----------------------------------------|-------------------------------------------|
G#|-----------------------------------------|-------------------------------------------|
C#|-0---0--3--8---0--0--0--3--7---0--3---3--|-0---0--3--8---0--0--0--3--7---0--3--0--3--|


F#|---------------------------------------------|-------------------------------------------|
C#|---------------------------------------------|-------------------------------------------|
G#|---------------------------------------------|-----------13-----------12-----------------|
C#|-0---0--3--8---0--0--0--3--7--0--0--3--0--2--|-0---12-15-----0--12-15-----0--12-15-0--15-|


F#|-----------------------------------------|-------------------------------------------|
C#|-----------------------------------------|-------------------------------------------|
G#|-----------13-----------12-----------13--|----------12---------------------------13--|
C#|-0---12-15-----0--12-15----0---12-15-----|-0--12-15-----0--12-15-0--15-0---12-15-----|


F#|---------------------------------------------|---------------------------------------------|
C#|---------------------------------------------|---------------------------------------------|
G#|-----------------------------13-----------12-|-----------------------------13-----------12-|
C#|-0--12-15-10-10-10-0---12-15-----0--12-15----|----0--12-15-0--15-0---12-15-----0--12-15----|


F#|-------------------------------------------|-------------------------------------------|
C#|-------------------------------------------|-------------------------------------------|
G#|-----------13-----------12-----------------|-----------13------------------------------|
C#|-0---12-15-----0--12-15-----0--12-15-0--15-|-0---12-15-----0--12-15-10-10-10-8---8--8--|


F#|-----------------------------------------|-----------------------------------------|
C#|-----------------------------------------|-----------------------------------------|
G#|-----------------------------------------|-----------------------------------------|
C#|-8--8--8----8--8--8--7---7--7--0---0--0--|-0--0--0----0--0--0--0---0--0--3---3--3--|


F#|-------------------------------------------|-----------------------------------------|
C#|-------------------------------------------|-----------------------------------------|
G#|-------------------------------------5--5--|-----------------------------------------|
C#|-3--3--3----3--3--3--5--5--5--5--0---------|-0--0--0----0--0--0--0---0--0--8---8--8--|


F#|-----------------------------------------|-------------------------------------------|
C#|-----------------------------------------|-------------------------------------------|
G#|-----------------------------------------|------------5--5--5--3--3--3--3------------|
C#|-8--8--8----8--8--8--7---7--7--0---0--0--|-0--0--0-------------------------5---5--5--|


F#|-----------------------------------------|-----------------------------------------|
C#|-----------------------------------------|-----------------------------------------|
G#|-----------------------------------------|-----------------------------------------|
C#|-5--5--5---5--5--5--5--5---5--7--7----7--|-7--7--7---7--7--7--7--7---7---0---12-15-|


F#|-------------------------------------------|-------------------------------------------|
C#|-------------------------------------------|-------------------------------------------|
G#|-13-----------12---------------------------|-13-----------12-----------13-----------12-|
C#|-----0--12-15-----0--12-15-0--15-0---12-15-|-----0--12-15----0---12-15-----0--12-15----|


F#|---------------------------------------------|-------------------------------------------|
C#|---------------------------------------------|-------------------------------------------|
G#|-----------------------------13--------------|-----------------13-----------12-----------|
C#|----0--12-15-0--15-0---12-15-----0--12-15-10-|-10-10-0---12-15-----0--12-15-----0--12-15-|


F#|-------------------------------------------|-------------------------------------------|
C#|-------------------------------------------|-------------------------------------------|
G#|-----------------13-----------12-----------|-13-----------12---------------------------|
C#|-0--15-0---12-15-----0--12-15----0---12-15-|-----0--12-15-----0--12-15-0--15-0---12-15-|


F#|-------------------------------------------|-------------------------------------------|
C#|-------------------------------------------|-------------------------------------------|
G#|-13------------------------------13--------|----12---------------------------13--------|
C#|-----0--12-15-10-10-10-0---12-15-----0--12-|-15-----0--12-15-0--15-0---12-15-----0--12-|


F#|-------------------------------------------|--------------------------------------|
C#|-------------------------------------------|--------------------------------------|
G#|----12-----------13-----------12-----------|-----------------13-----------12------|
C#|-15----0---12-15-----0--12-15-----0--12-15-|-0--15-0---12-15-----0--12-15---------|


F#|---------------------------------------|-----------------------------------------|
C#|---------------------------------------|-----------------------------------------|
G#|---------------------------------------|-----------------------------------------|
C#|-----8---8--8--8--8--8----8--8--8--7---|-7--7--0---0--0--0--0--0----0--0--0--0---|


F#|-------------------------------------------|-----------------------------------------|
C#|-------------------------------------------|-----------------------------------------|
G#|-------------------------------------------|-----------5--5--------------------------|
C#|-0--0--3---3--3--3--3--3----3--3--3--5--5--|-5--5--0---------0--0--0----0--0--0--0---|


F#|-----------------------------------------|-------------------------------------------|
C#|-----------------------------------------|-------------------------------------------|
G#|-----------------------------------------|----------------------------5--5--5--3--3--|
C#|-0--0--8---8--8--8--8--8----8--8--8--7---|-7--7--0---0--0--0--0--0-------------------|


F#|-------------------------------------------|-----------------------------------------|
C#|-------------------------------------------|-----------------------------------------|
G#|-3--3--------------------------------------|-----------------------------------------|
C#|-------5---5--5--5--5--5---5--5--5--5--5---|-5--7--7----7--7--7--7---7--7--7--7--7---|


F#|----------------------------------|---------------------------------|----------------------------------|
C#|----------------------------------|---------------------------------|----------------------------------|
G#|----------------------------------|---------------------------------|----------------------------------|
C#|-7---8----8--8--8--12--12--12-12--|-8---3--3--3--0----0----0----3---|-0---8----8--8--8--12--12--12-12--|


F#|-----------------------------|----------------------------------|---------------------------------|
C#|-----------------------------|----------------------------------|---------------------------------|
G#|-----------------------------|----------------------------------|---------------------------------|
C#|-8---3----0----0----0----3---|-0---8----8--8--8--12--12--12-12--|-8---3--3--3--0----0----0----3---|


F#|---------------------------------|-------------------------------------|-------------------------------------------------|
C#|---------------------------------|-------------------------------------|-------------------------------------------------|
G#|---------------------------------|-------------------------------------|-------------------------------------------------|
C#|-0---5----5--5---5----5--5---5---|-5--5--2----2--2---2----2--2--3--2---|-2--2--0--0--0--3--8--8--0--0--0--3--7--7--0--3--|


F#|-------------------------------------------------|-------------------------------------------------|
C#|-------------------------------------------------|-------------------------------------------------|
G#|-------------------------------------------------|-------------------------------------------------|
C#|-0--3--0--0--0--3--8--8--0--0--0--3--7--7--0--3--|-0--3--0--0--0--3--8--8--0--0--0--3--7--7--0--3--|


F#|-------------------------------------------------|-------------------------------------------------|
C#|-------------------------------------------------|-------------------------------------------------|
G#|-------------------------------------------------|-------------------------------------------------|
C#|-0--3--0--0--0--3--8--8--0--0--0--3--7--7--0--3--|-0--3--0--0--0--3--8--8--0--0--0--3--7--7--0--3--|


F#|-------------------------------------------------|-------------------------------------------------|
C#|-------------------------------------------------|-------------------------------------------------|
G#|-------------------------------------------------|-------------------------------------------------|
C#|-0--3--0--0--0--3--8--8--0--0--0--3--7--7--0--3--|-0--3--0--0--0--3--8--8--0--0--0--3--7--7--0--3--|


F#|-----------------------------------------------|---------------------------------------|
C#|-----------------------------------------------|---------------------------------------|
G#|-----------------------------------------------|---------------------------------------|
C#|-0--3--0--0--0--3--8--8--0--0--0--3--3------3--|-----8---8--8--8--8--8----8--8--8--7---|


F#|-----------------------------------------|-------------------------------------------|
C#|-----------------------------------------|-------------------------------------------|
G#|-----------------------------------------|-------------------------------------------|
C#|-7--7--0---0--0--0--0--0----0--0--0--0---|-0--0--3---3--3--3--3--3----3--3--3--5--5--|


F#|-----------------------------------------|-----------------------------------------|
C#|-----------------------------------------|-----------------------------------------|
G#|-----------5--5--------------------------|-----------------------------------------|
C#|-5--5--0---------0--0--0----0--0--0--0---|-0--0--8---8--8--8--8--8----8--8--8--7---|


F#|-------------------------------------------|-------------------------------------------|
C#|-------------------------------------------|-------------------------------------------|
G#|----------------------------5--5--5--3--3--|-3--3--------------------------------------|
C#|-7--7--0---0--0--0--0--0-------------------|-------5---5--5--5--5--5---5--5--5--5--5---|


F#|-----------------------------------------|---------------------------------------|
C#|-----------------------------------------|---------------------------------------|
G#|-----------------------------------------|---------------------------------------|
C#|-5--7--7----7--7--7--7---7--7--7--7--7---|-7---8---8--8--8--8--8----8--8--8--7---|


F#|-----------------------------------------|-------------------------------------------|
C#|-----------------------------------------|-------------------------------------------|
G#|-----------------------------------------|-------------------------------------------|
C#|-7--7--0---0--0--0--0--0----0--0--0--0---|-0--0--3---3--3--3--3--3----3--3--3--5--5--|


F#|-----------------------------------------|-----------------------------------------|
C#|-----------------------------------------|-----------------------------------------|
G#|-----------5--5--------------------------|-----------------------------------------|
C#|-5--5--0---------0--0--0----0--0--0--0---|-0--0--8---8--8--8--8--8----8--8--8--7---|


F#|-------------------------------------------|-------------------------------------------|
C#|-------------------------------------------|-------------------------------------------|
G#|----------------------------5--5--5--3--3--|-3--3--------------------------------------|
C#|-7--7--0---0--0--0--0--0-------------------|-------5---5--5--5--5--5---5--5--5--5--5---|


F#|-----------------------------------------|-----------------------------------------|
C#|-----------------------------------------|-----------------------------------------|
G#|-----------------------------------------|-----------------------------------------|
C#|-5--7--7----7--7--7--7---7--7--7--7--7---|-7---0---0--3--8---0--0--0--3--7---0--3--|


F#|-------------------------------------------|-------------------------------------------|
C#|-------------------------------------------|-------------------------------------------|
G#|-------------------------------------------|-------------------------------------------|
C#|-0--3--0---0--3--8---0--0--0--3--7---0--3--|----3--0---0--3--8---0--0--0--3--7---0--3--|


F#|-------------------------------------------|-------------------------------------------|
C#|-------------------------------------------|-------------------------------------------|
G#|-------------------------------------------|-------------------------------------------|
C#|-0--3--0---0--3--8---0--0--0--3--7---0--3--|----3--0---0--3--8---0--0--0--3--7---0--3--|


F#|-------------------------------------------|-------------------------------------------|
C#|-------------------------------------------|-------------------------------------------|
G#|-------------------------------------------|-------------------------------------------|
C#|-0--3--0---0--3--8---0--0--0--3--7---0--3--|----3--0---0--3--8---0--0--0--3--7---0--3--|


F#|-------------------------------------------|----------------|
C#|-------------------------------------------|----------------|
G#|-------------------------------------------|----------------|
C#|-0--3--0---0--3--8---0--0--0--3--7---0--3--|----------------|





Track 6: Drums

F#|--------|--------|--------|--------|-----------16------------16--------|-----------16------------16--------|
C#|--------|--------|--------|--------|-----------------------------------|-----------------------------------|
G#|--------|--------|--------|--------|-----------------------------------|-----------------------------------|
C#|--------|--------|--------|--------|-20--20-20------20---20-----20--20-|-20--20-20------20---20-----20--20-|


F#|-----------16------------16--------|-----------16-------16-------16-------16-|-----------16------------16--------|
C#|-----------------------------------|-----------------------------------------|-----------------------------------|
G#|-----------------------------------|-----------------------------------------|-----------------------------------|
C#|-20--20-20------20---20-----20--20-|-20--20-20------20-----20-20----20-20----|-20--20-20------20---20-----20--20-|


F#|-----------16------------16--------|-----------16------------16--------|-----------16-------16-------16----16-16-|
C#|-----------------------------------|-----------------------------------|-----------------------------------------|
G#|-----------------------------------|-----------------------------------|-----------------------------------------|
C#|-20--20-20------20---20-----20--20-|-20--20-20------20---20-----20--20-|-20--20-20------20-----20-20----20-------|


F#|-----------16----------16--------16--|-----------16-------16-----------16--|-----------16--------16------------16--|
C#|-------------------------------------|-------------------------------------|---------------------------------------|
G#|-------------------------------------|-------------------------------------|---------------------------------------|
C#|-20--20-20------20--20-----20-20-----|-20--20-20------20-----20--20-20-----|----20--20-----20-20-----20--20-20-----|


F#|--------16-16-16-----------16----------|-16--------16------------16-------16-|-----------16----------16--------16--|
C#|---------------------------------------|-------------------------------------|-------------------------------------|
G#|---------------------------------------|-------------------------------------|-------------------------------------|
C#|----20-----------20--20-20------20--20-|-----20-20-----20--20-20------20-----|-20--20-20------20--20-----20-20-----|


F#|-----------16-------16-16-16---------|-16--------------16--------------|-16--------------16--------------|
C#|-------------------------------------|---------------------------------|---------------------------------|
G#|-------------------------------------|---------------------------------|---------------------------------|
C#|-20--20-20------20-----------20---20-|-----20---20--20-----20--20---20-|-----20---20--20-----20--20---20-|


F#|-16--------------16--------------|-16---------16-16-16---------------------|-16--------------16--------------|
C#|---------------------------------|---------------------19-19---------------|---------------------------------|
G#|---------------------------------|---------------------------17-17---------|---------------------------------|
C#|-----20---20--20-----20--20---20-|-----20--20----------------------20---20-|-----20---20--20-----20--20---20-|


F#|-16---------16-----16--------16--------|-16--------16--------16--------16--------|
C#|---------------------------------------|-----------------------------------------|
G#|---------------------------------------|-----------------------------------------|
C#|-----20--20-----20----20--20-----20-20-|----20--20-----20-20----20--20-----20-20-|


F#|-16--------16--16-16-16-16-16-16-----------|-16----------16--------16------------|
C#|-------------------------------------------|-------------------------------------|
G#|-------------------------------------------|-------------------------------------|
C#|----20--20-----------------------20--20-20-|------20--20-----20-20-----20--20-20-|


F#|-16-------16-----------16----------|-16--------16------------16-------16-|-16-16-----------16----------16--------|
C#|-----------------------------------|-------------------------------------|---------------------------------------|
G#|-----------------------------------|-------------------------------------|---------------------------------------|
C#|------20-----20--20-20------20--20-|-----20-20-----20--20-20------20-----|-------20--20-20------20--20-----20-20-|


F#|-16------------16-------16-----------|-16----------16--------16------------|-16-------16-16-16-----------16------|
C#|-------------------------------------|-------------------------------------|-------------------------------------|
G#|-------------------------------------|-------------------------------------|-------------------------------------|
C#|-----20--20-20------20-----20--20-20-|------20--20-----20-20-----20--20-20-|------20-----------20--20-20------20-|


F#|-------16--------16------------16------|----16-----------16----------16--------|
C#|---------------------------------------|---------------------------------------|
G#|---------------------------------------|---------------------------------------|
C#|----20-----20-20-----20--20-20------20-|-------20--20-20------20--20-----20-20-|


F#|-16------------16---------16-------|-------------16--------------16--|-------------16--------------16--|
C#|-----------------------------------|---------------------------------|---------------------------------|
G#|-----------------------------------|---------------------------------|---------------------------------|
C#|-----20--20-20------20-20----------|-----20---20-----20---20--20-----|-20--20---20-----20---20--20-----|


F#|-------------16--------------16--|-------------16------------------------|---------------16--------------16--|
C#|---------------------------------|------------------------19-19-19-17-17-|-----------------------------------|
G#|---------------------------------|---------------------------------------|-17-17-----------------------------|
C#|-20--20---20-----20---20--20-----|-20--20---20-----20--20----------------|-------20---20-----20---20--20-----|


F#|-------------16---------16-----16----|-------16--------16--------16--------16----|
C#|-------------------------------------|-------------------------------------------|
G#|-------------------------------------|-------------------------------------------|
C#|-20--20---20-----20--20-----20----20-|----20-----20-20----20--20-----20-20----20-|


F#|-------16--------16--------16--------16----|-16----------16------------16--|-------------16------------16--|
C#|-------------------------------------------|-------------------------------|-------------------------------|
G#|-------------------------------------------|-------------------------------|-------------------------------|
C#|----20-----20-20----20--20-----20-20----20-|-----20---20-----20---20-------|-----20---20-----20---20-------|


F#|-------------16------------16--|---------16-----16-----16-----16-----|-------------16--------------16--|
C#|-------------------------------|-------------------------------------|---------------------------------|
G#|-------------------------------|-------------------------------------|---------------------------------|
C#|-----20---20-----20---20-------|-----20-----20-----20-----20-----20--|-20--20---20-----20---20--20-----|


F#|-------------16--------------16--|-------------16--------------16--|-------------16--------------16----|
C#|---------------------------------|---------------------------------|-----------------------------------|
G#|---------------------------------|---------------------------------|-----------------------------------|
C#|-20--20---20-----20---20--20-----|-20--20---20-----20---20--20-----|-20--20---20-----20---20--20----20-|


F#|-16--------------16----------------------16----|-------------------16----------------------16------|
C#|-----------------------------------------------|---------------------------------------------------|
G#|-----------------------------------------------|---------------------------------------------------|
C#|-----20-20-20-20-20-20-20-20-20-20-20-20-20-20-|-20-20-20-20-20-20-20-20-20-20-20-20-20-20-20202020|


F#|---------------------16----------------------16----|-------------------16----------------------16------|
C#|---------------------------------------------------|---------------------------------------------------|
G#|---------------------------------------------------|---------------------------------------------------|
C#|-2020202020-20-20-20-20-20-20-20-20-20-20-20-20-20-|-20-20-20-20-20-20-20-20-20-20-20-20-20-20-20202020|


F#|---------------------16----------------------16----|-------------------16----------------------16------|
C#|---------------------------------------------------|---------------------------------------------------|
G#|---------------------------------------------------|---------------------------------------------------|
C#|-2020202020-20-20-20-20-20-20-20-20-20-20-20-20-20-|-20-20-20-20-20-20-20-20-20-20-20-20-20-20-20202020|


F#|---------------------16----------------------16----|-------------------16--------------------16----|
C#|---------------------------------------------------|-----------------------------------------------|
G#|---------------------------------------------------|-----------------------------------------------|
C#|-2020202020-20-20-20-20-20-20-20-20-20-20-20-20-20-|-20-20-20-20-20-20-20-20-20-20-20-20-20-----20-|


F#|-------------16--------------16--|-------------16--------------16--|-------------16--------------16--|
C#|---------------------------------|---------------------------------|---------------------------------|
G#|---------------------------------|---------------------------------|---------------------------------|
C#|-----20---20-----20---20--20-----|-20--20---20-----20---20--20-----|-20--20---20-----20---20--20-----|


F#|-------------16------------------------|---------------16--------------16--|-------------16---------16-----16----|
C#|------------------------19-19-19-17-17-|-----------------------------------|-------------------------------------|
G#|---------------------------------------|-17-17-----------------------------|-------------------------------------|
C#|-20--20---20-----20--20----------------|-------20---20-----20---20--20-----|-20--20---20-----20--20-----20----20-|


F#|-------16--------16--------16--------16----|-------16--------16--------16--------16----|
C#|-------------------------------------------|-------------------------------------------|
G#|-------------------------------------------|-------------------------------------------|
C#|----20-----20-20----20--20-----20-20----20-|----20-----20-20----20--20-----20-20----20-|


F#|-16----------16--------------16--|-------------16--------------16--|-------------16--------------16--|
C#|---------------------------------|---------------------------------|---------------------------------|
G#|---------------------------------|---------------------------------|---------------------------------|
C#|-----20---20-----20---20--20-----|-20--20---20-----20---20--20-----|-20--20---20-----20---20--20-----|


F#|-------------16--------------------------|---------------16--------------16--|-------------16---------16-----16----|
C#|---------------------17-171719-191917-17-|-----------------------------------|-------------------------------------|
G#|-----------------------------------------|-17-17-----------------------------|-------------------------------------|
C#|-20--20---20-----20--20------------------|-------20---20-----20---20--20-----|-20--20---20-----20--20-----20----20-|


F#|-------16--------16--------16--------16----|-------16--------16--------16--16-16-16-16-|
C#|-------------------------------------------|-------------------------------------------|
G#|-------------------------------------------|-------------------------------------------|
C#|----20-----20-20----20--20-----20-20----20-|----20-----20-20----20--20-----------------|


F#|-16-16-----------16------------16----|-----------------16------------16----|-----------------16------------16----|
C#|-------------------------------------|-------------------------------------|-------------------------------------|
G#|-------------------------------------|-------------------------------------|-------------------------------------|
C#|-------20--20-20------20---20-----20-|----20-20--20-20------20---20-----20-|----20-20--20-20------20---20-----20-|


F#|-----------------16------------16----|-----------------16------------16----|-----------------16------------16----|
C#|-------------------------------------|-------------------------------------|-------------------------------------|
G#|-------------------------------------|-------------------------------------|-------------------------------------|
C#|----20-20--20-20------20---20-----20-|----20-20--20-20------20---20-----20-|----20-20--20-20------20---20-----20-|


F#|-----------------16------------16----|-----------------16--------------16-------16-|
C#|-------------------------------------|---------------------------------------------|
G#|-------------------------------------|---------------------------------------------|
C#|----20-20--20-20------20---20-----20-|----20-20--20-20-----20-20-20-20----20-20----|


F#|--------|
C#|--------|
G#|--------|
C#|--------|