Menu:

 

Search:

 

die aerzte - ok:

 



Title: OK
Artist: 
Album: Endlich Urlaub!
Author: Farin Urlaub


Track 1: Rythmn

E|--------------------------------------|--------------------------------------|--------------------------------------|
B|--------------------------------------|--------------------------------------|--------------------------------------|
G|--------------------------------------|--------------------------------------|--------------------------------------|
D|-----------------5--5--5--5--5--------|-----------------4--4--4--4--4--------|-----------------5--5--5--5--5--------|
A|-2--2--2--2--2---3--3--3--3--3--------|-5--5--5--5--5---2--2--2--2--2--------|-2--2--2--2--2---3--3--3--3--3--------|
E|-0--0--0--0--0------------------------|-3--3--3--3--3------------------------|-0--0--0--0--0------------------------|


E|---------------------------------------------|--------------------------------------|
B|---------------------------------------------|--------------------------------------|
G|---------------------------------4--5--4--2--|--------------------------------------|
D|-----------------4--4--4--4--4---------------|-----------------5--5--5--5--5--------|
A|-5--5--5--5--5---2--2--2--2--2---2--3--2--0--|-2--2--2--2--2---3--3--3--3--3--------|
E|-3--3--3--3--3-------------------------------|-0--0--0--0--0------------------------|


E|--------------------------------------|--------------------------------------|----------------|
B|--------------------------------------|--------------------------------------|----------------|
G|--------------------------------------|--------------------------------------|----------------|
D|-----------------4--4--4--4--4--------|-----------------5--5--5--5--5--------|----------------|
A|-5--5--5--5--5---2--2--2--2--2--------|-2--2--2--2--2---3--3--3--3--3--------|-5--------------|
E|-3--3--3--3--3------------------------|-0--0--0--0--0------------------------|-3--------------|


E|--------|--------|--------|--------|--------|--------|--------|--------|--------------------------------------|
B|--------|--------|--------|--------|--------|--------|--------|--------|--------------------------------------|
G|--------|--------|--------|--------|--------|--------|--------|--------|--------------------------------------|
D|--------|--------|--------|--------|--------|--------|--------|--------|-----------------5--5--5--5--5--------|
A|--------|--------|--------|--------|--------|--------|--------|--------|-2--2--2--2--2---3--3--3--3--3--------|
E|--------|--------|--------|--------|--------|--------|--------|--------|-0--0--0--0--0------------------------|


E|--------------------------------------|--------------------------------------|--------------------------------------|
B|--------------------------------------|--------------------------------------|--------------------------------------|
G|--------------------------------------|--------------------------------------|--------------------------------------|
D|-----------------4--4--4--4--4--------|-----------------5--5--5--5--5--------|-----------------4--4--4--4--4--------|
A|-5--5--5--5--5---2--2--2--2--2--------|-2--2--2--2--2---3--3--3--3--3--------|-5--5--5--5--5---2--2--2--2--2--------|
E|-3--3--3--3--3------------------------|-0--0--0--0--0------------------------|-3--3--3--3--3------------------------|


E|--------------------------------------|--------------------------------------|--------------------------------------|
B|--------------------------------------|--------------------------------------|--------------------------------------|
G|--------------------------------------|--------------------------------------|--------------------------------------|
D|-----------------5--5--5--5--5--------|-----------------4--4--4--4--4--------|-----------------5--5--5--5--5--------|
A|-2--2--2--2--2---3--3--3--3--3--------|-5--5--5--5--5---2--2--2--2--2--------|-2--2--2--2--2---3--3--3--3--3--------|
E|-0--0--0--0--0------------------------|-3--3--3--3--3------------------------|-0--0--0--0--0------------------------|


E|---------------------------------------|--------|--------|--------|--------|--------|
B|---------------------------------------|--------|--------|--------|--------|--------|
G|---------------------------------------|--------|--------|--------|--------|--------|
D|-----------------4---4---4--4--4-------|--------|--------|--------|--------|--------|
A|-5--5--5--5--5---2---2---2--2--2-------|--------|--------|--------|--------|--------|
E|-3--3--3--3--3-------------------------|--------|--------|--------|--------|--------|


E|--------|--------|--------|---------------------------------|-----------------------------------|
B|--------|--------|--------|---------------------------------|-----------------------------------|
G|--------|--------|--------|-9---9---9---9-------7---7-------|-5---5---5---5---------------------|
D|--------|--------|--------|-9---9---9---9-------7---7-------|-5---5---5---5---------------------|
A|--------|--------|--------|-7---7---7---7-------5---5-------|-3---3---3---3-------3---3--5--3---|
E|--------|--------|--------|---------------------------------|-----------------------------------|


E|---------------------------------|-----------------------------------|---------------------------------7-------|
B|---------------------------------|-----------------------------------|-------------------------------------5---|
G|-9---9---9---9-------7---7-------|-5---5---5---5---------------------|-----------------------------------------|
D|-9---9---9---9-------7---7-------|-5---5---5---5---------------------|-----------------5--5--5--5--5-----------|
A|-7---7---7---7-------5---5-------|-3---3---3---3-------3---3--5--3---|-2--2--2--2--2---3--3--3--3--3-----------|
E|---------------------------------|-----------------------------------|-0--0--0--0--0---------------------------|


E|-------------------------------------7---|---------------------------------7-------|
B|---------------------------------5-------|-------------------------------------5---|
G|-----------------------------------------|-----------------------------------------|
D|-----------------4--4--4--4--4-----------|-----------------5--5--5--5--5-----------|
A|-5--5--5--5--5---2--2--2--2--2-----------|-2--2--2--2--2---3--3--3--3--3-----------|
E|-3--3--3--3--3---------------------------|-0--0--0--0--0---------------------------|


E|-------------|--------|--------|--------|--------|--------|--------|--------|--------|
B|-------------|--------|--------|--------|--------|--------|--------|--------|--------|
G|-------------|--------|--------|--------|--------|--------|--------|--------|--------|
D|-------------|--------|--------|--------|--------|--------|--------|--------|--------|
A|-5-----------|--------|--------|--------|--------|--------|--------|--------|--------|
E|-3-----------|--------|--------|--------|--------|--------|--------|--------|--------|


E|--------------------------------------|--------------------------------------|--------------------------------------|
B|--------------------------------------|--------------------------------------|--------------------------------------|
G|--------------------------------------|--------------------------------------|--------------------------------------|
D|-----------------5--5--5--5--5--------|-----------------4--4--4--4--4--------|-----------------5--5--5--5--5--------|
A|-2--2--2--2--2---3--3--3--3--3--------|-5--5--5--5--5---2--2--2--2--2--------|-2--2--2--2--2---3--3--3--3--3--------|
E|-0--0--0--0--0------------------------|-3--3--3--3--3------------------------|-0--0--0--0--0------------------------|


E|--------------------------------------|--------------------------------------|--------------------------------------|
B|--------------------------------------|--------------------------------------|--------------------------------------|
G|--------------------------------------|--------------------------------------|--------------------------------------|
D|-----------------4--4--4--4--4--------|-----------------5--5--5--5--5--------|-----------------4--4--4--4--4--------|
A|-5--5--5--5--5---2--2--2--2--2--------|-2--2--2--2--2---3--3--3--3--3--------|-5--5--5--5--5---2--2--2--2--2--------|
E|-3--3--3--3--3------------------------|-0--0--0--0--0------------------------|-3--3--3--3--3------------------------|


E|--------------------------------------|---------------------------------------|--------|
B|--------------------------------------|---------------------------------------|--------|
G|--------------------------------------|---------------------------------------|--------|
D|-----------------5--5--5--5--5--------|-----------------4---4---4--4--4-------|--------|
A|-2--2--2--2--2---3--3--3--3--3--------|-5--5--5--5--5---2---2---2--2--2-------|--------|
E|-0--0--0--0--0------------------------|-3--3--3--3--3-------------------------|--------|


E|--------|--------|--------|--------|--------|--------|--------|--------------------------------|
B|--------|--------|--------|--------|--------|--------|--------|--------------------------------|
G|--------|--------|--------|--------|--------|--------|--------|-9----9--9---9------------------|
D|--------|--------|--------|--------|--------|--------|--------|-9----9--9---9---7---7---7---3--|
A|--------|--------|--------|--------|--------|--------|--------|-7----7--7---7---7---7---7---3--|
E|--------|--------|--------|--------|--------|--------|--------|-----------------5---5---5---1--|


E|---------------------------------------------|--------------------------------|---------------------------------------------|
B|---------------------------------------------|--------------------------------|---------------------------------------------|
G|---------------------------------------------|-9----9--9---9------------------|---------------------------------------------|
D|-3--3--3--3---3--3--3--3--3---3--3--3--3--3--|-9----9--9---9---7---7---7---3--|-3--3--3--3---3--3--3--3--3---3--3--3--3--3--|
A|-3--3--3--3---3--3--3--3--3---3--3--3--3--3--|-7----7--7---7---7---7---7---3--|-3--3--3--3---3--3--3--3--3---3--3--3--3--3--|
E|-1--1--1--1---1--1--1--1--1---1--1--1--1--1--|-----------------5---5---5---1--|-1--1--1--1---1--1--1--1--1---1--1--1--1--1--|


E|--------------------------------|-----------------------------------------|---------------------------------------|
B|--------------------------------|-----------------------------------------|---------------------------------------|
G|-9----9--9---9------------------|-----------------------------------------|---------------------------------------|
D|-9----9--9---9---7---7---7---3--|-3--3--3--3---3--3--3--3-----------------|-7---7--7--7--7---7---7--7--7---7---7--|
A|-7----7--7---7---7---7---7---3--|-3--3--3--3---3--3--3--3---3---3--2------|-7---7--7--7--7---7---7--7--7---7---7--|
E|-----------------5---5---5---1--|-1--1--1--1---1--1--1--1-------------3---|-5---5--5--5--5---5---5--5--5---5---5--|


E|---------------------------|---------------------------------|------------|-------------------------------|
B|---------------------------|---------------------------------|------------|-------------------------------|
G|-----------------7----5----|---------0---------------0-------|------------|-9----9----9--9--9--9---9---9--|
D|-5---5---5---5---7----5----|-----2---------------0-----------|------------|-9----9----9--9--9--9---9---9--|
A|-5---5---5---5---5----3----|-3-----------3---2---------------|-0----------|-7----7----7--7--7--7---7---7--|
E|-3---3---3---3-------------|-----------------------------3---|------------|-------------------------------|


E|-------------------------------|-------------------------------|---------------------------------------|
B|-------------------------------|-------------------------------|---------------------------------------|
G|-7----7----7--7--7--7---7---7--|-5----5----5--5--5--5---5---5--|-5--5--5--5---5--5--5--5---------------|
D|-7----7----7--7--7--7---7---7--|-5----5----5--5--5--5---5---5--|-5--5--5--5---5--5--5--5---------------|
A|-5----5----5--5--5--5---5---5--|-3----3----3--3--3--3---3---3--|-3--3--3--3---3--3--3--3---2-----------|
E|-------------------------------|-------------------------------|-------------------------------3---2---|


E|-------------------------------|-------------------------------|-------------------------------|
B|-------------------------------|-------------------------------|-------------------------------|
G|-9----9----9--9--9--9---9---9--|-7----7----7--7--7--7---7---7--|-5----5----5--5--5--5---5---5--|
D|-9----9----9--9--9--9---9---9--|-7----7----7--7--7--7---7---7--|-5----5----5--5--5--5---5---5--|
A|-7----7----7--7--7--7---7---7--|-5----5----5--5--5--5---5---5--|-3----3----3--3--3--3---3---3--|
E|-------------------------------|-------------------------------|-------------------------------|


E|---------------------------------------|-------------------------------|-------------------------------|
B|---------------------------------------|-------------------------------|-------------------------------|
G|-5--5--5--5---5--5--5--5---------------|-9----9----9--9--9--9---9---9--|-7----7----7--7--7--7---7---7--|
D|-5--5--5--5---5--5--5--5---------------|-9----9----9--9--9--9---9---9--|-7----7----7--7--7--7---7---7--|
A|-3--3--3--3---3--3--3--3---2-----------|-7----7----7--7--7--7---7---7--|-5----5----5--5--5--5---5---5--|
E|-------------------------------3---2---|-------------------------------|-------------------------------|


E|-------------------------------|---------------------------------------|-------------------------------|
B|-------------------------------|---------------------------------------|-------------------------------|
G|-5----5----5--5--5--5---5---5--|-5--5--5--5---5--5--5--5---------------|-9----9----9--9--9--9---9---9--|
D|-5----5----5--5--5--5---5---5--|-5--5--5--5---5--5--5--5---------------|-9----9----9--9--9--9---9---9--|
A|-3----3----3--3--3--3---3---3--|-3--3--3--3---3--3--3--3---2-----------|-7----7----7--7--7--7---7---7--|
E|-------------------------------|-------------------------------3---2---|-------------------------------|


E|-------------------------------|-------------------------------|---------------------------------------|
B|-------------------------------|-------------------------------|---------------------------------------|
G|-7----7----7--7--7--7---7---7--|-5----5----5--5--5--5---5---5--|-5--5--5--5---5--5--5--5---------------|
D|-7----7----7--7--7--7---7---7--|-5----5----5--5--5--5---5---5--|-5--5--5--5---5--5--5--5---------------|
A|-5----5----5--5--5--5---5---5--|-3----3----3--3--3--3---3---3--|-3--3--3--3---3--3--3--3---2-----------|
E|-------------------------------|-------------------------------|-------------------------------3---2---|


E|--------|--------|--------|--------|--------|--------|--------|--------|--------|
B|--------|--------|--------|--------|--------|--------|--------|--------|--------|
G|--------|--------|--------|--------|--------|--------|--------|--------|--------|
D|--------|--------|--------|--------|--------|--------|--------|--------|--------|
A|--------|--------|--------|--------|--------|--------|--------|--------|--------|
E|--------|--------|--------|--------|--------|--------|--------|--------|--------|


E|--------|--------|
B|--------|--------|
G|--------|--------|
D|--------|--------|
A|--------|--------|
E|--------|--------|





Track 2: Bass

G|--------|--------|--------|--------|--------------------------------------|--------------------------------------|
D|--------|--------|--------|--------|--------------------------------------|--------------------------------------|
A|--------|--------|--------|--------|-----------------3--3--3--3--3--------|-----------------2--2--2--2--2--------|
E|--------|--------|--------|--------|-0--0--0--0--0------------------------|-3--3--3--3--3------------------------|


G|--------------------------------------|----------------|--------------------------------------|
D|--------------------------------------|----------------|--------------------------------------|
A|-----------------3--3--3--3--3--------|----------------|-----------------3--3--3--3--3--------|
E|-0--0--0--0--0------------------------|-3--------------|-0--0--0--0--0------------------------|


G|--------------------------------------|--------------------------------------|--------------------------------------|
D|--------------------------------------|--------------------------------------|--------------------------------------|
A|-----------------2--2--2--2--2--------|-----------------3--3--3--3--3--------|-----------------2--2--2--2--2--------|
E|-3--3--3--3--3------------------------|-0--0--0--0--0------------------------|-3--3--3--3--3------------------------|


G|--------------------------------------|--------------------------------------|--------------------------------------|
D|--------------------------------------|--------------------------------------|--------------------------------------|
A|-----------------3--3--3--3--3--------|-----------------2--2--2--2--2--------|-----------------3--3--3--3--3--------|
E|-0--0--0--0--0------------------------|-3--3--3--3--3------------------------|-0--0--0--0--0------------------------|


G|--------------------------------------|--------|--------|--------|--------|--------|
D|--------------------------------------|--------|--------|--------|--------|--------|
A|-----------------2--2--2--2--2--------|--------|--------|--------|--------|--------|
E|-3--3--3--3--3------------------------|--------|--------|--------|--------|--------|


G|--------|--------|--------|--------|--------|--------|--------|--------|--------|
D|--------|--------|--------|--------|--------|--------|--------|--------|--------|
A|--------|--------|--------|--------|--------|--------|--------|--------|--------|
E|--------|--------|--------|--------|--------|--------|--------|--------|--------|


G|--------|--------|---------------------------------|-----------------------------------|
D|--------|--------|---------------------------------|-----------------------------------|
A|--------|--------|-7---7---7---7-------5---5-------|-3---3---3---3-------3---3--5--3---|
E|--------|--------|---------------------------------|-----------------------------------|


G|---------------------------------|-----------------------------------|--------------------------------------|
D|---------------------------------|-----------------------------------|--------------------------------------|
A|-7---7---7---7-------5---5-------|-3---3---3---3-------3---3--5--3---|-----------------3--3--3--3--3--------|
E|---------------------------------|-----------------------------------|-0--0--0--0--0------------------------|


G|--------------------------------------|--------------------------------------|---------------------|
D|--------------------------------------|--------------------------------------|---------------------|
A|-----------------2--2--2--2--2--------|-----------------3--3--3--3--3--------|---------------------|
E|-3--3--3--3--3------------------------|-0--0--0--0--0------------------------|-3-------------------|


G|-------------------------------------|-------------------------------------|-------------------------------------|
D|-------------------------------------|-------------------------------------|-------------------------------------|
A|-----------------3---3---3---3---3---|-----------------2---2---2---2---2---|-----------------3---3---3---3---3---|
E|-0--0--0--0--0-----------------------|-3--3--3--3--3-----------------------|-0--0--0--0--0-----------------------|


G|-------------------------------------|-------------------------------------|-------------------------------------|
D|-------------------------------------|-------------------------------------|-------------------------------------|
A|-----------------2---2---2---2---2---|-----------------3---3---3---3---3---|-----------------2---2---2---2---2---|
E|-3--3--3--3--3-----------------------|-0--0--0--0--0-----------------------|-3--3--3--3--3-----------------------|


G|-------------------------------------|-------------------------------------|--------------------------------------|
D|-------------------------------------|-------------------------------------|--------------------------------------|
A|-----------------3---3---3---3---3---|-----------------2---2---2---2---2---|-----------------3--3--3--3--3--------|
E|-0--0--0--0--0-----------------------|-3--3--3--3--3-----------------------|-0--0--0--0--0------------------------|


G|--------------------------------------|--------------------------------------|--------------------------------------|
D|--------------------------------------|--------------------------------------|--------------------------------------|
A|-----------------2--2--2--2--2--------|-----------------3--3--3--3--3--------|-----------------2--2--2--2--2--------|
E|-3--3--3--3--3------------------------|-0--0--0--0--0------------------------|-3--3--3--3--3------------------------|


G|--------------------------------------|--------------------------------------|--------|
D|--------------------------------------|--------------------------------------|--------|
A|-----------------3--3--3--3--3--------|-----------------2--2--2--2--2--------|--------|
E|-0--0--0--0--0------------------------|-3--3--3--3--3------------------------|--------|


G|--------|--------|--------|--------|--------|--------|--------|--------|--------|
D|--------|--------|--------|--------|--------|--------|--------|--------|--------|
A|--------|--------|--------|--------|--------|--------|--------|--------|--------|
E|--------|--------|--------|--------|--------|--------|--------|--------|--------|


G|--------------------------------|---------------------------------------------|--------------------------------|
D|--------------------------------|---------------------------------------------|--------------------------------|
A|-7----7--7---7------------------|---------------------------------------------|-7----7--7---7------------------|
E|-----------------5---5---5---1--|-1--1--1--1---1--1--1--1--1---1--1--1--1--1--|-----------------5---5---5---1--|


G|---------------------------------------------|--------|--------|--------|--------|
D|---------------------------------------------|--------|--------|--------|--------|
A|---------------------------------------------|--------|--------|--------|--------|
E|-1--1--1--1---1--1--1--1--1---1--1--1--1--1--|--------|--------|--------|--------|


G|--------|--------|--------|--------|--------|--------|--------|--------|--------|
D|--------|--------|--------|--------|--------|--------|--------|--------|--------|
A|--------|--------|--------|--------|--------|--------|--------|--------|--------|
E|--------|--------|--------|--------|--------|--------|--------|--------|--------|


G|--------|--------|--------|--------|--------|--------|--------|--------|--------|
D|--------|--------|--------|--------|--------|--------|--------|--------|--------|
A|--------|--------|--------|--------|--------|--------|--------|--------|--------|
E|--------|--------|--------|--------|--------|--------|--------|--------|--------|


G|--------|--------|--------|--------|--------|--------|--------|--------|--------|
D|--------|--------|--------|--------|--------|--------|--------|--------|--------|
A|--------|--------|--------|--------|--------|--------|--------|--------|--------|
E|--------|--------|--------|--------|--------|--------|--------|--------|--------|


G|--------|--------|
D|--------|--------|
A|--------|--------|
E|--------|--------|





Track 3: Solo

E|--------|--------|--------|--------|--------|--------|--------|--------|--------|
B|--------|--------|--------|--------|--------|--------|--------|--------|--------|
G|--------|--------|--------|--------|--------|--------|--------|--------|--------|
D|--------|--------|--------|--------|--------|--------|--------|--------|--------|
A|--------|--------|--------|--------|--------|--------|--------|--------|--------|
E|--------|--------|--------|--------|--------|--------|--------|--------|--------|


E|--------|--------|--------|--------|--------|--------|--------|--------------------------------------|
B|--------|--------|--------|--------|--------|--------|--------|--------------------------------------|
G|--------|--------|--------|--------|--------|--------|--------|-----------------3--3--3--3--3--------|
D|--------|--------|--------|--------|--------|--------|--------|-0--0--0--0--0------------------------|
A|--------|--------|--------|--------|--------|--------|--------|--------------------------------------|
E|--------|--------|--------|--------|--------|--------|--------|--------------------------------------|


E|--------------------------------------|--------------------------------------|--------------------------------------|
B|--------------------------------------|--------------------------------------|--------------------------------------|
G|-----------------2--2--2--2--2--------|-----------------3--3--3--3--3--------|-----------------2--2--2--2--2--------|
D|-3--3--3--3--3------------------------|-0--0--0--0--0------------------------|-3--3--3--3--3------------------------|
A|--------------------------------------|--------------------------------------|--------------------------------------|
E|--------------------------------------|--------------------------------------|--------------------------------------|


E|--------------------------------------|--------------------------------------|--------------------------------------|
B|--------------------------------------|--------------------------------------|--------------------------------------|
G|-----------------3--3--3--3--3--------|-----------------2--2--2--2--2--------|-----------------3--3--3--3--3--------|
D|-0--0--0--0--0------------------------|-3--3--3--3--3------------------------|-0--0--0--0--0------------------------|
A|--------------------------------------|--------------------------------------|--------------------------------------|
E|--------------------------------------|--------------------------------------|--------------------------------------|


E|---------------------------------------|--------|--------|--------|--------|--------|
B|---------------------------------------|--------|--------|--------|--------|--------|
G|-----------------2---2---2--2--2-------|--------|--------|--------|--------|--------|
D|-3--3--3--3--3-------------------------|--------|--------|--------|--------|--------|
A|---------------------------------------|--------|--------|--------|--------|--------|
E|---------------------------------------|--------|--------|--------|--------|--------|


E|--------|--------|--------|--------|--------|--------|--------|--------|--------|
B|--------|--------|--------|--------|--------|--------|--------|--------|--------|
G|--------|--------|--------|--------|--------|--------|--------|--------|--------|
D|--------|--------|--------|--------|--------|--------|--------|--------|--------|
A|--------|--------|--------|--------|--------|--------|--------|--------|--------|
E|--------|--------|--------|--------|--------|--------|--------|--------|--------|


E|--------|--------|--------|--------|--------|--------|--------|--------|--------|
B|--------|--------|--------|--------|--------|--------|--------|--------|--------|
G|--------|--------|--------|--------|--------|--------|--------|--------|--------|
D|--------|--------|--------|--------|--------|--------|--------|--------|--------|
A|--------|--------|--------|--------|--------|--------|--------|--------|--------|
E|--------|--------|--------|--------|--------|--------|--------|--------|--------|


E|--------|-0--0--2--2--3--3--2--2--0--0--2--2--3--3--2--2--|-------2--2--3--3--2--2--------2--2--3--3--2--2--|
B|--------|-------------------------------------------------|-3--3--------------------0--0--------------------|
G|--------|-------------------------------------------------|-------------------------------------------------|
D|--------|-------------------------------------------------|-------------------------------------------------|
A|--------|-------------------------------------------------|-------------------------------------------------|
E|--------|-------------------------------------------------|-------------------------------------------------|


E|-0--0--2--2--3--3--2--2--0--0--2--2--3--3--2--2--|-------2--2--3--3--2--2--------2--2--3--3--2--2--|
B|-------------------------------------------------|-3--3--------------------0--0--------------------|
G|-------------------------------------------------|-------------------------------------------------|
D|-------------------------------------------------|-------------------------------------------------|
A|-------------------------------------------------|-------------------------------------------------|
E|-------------------------------------------------|-------------------------------------------------|


E|-0--0--2--2--3--3--2--2--0--0--2--2--3--3--2--2--|-------2--2--3--3--2--2--------2--2--3--3--2--2--|
B|-------------------------------------------------|-3--3--------------------0--0--------------------|
G|-------------------------------------------------|-------------------------------------------------|
D|-------------------------------------------------|-------------------------------------------------|
A|-------------------------------------------------|-------------------------------------------------|
E|-------------------------------------------------|-------------------------------------------------|


E|--------|--------|--------|--------|--------|--------|--------|--------|--------|
B|--------|--------|--------|--------|--------|--------|--------|--------|--------|
G|--------|--------|--------|--------|--------|--------|--------|--------|--------|
D|--------|--------|--------|--------|--------|--------|--------|--------|--------|
A|--------|--------|--------|--------|--------|--------|--------|--------|--------|
E|--------|--------|--------|--------|--------|--------|--------|--------|--------|


E|--------|--------|--------|--------|--------|--------|--------|--------|--------|
B|--------|--------|--------|--------|--------|--------|--------|--------|--------|
G|--------|--------|--------|--------|--------|--------|--------|--------|--------|
D|--------|--------|--------|--------|--------|--------|--------|--------|--------|
A|--------|--------|--------|--------|--------|--------|--------|--------|--------|
E|--------|--------|--------|--------|--------|--------|--------|--------|--------|


E|--------|--------|--------|--------|--------|--------|--------|--------|--------|
B|--------|--------|--------|--------|--------|--------|--------|--------|--------|
G|--------|--------|--------|--------|--------|--------|--------|--------|--------|
D|--------|--------|--------|--------|--------|--------|--------|--------|--------|
A|--------|--------|--------|--------|--------|--------|--------|--------|--------|
E|--------|--------|--------|--------|--------|--------|--------|--------|--------|


E|--------|--------|--------|--------|--------|--------|--------|--------|--------|
B|--------|--------|--------|--------|--------|--------|--------|--------|--------|
G|--------|--------|--------|--------|--------|--------|--------|--------|--------|
D|--------|--------|--------|--------|--------|--------|--------|--------|--------|
A|--------|--------|--------|--------|--------|--------|--------|--------|--------|
E|--------|--------|--------|--------|--------|--------|--------|--------|--------|


E|--------|--------|--------|--------|--------|--------|--------|--------|--------|
B|--------|--------|--------|--------|--------|--------|--------|--------|--------|
G|--------|--------|--------|--------|--------|--------|--------|--------|--------|
D|--------|--------|--------|--------|--------|--------|--------|--------|--------|
A|--------|--------|--------|--------|--------|--------|--------|--------|--------|
E|--------|--------|--------|--------|--------|--------|--------|--------|--------|


E|--------|--------|
B|--------|--------|
G|--------|--------|
D|--------|--------|
A|--------|--------|
E|--------|--------|





Track 4: Rythmn

E|--------|--------|--------|--------|--------|--------|--------|--------|--------|
B|--------|--------|--------|--------|--------|--------|--------|--------|--------|
G|--------|--------|--------|--------|--------|--------|--------|--------|--------|
D|--------|--------|--------|--------|--------|--------|--------|--------|--------|
A|--------|--------|--------|--------|--------|--------|--------|--------|--------|
E|--------|--------|--------|--------|--------|--------|--------|--------|--------|


E|--------|--------|--------|--------|--------|--------|--------|-0--0--2--2--3--3--2--2--0--0--2--2--3--3--2--2--|
B|--------|--------|--------|--------|--------|--------|--------|-------------------------------------------------|
G|--------|--------|--------|--------|--------|--------|--------|-------------------------------------------------|
D|--------|--------|--------|--------|--------|--------|--------|-------------------------------------------------|
A|--------|--------|--------|--------|--------|--------|--------|-------------------------------------------------|
E|--------|--------|--------|--------|--------|--------|--------|-------------------------------------------------|


E|-------2--2--3--3--2--2--------2--2--3--3--2--2--|-0--0--2--2--3--3--2--2--0--0--2--2--3--3--2--2--|
B|-3--3--------------------0--0--------------------|-------------------------------------------------|
G|-------------------------------------------------|-------------------------------------------------|
D|-------------------------------------------------|-------------------------------------------------|
A|-------------------------------------------------|-------------------------------------------------|
E|-------------------------------------------------|-------------------------------------------------|


E|-------2--2--3--3--2--2--------2--2--3--3--2--2--|-0--0--2--2--3--3--2--2--0--0--2--2--3--3--2--2--|
B|-3--3--------------------0--0--------------------|-------------------------------------------------|
G|-------------------------------------------------|-------------------------------------------------|
D|-------------------------------------------------|-------------------------------------------------|
A|-------------------------------------------------|-------------------------------------------------|
E|-------------------------------------------------|-------------------------------------------------|


E|-------2--2--3--3--2--2--------2--2--3--3--2--2--|-0--0--2--2--3--3--2--2--0--0--2--2--3--3--2--2--|
B|-3--3--------------------0--0--------------------|-------------------------------------------------|
G|-------------------------------------------------|-------------------------------------------------|
D|-------------------------------------------------|-------------------------------------------------|
A|-------------------------------------------------|-------------------------------------------------|
E|-------------------------------------------------|-------------------------------------------------|


E|-------2--2--3--3--2--2--------2--2--3--3--2--2--|--------|--------|--------|--------|
B|-3--3--------------------0--0--------------------|--------|--------|--------|--------|
G|-------------------------------------------------|--------|--------|--------|--------|
D|-------------------------------------------------|--------|--------|--------|--------|
A|-------------------------------------------------|--------|--------|--------|--------|
E|-------------------------------------------------|--------|--------|--------|--------|


E|--------|--------|--------|--------|--------|--------|--------|--------|--------|
B|--------|--------|--------|--------|--------|--------|--------|--------|--------|
G|--------|--------|--------|--------|--------|--------|--------|--------|--------|
D|--------|--------|--------|--------|--------|--------|--------|--------|--------|
A|--------|--------|--------|--------|--------|--------|--------|--------|--------|
E|--------|--------|--------|--------|--------|--------|--------|--------|--------|


E|--------|--------|--------|--------|--------|--------|--------|--------|--------|
B|--------|--------|--------|--------|--------|--------|--------|--------|--------|
G|--------|--------|--------|--------|--------|--------|--------|--------|--------|
D|--------|--------|--------|--------|--------|--------|--------|--------|--------|
A|--------|--------|--------|--------|--------|--------|--------|--------|--------|
E|--------|--------|--------|--------|--------|--------|--------|--------|--------|


E|--------|--------|--------|--------|--------|--------|--------|--------|--------|
B|--------|--------|--------|--------|--------|--------|--------|--------|--------|
G|--------|--------|--------|--------|--------|--------|--------|--------|--------|
D|--------|--------|--------|--------|--------|--------|--------|--------|--------|
A|--------|--------|--------|--------|--------|--------|--------|--------|--------|
E|--------|--------|--------|--------|--------|--------|--------|--------|--------|


E|--------|--------|--------|--------|--------|--------|--------|--------|--------|
B|--------|--------|--------|--------|--------|--------|--------|--------|--------|
G|--------|--------|--------|--------|--------|--------|--------|--------|--------|
D|--------|--------|--------|--------|--------|--------|--------|--------|--------|
A|--------|--------|--------|--------|--------|--------|--------|--------|--------|
E|--------|--------|--------|--------|--------|--------|--------|--------|--------|


E|--------|--------|--------|--------|--------|--------|--------|--------|--------|
B|--------|--------|--------|--------|--------|--------|--------|--------|--------|
G|--------|--------|--------|--------|--------|--------|--------|--------|--------|
D|--------|--------|--------|--------|--------|--------|--------|--------|--------|
A|--------|--------|--------|--------|--------|--------|--------|--------|--------|
E|--------|--------|--------|--------|--------|--------|--------|--------|--------|


E|--------|--------|--------|--------|--------|--------|--------|--------|--------|
B|--------|--------|--------|--------|--------|--------|--------|--------|--------|
G|--------|--------|--------|--------|--------|--------|--------|--------|--------|
D|--------|--------|--------|--------|--------|--------|--------|--------|--------|
A|--------|--------|--------|--------|--------|--------|--------|--------|--------|
E|--------|--------|--------|--------|--------|--------|--------|--------|--------|


E|--------|--------|--------|--------|--------|--------|--------|--------|--------|
B|--------|--------|--------|--------|--------|--------|--------|--------|--------|
G|--------|--------|--------|--------|--------|--------|--------|--------|--------|
D|--------|--------|--------|--------|--------|--------|--------|--------|--------|
A|--------|--------|--------|--------|--------|--------|--------|--------|--------|
E|--------|--------|--------|--------|--------|--------|--------|--------|--------|


E|--------|--------|--------|--------|--------|--------|--------|--------|--------|
B|--------|--------|--------|--------|--------|--------|--------|--------|--------|
G|--------|--------|--------|--------|--------|--------|--------|--------|--------|
D|--------|--------|--------|--------|--------|--------|--------|--------|--------|
A|--------|--------|--------|--------|--------|--------|--------|--------|--------|
E|--------|--------|--------|--------|--------|--------|--------|--------|--------|


E|--------|
B|--------|
G|--------|
D|--------|
A|--------|
E|--------|





Track 5: Clean

E|--------|--------|--------|--------|--------|--------|--------|--------|--------|
B|--------|--------|--------|--------|--------|--------|--------|--------|--------|
G|--------|--------|--------|--------|--------|--------|--------|--------|--------|
D|--------|--------|--------|--------|--------|--------|--------|--------|--------|
A|--------|--------|--------|--------|--------|--------|--------|--------|--------|
E|--------|--------|--------|--------|--------|--------|--------|--------|--------|


E|--------|--------|--------|--------|--------|--------|--------|--------|--------|
B|--------|--------|--------|--------|--------|--------|--------|--------|--------|
G|--------|--------|--------|--------|--------|--------|--------|--------|--------|
D|--------|--------|--------|--------|--------|--------|--------|--------|--------|
A|--------|--------|--------|--------|--------|--------|--------|--------|--------|
E|--------|--------|--------|--------|--------|--------|--------|--------|--------|


E|--------|--------|--------|--------|--------|--------|---------------------------------------|
B|--------|--------|--------|--------|--------|--------|---------------------------------------|
G|--------|--------|--------|--------|--------|--------|---------------------------------------|
D|--------|--------|--------|--------|--------|--------|-5---5---5---5--5--5--4---4---4--4--5--|
A|--------|--------|--------|--------|--------|--------|---------------------------------------|
E|--------|--------|--------|--------|--------|--------|---------------------------------------|


E|----------------------------|---------------------------------------|----------------------------|
B|----------------------------|---------------------------------------|----------------------------|
G|----------------------------|---------------------------------------|----------------------------|
D|-4--2---2-----2---2--5--2---|-5---5---5---5--5--5--4---4---4--4--5--|-4--2---2-----2---2--5--2---|
A|----------------------------|---------------------------------------|----------------------------|
E|----------------------------|---------------------------------------|----------------------------|


E|---------------------------------------|----------------------------|-------------------------------------|
B|---------------------------------------|----------------------------|-------------------------------------|
G|---------------------------------------|----------------------------|-------------------------------------|
D|-5---5---5---5--5--5--4---4---4--4--5--|-4--2---2-----2---2--5--2---|-5---5---5---5--5--5--4---4---2---0--|
A|---------------------------------------|----------------------------|-------------------------------------|
E|---------------------------------------|----------------------------|-------------------------------------|


E|--------|--------|--------|--------|--------|--------|--------|--------|--------|
B|--------|--------|--------|--------|--------|--------|--------|--------|--------|
G|--------|--------|--------|--------|--------|--------|--------|--------|--------|
D|-2------|--------|--------|--------|--------|--------|--------|--------|--------|
A|--------|--------|--------|--------|--------|--------|--------|--------|--------|
E|--------|--------|--------|--------|--------|--------|--------|--------|--------|


E|--------|--------|--------|--------|--------|--------|--------|--------|--------|
B|--------|--------|--------|--------|--------|--------|--------|--------|--------|
G|--------|--------|--------|--------|--------|--------|--------|--------|--------|
D|--------|--------|--------|--------|--------|--------|--------|--------|--------|
A|--------|--------|--------|--------|--------|--------|--------|--------|--------|
E|--------|--------|--------|--------|--------|--------|--------|--------|--------|


E|--------|--------|--------|--------|--------|--------|--------|---------------------------------------|
B|--------|--------|--------|--------|--------|--------|--------|---------------------------------------|
G|--------|--------|--------|--------|--------|--------|--------|---------------------------------------|
D|--------|--------|--------|--------|--------|--------|--------|-5---5---5---5--5--5--4---4---4--4--5--|
A|--------|--------|--------|--------|--------|--------|--------|---------------------------------------|
E|--------|--------|--------|--------|--------|--------|--------|---------------------------------------|


E|----------------------------|---------------------------------------|----------------------------|
B|----------------------------|---------------------------------------|----------------------------|
G|----------------------------|---------------------------------------|----------------------------|
D|-4--2---2-----2---2--5--2---|-5---5---5---5--5--5--4---4---4--4--5--|-4--2---2-----2---2--5--2---|
A|----------------------------|---------------------------------------|----------------------------|
E|----------------------------|---------------------------------------|----------------------------|


E|---------------------------------------|----------------------------|---------------------------------------|
B|---------------------------------------|----------------------------|---------------------------------------|
G|---------------------------------------|----------------------------|---------------------------------------|
D|-5---5---5---5--5--5--4---4---4--4--5--|-4--2---2-----2---2--5--2---|-5---5---5---5--5--5--4---4---4--4--5--|
A|---------------------------------------|----------------------------|---------------------------------------|
E|---------------------------------------|----------------------------|---------------------------------------|


E|------------------|--------|--------|--------|--------|--------|--------|--------|
B|------------------|--------|--------|--------|--------|--------|--------|--------|
G|------------------|--------|--------|--------|--------|--------|--------|--------|
D|-4--2---2------2--|--------|--------|--------|--------|--------|--------|--------|
A|------------------|--------|--------|--------|--------|--------|--------|--------|
E|------------------|--------|--------|--------|--------|--------|--------|--------|


E|--------|--------|--------|--------|--------|--------|--------|--------|--------|
B|--------|--------|--------|--------|--------|--------|--------|--------|--------|
G|--------|--------|--------|--------|--------|--------|--------|--------|--------|
D|--------|--------|--------|--------|--------|--------|--------|--------|--------|
A|--------|--------|--------|--------|--------|--------|--------|--------|--------|
E|--------|--------|--------|--------|--------|--------|--------|--------|--------|


E|--------|--------|--------|--------|--------|--------|--------|--------|--------|
B|--------|--------|--------|--------|--------|--------|--------|--------|--------|
G|--------|--------|--------|--------|--------|--------|--------|--------|--------|
D|--------|--------|--------|--------|--------|--------|--------|--------|--------|
A|--------|--------|--------|--------|--------|--------|--------|--------|--------|
E|--------|--------|--------|--------|--------|--------|--------|--------|--------|


E|--------|--------|--------|--------|--------|--------|--------|--------|--------|
B|--------|--------|--------|--------|--------|--------|--------|--------|--------|
G|--------|--------|--------|--------|--------|--------|--------|--------|--------|
D|--------|--------|--------|--------|--------|--------|--------|--------|--------|
A|--------|--------|--------|--------|--------|--------|--------|--------|--------|
E|--------|--------|--------|--------|--------|--------|--------|--------|--------|


E|--------|--------|--------|
B|--------|--------|--------|
G|--------|--------|--------|
D|--------|--------|--------|
A|--------|--------|--------|
E|--------|--------|--------|





Track 6: Rythmn

E|--------|--------|--------|--------|--------|--------|--------|--------|--------|
B|--------|--------|--------|--------|--------|--------|--------|--------|--------|
G|--------|--------|--------|--------|--------|--------|--------|--------|--------|
D|--------|--------|--------|--------|--------|--------|--------|--------|--------|
A|--------|--------|--------|--------|--------|--------|--------|--------|--------|
E|--------|--------|--------|--------|--------|--------|--------|--------|--------|


E|--------|--------|--------|--------|--------|--------|--------|--------|--------|
B|--------|--------|--------|--------|--------|--------|--------|--------|--------|
G|--------|--------|--------|--------|--------|--------|--------|--------|--------|
D|--------|--------|--------|--------|--------|--------|--------|--------|--------|
A|--------|--------|--------|--------|--------|--------|--------|--------|--------|
E|--------|--------|--------|--------|--------|--------|--------|--------|--------|


E|--------|--------|--------|--------|--------|--------|--------|--------|--------|
B|--------|--------|--------|--------|--------|--------|--------|--------|--------|
G|--------|--------|--------|--------|--------|--------|--------|--------|--------|
D|--------|--------|--------|--------|--------|--------|--------|--------|--------|
A|--------|--------|--------|--------|--------|--------|--------|--------|--------|
E|--------|--------|--------|--------|--------|--------|--------|--------|--------|


E|--------|--------|--------|--------|--------|--------|--------|--------|--------|
B|--------|--------|--------|--------|--------|--------|--------|--------|--------|
G|--------|--------|--------|--------|--------|--------|--------|--------|--------|
D|--------|--------|--------|--------|--------|--------|--------|--------|--------|
A|--------|--------|--------|--------|--------|--------|--------|--------|--------|
E|--------|--------|--------|--------|--------|--------|--------|--------|--------|


E|--------|--------|--------|--------|--------|--------|--------|--------|--------|
B|--------|--------|--------|--------|--------|--------|--------|--------|--------|
G|--------|--------|--------|--------|--------|--------|--------|--------|--------|
D|--------|--------|--------|--------|--------|--------|--------|--------|--------|
A|--------|--------|--------|--------|--------|--------|--------|--------|--------|
E|--------|--------|--------|--------|--------|--------|--------|--------|--------|


E|--------|--------|--------|--------|--------|--------|--------|--------|--------|
B|--------|--------|--------|--------|--------|--------|--------|--------|--------|
G|--------|--------|--------|--------|--------|--------|--------|--------|--------|
D|--------|--------|--------|--------|--------|--------|--------|--------|--------|
A|--------|--------|--------|--------|--------|--------|--------|--------|--------|
E|--------|--------|--------|--------|--------|--------|--------|--------|--------|


E|--------------------------------------|---------------------------------------|--------|
B|--------------------------------------|---------------------------------------|--------|
G|-----------------3--3--3--3--3--------|-----------------2---2---2--2--2-------|--------|
D|-0--0--0--0--0------------------------|-3--3--3--3--3-------------------------|--------|
A|--------------------------------------|---------------------------------------|--------|
E|--------------------------------------|---------------------------------------|--------|


E|--------|--------|--------|--------|--------|--------|--------|--------|--------|
B|--------|--------|--------|--------|--------|--------|--------|--------|--------|
G|--------|--------|--------|--------|--------|--------|--------|--------|--------|
D|--------|--------|--------|--------|--------|--------|--------|--------|--------|
A|--------|--------|--------|--------|--------|--------|--------|--------|--------|
E|--------|--------|--------|--------|--------|--------|--------|--------|--------|


E|--------|--------|--------|--------|--------|--------|--------|--------|--------|
B|--------|--------|--------|--------|--------|--------|--------|--------|--------|
G|--------|--------|--------|--------|--------|--------|--------|--------|--------|
D|--------|--------|--------|--------|--------|--------|--------|--------|--------|
A|--------|--------|--------|--------|--------|--------|--------|--------|--------|
E|--------|--------|--------|--------|--------|--------|--------|--------|--------|


E|--------|--------|--------|--------|--------|--------|--------|--------|--------|
B|--------|--------|--------|--------|--------|--------|--------|--------|--------|
G|--------|--------|--------|--------|--------|--------|--------|--------|--------|
D|--------|--------|--------|--------|--------|--------|--------|--------|--------|
A|--------|--------|--------|--------|--------|--------|--------|--------|--------|
E|--------|--------|--------|--------|--------|--------|--------|--------|--------|


E|--------|--------|--------|--------|--------|--------|--------|--------|--------|
B|--------|--------|--------|--------|--------|--------|--------|--------|--------|
G|--------|--------|--------|--------|--------|--------|--------|--------|--------|
D|--------|--------|--------|--------|--------|--------|--------|--------|--------|
A|--------|--------|--------|--------|--------|--------|--------|--------|--------|
E|--------|--------|--------|--------|--------|--------|--------|--------|--------|


E|--------|--------|--------|--------|--------|--------|--------|--------|
B|--------|--------|--------|--------|--------|--------|--------|--------|
G|--------|--------|--------|--------|--------|--------|--------|--------|
D|--------|--------|--------|--------|--------|--------|--------|--------|
A|--------|--------|--------|--------|--------|--------|--------|--------|
E|--------|--------|--------|--------|--------|--------|--------|--------|





Track 7: Rythmn

E|--------|--------|--------|--------|--------|--------|--------|--------|--------|
B|--------|--------|--------|--------|--------|--------|--------|--------|--------|
G|--------|--------|--------|--------|--------|--------|--------|--------|--------|
D|--------|--------|--------|--------|--------|--------|--------|--------|--------|
A|--------|--------|--------|--------|--------|--------|--------|--------|--------|
E|--------|--------|--------|--------|--------|--------|--------|--------|--------|


E|--------|--------|--------|--------|--------|--------|--------|--------|--------|
B|--------|--------|--------|--------|--------|--------|--------|--------|--------|
G|--------|--------|--------|--------|--------|--------|--------|--------|--------|
D|--------|--------|--------|--------|--------|--------|--------|--------|--------|
A|--------|--------|--------|--------|--------|--------|--------|--------|--------|
E|--------|--------|--------|--------|--------|--------|--------|--------|--------|


E|--------|--------|--------|--------|--------|--------|--------|--------|--------|
B|--------|--------|--------|--------|--------|--------|--------|--------|--------|
G|--------|--------|--------|--------|--------|--------|--------|--------|--------|
D|--------|--------|--------|--------|--------|--------|--------|--------|--------|
A|--------|--------|--------|--------|--------|--------|--------|--------|--------|
E|--------|--------|--------|--------|--------|--------|--------|--------|--------|


E|--------|--------|--------|--------|--------|--------|--------|--------|--------|
B|--------|--------|--------|--------|--------|--------|--------|--------|--------|
G|--------|--------|--------|--------|--------|--------|--------|--------|--------|
D|--------|--------|--------|--------|--------|--------|--------|--------|--------|
A|--------|--------|--------|--------|--------|--------|--------|--------|--------|
E|--------|--------|--------|--------|--------|--------|--------|--------|--------|


E|--------|--------|--------|--------|--------|--------|--------|--------|--------|
B|--------|--------|--------|--------|--------|--------|--------|--------|--------|
G|--------|--------|--------|--------|--------|--------|--------|--------|--------|
D|--------|--------|--------|--------|--------|--------|--------|--------|--------|
A|--------|--------|--------|--------|--------|--------|--------|--------|--------|
E|--------|--------|--------|--------|--------|--------|--------|--------|--------|


E|--------|--------|--------|--------|--------|--------|--------|--------|--------|
B|--------|--------|--------|--------|--------|--------|--------|--------|--------|
G|--------|--------|--------|--------|--------|--------|--------|--------|--------|
D|--------|--------|--------|--------|--------|--------|--------|--------|--------|
A|--------|--------|--------|--------|--------|--------|--------|--------|--------|
E|--------|--------|--------|--------|--------|--------|--------|--------|--------|


E|-0--0--2--2--3--3--2--2--0--0--2--2--3--3--2--2--|-------2--2--3--3--2--2--------2--2--3--3--2--2--|
B|-------------------------------------------------|-3--3--------------------0--0--------------------|
G|-------------------------------------------------|-------------------------------------------------|
D|-------------------------------------------------|-------------------------------------------------|
A|-------------------------------------------------|-------------------------------------------------|
E|-------------------------------------------------|-------------------------------------------------|


E|--------|--------|--------|--------|--------|--------|--------|--------|--------|
B|--------|--------|--------|--------|--------|--------|--------|--------|--------|
G|--------|--------|--------|--------|--------|--------|--------|--------|--------|
D|--------|--------|--------|--------|--------|--------|--------|--------|--------|
A|--------|--------|--------|--------|--------|--------|--------|--------|--------|
E|--------|--------|--------|--------|--------|--------|--------|--------|--------|


E|--------|--------|--------|--------|--------|--------|--------|--------|--------|
B|--------|--------|--------|--------|--------|--------|--------|--------|--------|
G|--------|--------|--------|--------|--------|--------|--------|--------|--------|
D|--------|--------|--------|--------|--------|--------|--------|--------|--------|
A|--------|--------|--------|--------|--------|--------|--------|--------|--------|
E|--------|--------|--------|--------|--------|--------|--------|--------|--------|


E|--------|--------|--------|--------|--------|--------|--------|--------|--------|
B|--------|--------|--------|--------|--------|--------|--------|--------|--------|
G|--------|--------|--------|--------|--------|--------|--------|--------|--------|
D|--------|--------|--------|--------|--------|--------|--------|--------|--------|
A|--------|--------|--------|--------|--------|--------|--------|--------|--------|
E|--------|--------|--------|--------|--------|--------|--------|--------|--------|


E|--------|--------|--------|--------|--------|--------|--------|--------|--------|
B|--------|--------|--------|--------|--------|--------|--------|--------|--------|
G|--------|--------|--------|--------|--------|--------|--------|--------|--------|
D|--------|--------|--------|--------|--------|--------|--------|--------|--------|
A|--------|--------|--------|--------|--------|--------|--------|--------|--------|
E|--------|--------|--------|--------|--------|--------|--------|--------|--------|


E|--------|--------|--------|--------|--------|--------|--------|--------|--------|
B|--------|--------|--------|--------|--------|--------|--------|--------|--------|
G|--------|--------|--------|--------|--------|--------|--------|--------|--------|
D|--------|--------|--------|--------|--------|--------|--------|--------|--------|
A|--------|--------|--------|--------|--------|--------|--------|--------|--------|
E|--------|--------|--------|--------|--------|--------|--------|--------|--------|





Track 8: Rythmn

E|--------|--------|--------|--------|--------|--------|--------|--------|--------|
B|--------|--------|--------|--------|--------|--------|--------|--------|--------|
G|--------|--------|--------|--------|--------|--------|--------|--------|--------|
D|--------|--------|--------|--------|--------|--------|--------|--------|--------|
A|--------|--------|--------|--------|--------|--------|--------|--------|--------|
E|--------|--------|--------|--------|--------|--------|--------|--------|--------|


E|--------|--------|--------|--------|--------|--------|--------|--------|--------|
B|--------|--------|--------|--------|--------|--------|--------|--------|--------|
G|--------|--------|--------|--------|--------|--------|--------|--------|--------|
D|--------|--------|--------|--------|--------|--------|--------|--------|--------|
A|--------|--------|--------|--------|--------|--------|--------|--------|--------|
E|--------|--------|--------|--------|--------|--------|--------|--------|--------|


E|--------|--------|--------|--------|--------|--------|--------|--------|--------|
B|--------|--------|--------|--------|--------|--------|--------|--------|--------|
G|--------|--------|--------|--------|--------|--------|--------|--------|--------|
D|--------|--------|--------|--------|--------|--------|--------|--------|--------|
A|--------|--------|--------|--------|--------|--------|--------|--------|--------|
E|--------|--------|--------|--------|--------|--------|--------|--------|--------|


E|--------|--------|--------|--------|--------|--------|--------|--------|--------|
B|--------|--------|--------|--------|--------|--------|--------|--------|--------|
G|--------|--------|--------|--------|--------|--------|--------|--------|--------|
D|--------|--------|--------|--------|--------|--------|--------|--------|--------|
A|--------|--------|--------|--------|--------|--------|--------|--------|--------|
E|--------|--------|--------|--------|--------|--------|--------|--------|--------|


E|--------|--------|--------|--------|--------|--------|--------|--------|--------|
B|--------|--------|--------|--------|--------|--------|--------|--------|--------|
G|--------|--------|--------|--------|--------|--------|--------|--------|--------|
D|--------|--------|--------|--------|--------|--------|--------|--------|--------|
A|--------|--------|--------|--------|--------|--------|--------|--------|--------|
E|--------|--------|--------|--------|--------|--------|--------|--------|--------|


E|--------|--------|--------|--------|--------|--------|--------|--------|--------|
B|--------|--------|--------|--------|--------|--------|--------|--------|--------|
G|--------|--------|--------|--------|--------|--------|--------|--------|--------|
D|--------|--------|--------|--------|--------|--------|--------|--------|--------|
A|--------|--------|--------|--------|--------|--------|--------|--------|--------|
E|--------|--------|--------|--------|--------|--------|--------|--------|--------|


E|--------|--------|--------|--------|--------|--------|--------|--------|--------|
B|--------|--------|--------|--------|--------|--------|--------|--------|--------|
G|--------|--------|--------|--------|--------|--------|--------|--------|--------|
D|--------|--------|--------|--------|--------|--------|--------|--------|--------|
A|--------|--------|--------|--------|--------|--------|--------|--------|--------|
E|--------|--------|--------|--------|--------|--------|--------|--------|--------|


E|--------|--------|--------|--------|--------|--------------------------------|---------------------------------|
B|--------|--------|--------|--------|--------|--------------------------------|---------------------------------|
G|--------|--------|--------|--------|--------|-7----7--7---7------------------|---------------------------------|
D|--------|--------|--------|--------|--------|-----------------5---5---5---1--|-1--1--1--1---1--1--1--1---------|
A|--------|--------|--------|--------|--------|--------------------------------|---------------------------------|
E|--------|--------|--------|--------|--------|--------------------------------|---------------------------------|


E|---------------------------------------|--------|--------|--------|--------|--------|
B|---------------------------------------|--------|--------|--------|--------|--------|
G|---------------------------------------|--------|--------|--------|--------|--------|
D|-5---5--5--5--5---5---5--5--5---5---5--|--------|--------|--------|--------|--------|
A|---------------------------------------|--------|--------|--------|--------|--------|
E|---------------------------------------|--------|--------|--------|--------|--------|


E|--------|--------|--------|--------|--------|--------|--------|--------|--------|
B|--------|--------|--------|--------|--------|--------|--------|--------|--------|
G|--------|--------|--------|--------|--------|--------|--------|--------|--------|
D|--------|--------|--------|--------|--------|--------|--------|--------|--------|
A|--------|--------|--------|--------|--------|--------|--------|--------|--------|
E|--------|--------|--------|--------|--------|--------|--------|--------|--------|


E|--------|--------|--------|--------|--------|--------|--------|--------|--------|
B|--------|--------|--------|--------|--------|--------|--------|--------|--------|
G|--------|--------|--------|--------|--------|--------|--------|--------|--------|
D|--------|--------|--------|--------|--------|--------|--------|--------|--------|
A|--------|--------|--------|--------|--------|--------|--------|--------|--------|
E|--------|--------|--------|--------|--------|--------|--------|--------|--------|


E|--------|--------|--------|--------|--------|--------|--------|
B|--------|--------|--------|--------|--------|--------|--------|
G|--------|--------|--------|--------|--------|--------|--------|
D|--------|--------|--------|--------|--------|--------|--------|
A|--------|--------|--------|--------|--------|--------|--------|
E|--------|--------|--------|--------|--------|--------|--------|





Track 9: Rythmn

E|--------|--------|--------|--------|--------|--------|--------|--------|--------|
B|--------|--------|--------|--------|--------|--------|--------|--------|--------|
G|--------|--------|--------|--------|--------|--------|--------|--------|--------|
D|--------|--------|--------|--------|--------|--------|--------|--------|--------|
A|--------|--------|--------|--------|--------|--------|--------|--------|--------|
E|--------|--------|--------|--------|--------|--------|--------|--------|--------|


E|--------|--------|--------|--------|--------|--------|--------|--------|--------|
B|--------|--------|--------|--------|--------|--------|--------|--------|--------|
G|--------|--------|--------|--------|--------|--------|--------|--------|--------|
D|--------|--------|--------|--------|--------|--------|--------|--------|--------|
A|--------|--------|--------|--------|--------|--------|--------|--------|--------|
E|--------|--------|--------|--------|--------|--------|--------|--------|--------|


E|--------|--------|--------|--------|--------|--------|--------|--------|--------|
B|--------|--------|--------|--------|--------|--------|--------|--------|--------|
G|--------|--------|--------|--------|--------|--------|--------|--------|--------|
D|--------|--------|--------|--------|--------|--------|--------|--------|--------|
A|--------|--------|--------|--------|--------|--------|--------|--------|--------|
E|--------|--------|--------|--------|--------|--------|--------|--------|--------|


E|--------|--------|--------|--------|--------|--------|--------|--------|--------|
B|--------|--------|--------|--------|--------|--------|--------|--------|--------|
G|--------|--------|--------|--------|--------|--------|--------|--------|--------|
D|--------|--------|--------|--------|--------|--------|--------|--------|--------|
A|--------|--------|--------|--------|--------|--------|--------|--------|--------|
E|--------|--------|--------|--------|--------|--------|--------|--------|--------|


E|--------|--------|--------|--------|--------|--------|--------|--------|--------|
B|--------|--------|--------|--------|--------|--------|--------|--------|--------|
G|--------|--------|--------|--------|--------|--------|--------|--------|--------|
D|--------|--------|--------|--------|--------|--------|--------|--------|--------|
A|--------|--------|--------|--------|--------|--------|--------|--------|--------|
E|--------|--------|--------|--------|--------|--------|--------|--------|--------|


E|--------|--------|--------|--------|--------|--------|--------|--------|--------|
B|--------|--------|--------|--------|--------|--------|--------|--------|--------|
G|--------|--------|--------|--------|--------|--------|--------|--------|--------|
D|--------|--------|--------|--------|--------|--------|--------|--------|--------|
A|--------|--------|--------|--------|--------|--------|--------|--------|--------|
E|--------|--------|--------|--------|--------|--------|--------|--------|--------|


E|--------|--------|--------|--------|--------|--------|--------|--------|--------|
B|--------|--------|--------|--------|--------|--------|--------|--------|--------|
G|--------|--------|--------|--------|--------|--------|--------|--------|--------|
D|--------|--------|--------|--------|--------|--------|--------|--------|--------|
A|--------|--------|--------|--------|--------|--------|--------|--------|--------|
E|--------|--------|--------|--------|--------|--------|--------|--------|--------|


E|--------|--------|--------|--------|--------|--------|--------|--------|---------------------------|
B|--------|--------|--------|--------|--------|--------|--------|--------|---------------------------|
G|--------|--------|--------|--------|--------|--------|--------|--------|-----------------5----3----|
D|--------|--------|--------|--------|--------|--------|--------|--------|-3---3---3---3-------------|
A|--------|--------|--------|--------|--------|--------|--------|--------|---------------------------|
E|--------|--------|--------|--------|--------|--------|--------|--------|---------------------------|


E|--------|--------|-------------------------------|-------------------------------|
B|--------|--------|-------------------------------|-------------------------------|
G|--------|--------|-7----7----7--7--7--7---7---7--|-5----5----5--5--5--5---5---5--|
D|--------|--------|-------------------------------|-------------------------------|
A|--------|--------|-------------------------------|-------------------------------|
E|--------|--------|-------------------------------|-------------------------------|


E|-------------------------------|---------------------------------------|-------------------------------|
B|-------------------------------|---------------------------------------|-------------------------------|
G|-3----3----3--3--3--3---3---3--|-3--3--3--3---3--3--3--3---2-----------|-7----7----7--7--7--7---7---7--|
D|-------------------------------|-------------------------------3---2---|-------------------------------|
A|-------------------------------|---------------------------------------|-------------------------------|
E|-------------------------------|---------------------------------------|-------------------------------|


E|-------------------------------|-------------------------------|---------------------------------------|
B|-------------------------------|-------------------------------|---------------------------------------|
G|-5----5----5--5--5--5---5---5--|-3----3----3--3--3--3---3---3--|-3--3--3--3---3--3--3--3---2-----------|
D|-------------------------------|-------------------------------|-------------------------------3---2---|
A|-------------------------------|-------------------------------|---------------------------------------|
E|-------------------------------|-------------------------------|---------------------------------------|


E|-------------------------------|-------------------------------|-------------------------------|
B|-------------------------------|-------------------------------|-------------------------------|
G|-7----7----7--7--7--7---7---7--|-5----5----5--5--5--5---5---5--|-3----3----3--3--3--3---3---3--|
D|-------------------------------|-------------------------------|-------------------------------|
A|-------------------------------|-------------------------------|-------------------------------|
E|-------------------------------|-------------------------------|-------------------------------|


E|---------------------------------------|-------------------------------|-------------------------------|
B|---------------------------------------|-------------------------------|-------------------------------|
G|-3--3--3--3---3--3--3--3---2-----------|-7----7----7--7--7--7---7---7--|-5----5----5--5--5--5---5---5--|
D|-------------------------------3---2---|-------------------------------|-------------------------------|
A|---------------------------------------|-------------------------------|-------------------------------|
E|---------------------------------------|-------------------------------|-------------------------------|


E|-------------------------------|---------------------------------------|--------|
B|-------------------------------|---------------------------------------|--------|
G|-3----3----3--3--3--3---3---3--|-3--3--3--3---3--3--3--3---2-----------|--------|
D|-------------------------------|-------------------------------3---2---|--------|
A|-------------------------------|---------------------------------------|--------|
E|-------------------------------|---------------------------------------|--------|


E|--------|--------|--------|--------|--------|--------|--------|--------|--------|
B|--------|--------|--------|--------|--------|--------|--------|--------|--------|
G|--------|--------|--------|--------|--------|--------|--------|--------|--------|
D|--------|--------|--------|--------|--------|--------|--------|--------|--------|
A|--------|--------|--------|--------|--------|--------|--------|--------|--------|
E|--------|--------|--------|--------|--------|--------|--------|--------|--------|


E|--------|
B|--------|
G|--------|
D|--------|
A|--------|
E|--------|





Track 10: Outro

E|--------|--------|--------|--------|--------|--------|--------|--------|--------|
B|--------|--------|--------|--------|--------|--------|--------|--------|--------|
G|--------|--------|--------|--------|--------|--------|--------|--------|--------|
D|--------|--------|--------|--------|--------|--------|--------|--------|--------|
A|--------|--------|--------|--------|--------|--------|--------|--------|--------|
E|--------|--------|--------|--------|--------|--------|--------|--------|--------|


E|--------|--------|--------|--------|--------|--------|--------|--------|--------|
B|--------|--------|--------|--------|--------|--------|--------|--------|--------|
G|--------|--------|--------|--------|--------|--------|--------|--------|--------|
D|--------|--------|--------|--------|--------|--------|--------|--------|--------|
A|--------|--------|--------|--------|--------|--------|--------|--------|--------|
E|--------|--------|--------|--------|--------|--------|--------|--------|--------|


E|--------|--------|--------|--------|--------|--------|--------|--------|--------|
B|--------|--------|--------|--------|--------|--------|--------|--------|--------|
G|--------|--------|--------|--------|--------|--------|--------|--------|--------|
D|--------|--------|--------|--------|--------|--------|--------|--------|--------|
A|--------|--------|--------|--------|--------|--------|--------|--------|--------|
E|--------|--------|--------|--------|--------|--------|--------|--------|--------|


E|--------|--------|--------|--------|--------|--------|--------|--------|--------|
B|--------|--------|--------|--------|--------|--------|--------|--------|--------|
G|--------|--------|--------|--------|--------|--------|--------|--------|--------|
D|--------|--------|--------|--------|--------|--------|--------|--------|--------|
A|--------|--------|--------|--------|--------|--------|--------|--------|--------|
E|--------|--------|--------|--------|--------|--------|--------|--------|--------|


E|--------|--------|--------|--------|--------|--------|--------|--------|--------|
B|--------|--------|--------|--------|--------|--------|--------|--------|--------|
G|--------|--------|--------|--------|--------|--------|--------|--------|--------|
D|--------|--------|--------|--------|--------|--------|--------|--------|--------|
A|--------|--------|--------|--------|--------|--------|--------|--------|--------|
E|--------|--------|--------|--------|--------|--------|--------|--------|--------|


E|--------|--------|--------|--------|--------|--------|--------|--------|--------|
B|--------|--------|--------|--------|--------|--------|--------|--------|--------|
G|--------|--------|--------|--------|--------|--------|--------|--------|--------|
D|--------|--------|--------|--------|--------|--------|--------|--------|--------|
A|--------|--------|--------|--------|--------|--------|--------|--------|--------|
E|--------|--------|--------|--------|--------|--------|--------|--------|--------|


E|--------|--------|--------|--------|--------|--------|--------|--------|--------|
B|--------|--------|--------|--------|--------|--------|--------|--------|--------|
G|--------|--------|--------|--------|--------|--------|--------|--------|--------|
D|--------|--------|--------|--------|--------|--------|--------|--------|--------|
A|--------|--------|--------|--------|--------|--------|--------|--------|--------|
E|--------|--------|--------|--------|--------|--------|--------|--------|--------|


E|--------|--------|--------|--------|--------|--------|--------|--------|--------|
B|--------|--------|--------|--------|--------|--------|--------|--------|--------|
G|--------|--------|--------|--------|--------|--------|--------|--------|--------|
D|--------|--------|--------|--------|--------|--------|--------|--------|--------|
A|--------|--------|--------|--------|--------|--------|--------|--------|--------|
E|--------|--------|--------|--------|--------|--------|--------|--------|--------|


E|--------|--------|--------|--------|--------|--------|--------|--------|--------|
B|--------|--------|--------|--------|--------|--------|--------|--------|--------|
G|--------|--------|--------|--------|--------|--------|--------|--------|--------|
D|--------|--------|--------|--------|--------|--------|--------|--------|--------|
A|--------|--------|--------|--------|--------|--------|--------|--------|--------|
E|--------|--------|--------|--------|--------|--------|--------|--------|--------|


E|--------|--------|--------|--------|--------|--------|--------|--------|--------|
B|--------|--------|--------|--------|--------|--------|--------|--------|--------|
G|--------|--------|--------|--------|--------|--------|--------|--------|--------|
D|--------|--------|--------|--------|--------|--------|--------|--------|--------|
A|--------|--------|--------|--------|--------|--------|--------|--------|--------|
E|--------|--------|--------|--------|--------|--------|--------|--------|--------|


E|---------------------------------|---------------------------------|---------------------------------|
B|---------------------------------|---------------------------------|---------------------------------|
G|-----0---0-------0---0-------0---|---------0-----------0-------0---|---------0-----------0-----------|
D|-2-----------2-----------2-------|-----4-----------4---------------|-----0-----------0-----------0---|
A|---------------------------------|-5-----------5-----------5-------|-3-----------3-----------3-------|
E|---------------------------------|---------------------------------|---------------------------------|


E|------------------------------|---------------------------------|---------------------------------|
B|-0----------------------------|---------------------------------|---------------------------------|
G|-------------2-----------0----|-----0---0-------0---0-------0---|---------0-----------0-------0---|
D|---------0-----------0--------|-2-----------2-----------2-------|-----4-----------4---------------|
A|-----3-----------3------------|---------------------------------|-5-----------5-----------5-------|
E|------------------------------|---------------------------------|---------------------------------|


E|---------------------------------|---------------------------------|---------------------------------|
B|---------------------------------|-0---------------------------0---|---------0---------------0-------|
G|---------0-----------0-----------|-------------2-----------0-------|-------------0---------------0---|
D|-----0-----------0-----------0---|---------0-----------0-----------|-----0---------------0-----------|
A|-3-----------3-----------3-------|-----3-----------3---------------|---------------------------------|
E|---------------------------------|---------------------------------|-3---------------3---------------|


E|---------------------------|-0------|
B|---------0-----------------|-0------|
G|-------------2---2----2----|-0------|
D|-----3---------------------|-2------|
A|---------------------------|-2------|
E|-1-------------------------|-0------|





Track 11: Untitled

G|--------|--------|--------|--------|--------|--------|--------|--------|--------|
D|--------|--------|--------|--------|--------|--------|--------|--------|--------|
A|--------|--------|--------|--------|--------|--------|--------|--------|--------|
E|--------|--------|--------|--------|--------|--------|--------|--------|--------|


G|--------|--------|--------|--------|--------|--------|--------|--------|--------|
D|--------|--------|--------|--------|--------|--------|--------|--------|--------|
A|--------|--------|--------|--------|--------|--------|--------|--------|--------|
E|--------|--------|--------|--------|--------|--------|--------|--------|--------|


G|--------|--------|--------|--------|--------|--------|--------|--------|--------|
D|--------|--------|--------|--------|--------|--------|--------|--------|--------|
A|--------|--------|--------|--------|--------|--------|--------|--------|--------|
E|--------|--------|--------|--------|--------|--------|--------|--------|--------|


G|--------|--------|--------|--------|--------|--------|--------|--------|--------|
D|--------|--------|--------|--------|--------|--------|--------|--------|--------|
A|--------|--------|--------|--------|--------|--------|--------|--------|--------|
E|--------|--------|--------|--------|--------|--------|--------|--------|--------|


G|--------|--------|--------|--------|--------|--------|--------|--------|--------|
D|--------|--------|--------|--------|--------|--------|--------|--------|--------|
A|--------|--------|--------|--------|--------|--------|--------|--------|--------|
E|--------|--------|--------|--------|--------|--------|--------|--------|--------|


G|--------|--------|--------|--------|--------|--------|--------|--------|--------|
D|--------|--------|--------|--------|--------|--------|--------|--------|--------|
A|--------|--------|--------|--------|--------|--------|--------|--------|--------|
E|--------|--------|--------|--------|--------|--------|--------|--------|--------|


G|--------|--------|--------|--------|--------|--------|--------|--------|--------|
D|--------|--------|--------|--------|--------|--------|--------|--------|--------|
A|--------|--------|--------|--------|--------|--------|--------|--------|--------|
E|--------|--------|--------|--------|--------|--------|--------|--------|--------|


G|--------|--------|--------|--------|--------|--------|--------|--------|--------|
D|--------|--------|--------|--------|--------|--------|--------|--------|--------|
A|--------|--------|--------|--------|--------|--------|--------|--------|--------|
E|--------|--------|--------|--------|--------|--------|--------|--------|--------|


G|--------|--------|--------|--------|--------|--------|--------|--------|--------|
D|--------|--------|--------|--------|--------|--------|--------|--------|--------|
A|--------|--------|--------|--------|--------|--------|--------|--------|--------|
E|--------|--------|--------|--------|--------|--------|--------|--------|--------|


G|--------|--------|--------|--------|--------|--------|--------|--------|--------|
D|--------|--------|--------|--------|--------|--------|--------|--------|--------|
A|--------|--------|--------|--------|--------|--------|--------|--------|--------|
E|--------|--------|--------|--------|--------|--------|--------|--------|--------|


G|--------|--------|--------|--------|--------|--------|--------|--------|--------|
D|--------|--------|--------|--------|--------|--------|--------|--------|--------|
A|--------|--------|--------|--------|--------|--------|--------|--------|--------|
E|--------|--------|--------|--------|--------|--------|--------|--------|--------|


G|--------|--------|
D|--------|--------|
A|--------|--------|
E|--------|--------|