Menu:

 

Search:

 

die aerzte - arzte theme instrumental:

 



Title: Arzte-Theme (Instrumental)
Artist: 
Album: Debil
Author: Felsenheimer/Runge/Urlaub


Track 1: Lead

E|--------|-------------|-----------------------------------------------------------------|
B|--------|-------------|-----------------------------------------------------------------|
G|--------|-------------|-----------------------------------------------------------------|
D|-0------|-------2-----|-----------------------------------------------------------------|
A|-3------|-3-----2-----|-8-8-8-8-7-7-7-7-6-6-6-6-5-5-5-5-4-4-4-4-3-3-3-3-2-2-2-2-1-1-1-1-|
E|-3------|-------0-----|-----------------------------------------------------------------|


E|-------------------------------------|-------------------------------------|-------------------------------------|
B|-------------------------------------|-------------------------------------|-------------------------------------|
G|-------------------------------------|-------------------------------------|-------------------------------------|
D|-----3---3--2----3---3--2------------|-----3---3--2----3---0--2------------|-----3---3--2----3---3--2------------|
A|-0--------------------------3--2--1--|-0--------------------------3--2--1--|-0--------------------------3--2--1--|
E|-------------------------------------|-------------------------------------|-------------------------------------|


E|-----------------------------------------|-------------------------------------|
B|-----------------------------------------|-------------------------------------|
G|-----------------------------------------|-------------------------------------|
D|-----3---3--2----------------------------|-----3---3--2----3---3--2------------|
A|-0---------------2--2--3--3--4--4--5--5--|-0--------------------------3--2--1--|
E|-----------------0--0--1--1--2--2--3--3--|-------------------------------------|


E|-------------------------------------|-------------------------------------|-----------------------------------------|
B|-------------------------------------|-------------------------------------|-----------------------------------------|
G|-------------------------------------|-------------------------------------|-----------------------------------------|
D|-----3---3--2----3---0--2------------|-----3---3--2----3---3--2------------|-----3---3--2----------------------------|
A|-0--------------------------3--2--1--|-0--------------------------3--2--1--|-0---------------2--2--3--3--4--4--5--5--|
E|-------------------------------------|-------------------------------------|-----------------0--0--1--1--2--2--3--3--|


E|-------------------------------------|-----------------------------------|-------------------------------------|
B|-------------------------------------|-----------------------------------|-------------------------------------|
G|-----2---4--2----5---5--4---2--4--2--|-----2---4--2----1---2--1---2---9--|-----2---4--2----5---5--4---2--4--2--|
D|-------------------------------------|-3---------------------------------|-------------------------------------|
A|-0-----------------------------------|-----------------------------------|-0-----------------------------------|
E|-------------------------------------|-----------------------------------|-------------------------------------|


E|---------------------------------|-----5---7--5----8---8--7---5---5--|-5--5--5--5--5---5---5---4--4---4--4--4--|
B|---------------------------------|-----5---5--5----5---5--5---5---6--|-6--6--6--6--6---6---6---5--5---5--5--5--|
G|-----2---4--2----1---2--1---2----|--------------------------------5--|-5--5--5--5--5---5---5---4--4---4--4--4--|
D|-3-------------------------------|-----------------------------------|-----------------------------------------|
A|---------------------------------|-----------------------------------|-----------------------------------------|
E|---------------------------------|-----------------------------------|-----------------------------------------|


E|-----5---7--5----8---8--7---5--7--5--|-5---5---7--5----4---4--5---4----|-5------|
B|-----5---5--5----5---5--5---5--5--5--|-6---6---6--6----5---5--5---5----|-5------|
G|-------------------------------------|-5---------------4---------------|-5------|
D|-7-----------------------------------|---------------------------------|--------|
A|-------------------------------------|---------------------------------|--------|
E|-------------------------------------|---------------------------------|--------|


E|--------|--------|--------|--------|--------|--------|--------|--------|--------|
B|--------|--------|--------|--------|--------|--------|--------|--------|--------|
G|--------|--------|--------|--------|--------|--------|--------|--------|--------|
D|--------|--------|--------|--------|--------|--------|--------|--------|--------|
A|--------|--------|--------|--------|--------|--------|--------|--------|--------|
E|--------|--------|--------|--------|--------|--------|--------|--------|--------|


E|--------|--------|--------|--------|-------------------------------------|-------------------------------------|
B|--------|--------|--------|--------|-------------------------------------|-------------------------------------|
G|--------|--------|--------|--------|-------------------------------------|-------------------------------------|
D|--------|--------|--------|--------|-----3---3--2----3---3--2------------|-----3---3--2----3---0--2------------|
A|--------|--------|--------|--------|-0--------------------------3--2--1--|-0--------------------------3--2--1--|
E|--------|--------|--------|--------|-------------------------------------|-------------------------------------|


E|-------------------------------------|-----------------------------------------|
B|-------------------------------------|-----------------------------------------|
G|-------------------------------------|-----------------------------------------|
D|-----3---3--2----3---3--2------------|-----3---3--2----------------------------|
A|-0--------------------------3--2--1--|-0---------------2--2--3--3--4--4--5--5--|
E|-------------------------------------|-----------------0--0--1--1--2--2--3--3--|


E|-------------------------------------|---------------------------------|-------------------------------------|
B|-------------------------------------|---------------------------------|-------------------------------------|
G|-----2---4--2----5---5--4---2--4--2--|-----2---4--2----1---2--1--------|-----2---4--2----5---5--4---2--4--2--|
D|-------------------------------------|-3-------------------------------|-------------------------------------|
A|-0-----------------------------------|----------------------------2----|-0-----------------------------------|
E|-------------------------------------|---------------------------------|-------------------------------------|


E|-------------------------------------|-5------|-5-----4-----|-5------|-5-----4-----|
B|-------------------------------------|-5------|-6-----5-----|-5------|-6-----5-----|
G|-----2---4--2----1---2--1------------|-5------|-5-----4-----|-5------|-5-----4-----|
D|-3-----------------------------------|--------|-------------|--------|-------------|
A|----------------------------2--3--2--|--------|-------------|--------|-------------|
E|-------------------------------------|--------|-------------|--------|-------------|


E|-0------|--------|
B|-0------|--------|
G|-2------|--------|
D|-2------|--------|
A|-0------|--------|
E|--------|--------|





Track 2: Bass

G|-------------|--------|--------|--------------------|--------------------|--------------------|
D|-------------|--------|--------|--------------------|--------------------|--------------------|
A|-------------|--------|--------|-0------0--3--2--1--|-0------0--3--2--1--|-0------0--3--2--1--|
E|-------8-----|--------|--------|--------------------|--------------------|--------------------|


G|-------------------------------|----------------------------------|----------------------------------|
D|-------------------------------|-----2---2--------2--2------------|-----2---2--------2--2------------|
A|-0-----------------------------|-0------------0----------3--2--1--|-0------------0----------3--2--1--|
E|-------0--0--1--1--2--2--3--3--|----------------------------------|----------------------------------|


G|----------------------------------|-------------------------------|---------------------------|
D|-----2---2--------2--2------------|-------------------------------|-----2---2--------2---2----|
A|-0------------0----------3--2--1--|-0-----------------------------|-0------------0------------|
E|----------------------------------|-------0--0--1--1--2--2--3--3--|---------------------------|


G|---------------------------------|---------------------------|---------------------------------|
D|-----0---------------0-----------|-----2---2--------2---2----|-----0---------------0-----------|
A|---------3---2-----------3---2---|-0------------0------------|---------3---2-----------3---2---|
E|-1---------------0---------------|---------------------------|-1---------------0---------------|


G|---------------------------|---------------------------------|---------------------------|
D|-----2---2--------2---2----|-----0---------------0-----------|-----2---2--------2---2----|
A|-0------------0------------|---------3---2-----------3---2---|-0------------0------------|
E|---------------------------|-1---------------0---------------|---------------------------|


G|---------------------------------|--------|------------|---------------------|------------|
D|-----0---------------0-----------|--------|------------|---------------------|------------|
A|---------3---2-----------3---2---|--------|------------|---------------------|------------|
E|-1---------------0---------------|--------|-----5------|-5---1-----1---0-----|-0---5------|


G|---------------------|------------|---------------------|------------|---------------------|
D|---------------------|------------|---------------------|------------|---------------------|
A|---------------------|------------|---------------------|------------|---------------------|
E|-5---1-----1---0-----|-0---5------|-5---1-----1---0-----|-0---5------|-5---1-----1---0-----|


G|------------|---------------------|------------|---------------------|------------|
D|------------|---------------------|------------|---------------------|------------|
A|------------|---------------------|------------|---------------------|------------|
E|-0---5------|-5---1-----1---0-----|-0---5------|-5---1-----1---0-----|-0---5------|


G|----------------------------------|----------------------------------|----------------------------------|
D|-----2---2--------2--2------------|-----2---2--------2--2------------|-----2---2--------2--2------------|
A|-0------------0----------3--2--1--|-0------------0----------3--2--1--|-0------------0----------3--2--1--|
E|----------------------------------|----------------------------------|----------------------------------|


G|-------------------------------|---------------------------|---------------------------------|
D|-------------------------------|-----2---2--------2---2----|-----0---------------0-----------|
A|-0-----------------------------|-0------------0------------|---------3---2-----------3---2---|
E|-------0--0--1--1--2--2--3--3--|---------------------------|-1---------------0---------------|


G|---------------------------|---------------------------------|---------------------------|
D|-----2---2--------2---2----|-----0---------------0-----------|-----3---2--------3---2----|
A|-0------------0------------|---------3---2-----------3---2---|-0------------0------------|
E|---------------------------|-1---------------0---------------|---------------------------|


G|---------------------------------|---------------------------|---------------------------------|
D|-----0---------------0-----------|-----3---2--------3---2----|-----0---------------0-----------|
A|---------3---2-----------3---2---|-0------------0------------|---------3---2-----------3---2---|
E|-1---------------0---------------|---------------------------|-1---------------0---------------|


G|-------------|-------------|
D|-3-----2-----|-------------|
A|-------------|-3-----1-----|
E|-------------|-------------|